Menu:

 

Search:

 

joe satriani - chords of life:

 



Title: Chords of Life
Artist: 
Album: Strange Beautiful Music
Author: Joe Satriani


Track 1: -

E|-----------------|------------------------|------------------------|--------|-----------------|
B|-----------------|------------------------|------------------------|--------|-------8----8----|
G|-----------------|------------------------|------------------------|--------|-----------------|
D|-------8----8----|-10----12-----------8---|-10----12------12--12---|-12-----|-----------------|
A|-----------------|------------------------|------------------------|--------|-----------------|
E|-----------------|------------------------|------------------------|--------|-----------------|


E|-------------|--------|--------|-----------------|------------------------|------------------------|
B|-10----11----|-8------|-8------|-----------------|------------------------|------------------------|
G|-------------|--------|--------|-----------------|------------------------|------------------------|
D|-------------|--------|--------|-------8----8----|-10----12-----------8---|-10----12------12--12---|
A|-------------|--------|--------|-----------------|------------------------|------------------------|
E|-------------|--------|--------|-----------------|------------------------|------------------------|


E|--------|-----------------|-------10----|--------|--------|----------------|-8--------------|
B|--------|-------8----8----|-10----------|-8------|-8------|------------8---|--------8-------|
G|--------|-----------------|-------------|--------|--------|-8------10------|------------10--|
D|-12-----|-----------------|-------------|--------|--------|----------------|----------------|
A|--------|-----------------|-------------|--------|--------|----------------|----------------|
E|--------|-----------------|-------------|--------|--------|----------------|----------------|


E|--------|--------|--------|----------------|----------------|--------|--------|--------|
B|--------|-14-----|-15-----|----------------|----------------|--------|--------|--------|
G|-9------|--------|--------|----------------|----------------|--------|--------|--------|
D|--------|--------|--------|-12-----12--10--|-8------12--10--|-12-----|--------|--------|
A|--------|--------|--------|----------------|----------------|--------|--------|--------|
E|--------|--------|--------|----------------|----------------|--------|--------|--------|


E|--------|--------|------------------------------|--------|--------|--------|------------------------------|
B|--------|--------|-----13--11--13---------------|--------|--------|--------|-----13--11--13-------11------|
G|--------|--------|-----------------12---10------|--------|--------|--------|-----------------12-----------|
D|--------|--------|------------------------------|--------|--------|--------|------------------------------|
A|--------|--------|------------------------------|--------|--------|--------|------------------------------|
E|--------|--------|------------------------------|--------|--------|--------|------------------------------|


E|--------------------|---------------------------------|---------------------------|
B|--------------------|---------------------------------|---------------------------|
G|--------------------|---------------------------------|---------------------------|
D|--------------------|---------------------------------|---------------------------|
A|----------------10--|-10--8-------10------8---10------|-10---8---10--8----10--10--|
E|--------------------|---------------------------------|---------------------------|


E|------------------------------|------------------------|------------------------------|
B|-----13--11--13-------11------|------------------------|------------------------------|
G|-----------------12-----------|------------------------|------------------------------|
D|------------------------------|------------------------|------------------------------|
A|-10---------------------------|------8--------8----10--|-10---10------8---8---8---10--|
E|------------------------------|------------------------|------------------------------|


E|------------------------------|--------|--------|----------------------------------------|
B|------------------------------|--------|--------|-------11-13-13-11-13-11-13-11----------|
G|------------------------------|--------|--------|----12----------------------------------|
D|------------------------------|--------|--------|----------------------------------------|
A|-10--8---10--8---10--8--------|--------|--------|----------------------------------------|
E|------------------------------|--------|--------|----------------------------------------|


E|--------------------------------------13---|-------------------------------------------|
B|-------11-13-131311-13-11-13-11-13-11------|-------11-13-131311-13-11-13-11-------11---|
G|----12-------------------------------------|----12--------------------------12-10------|
D|-------------------------------------------|-------------------------------------------|
A|-------------------------------------------|-------------------------------------------|
E|-------------------------------------------|-------------------------------------------|


E|------------------------|------------------------------------------|--------------------------------------13--13-13-|
B|-11---------------------|-------11-13-13-11-13-11-13-11-------11---|-11----11-13-131311-13-11-13-11-13-11-----------|
G|------12-10-------------|----12-------------------------12-10------|----12------------------------------------------|
D|------------12-12----12-|------------------------------------------|------------------------------------------------|
A|------------------------|------------------------------------------|------------------------------------------------|
E|------------------------|------------------------------------------|------------------------------------------------|


E|----------------------------------------------|----------13--------------------------------------------|
B|-------11-13-131311-13-11-13-11-13--13--11-11-|-11-11-11----15-13-13-13-11-13-11-------11-11-11-11-11--|
G|----12----------------------------------------|----------------------------------12-10-----------------|
D|----------------------------------------------|--------------------------------------------------------|
A|----------------------------------------------|--------------------------------------------------------|
E|----------------------------------------------|--------------------------------------------------------|


E|---------------------------------------------|------------------------------------------15-|
B|-12-12-15----15-15---------15-15-15----15-15-|-------15-15-------15-15-------15--15--18----|
G|-12-12-15----15-15-----15--15-15-15----15-15-|-15----15-15-15----15-15-15----15--15--------|
D|----------17--------17--------------17-------|----17----------17----------17---------------|
A|---------------------------------------------|---------------------------------------------|
E|---------------------------------------------|---------------------------------------------|


E|----15----15----15----15----15----15-18--18-18-|-15----18----15----13----------------------------------------|
B|-18----18----18----18----18----18--------------|----15----18----15----14-15-15-14-15-15-14-15-15-14-15-15-14-|
G|-----------------------------------------------|-------------------------------------------------------------|
D|-----------------------------------------------|-------------------------------------------------------------|
A|-----------------------------------------------|-------------------------------------------------------------|
E|-----------------------------------------------|-------------------------------------------------------------|


E|-------------------------------------------------------------|--------------------------------------------------|
B|-15151815151415151815151415151815151415151815151415-14-13----|----13--------------------------------------------|
G|----------------------------------------------------------15-|-12-----12-15-12----------------------------------|
D|-------------------------------------------------------------|-----------------15-12----------------------------|
A|-------------------------------------------------------------|-----------------------15-13----15-13-15-13----13-|
E|-------------------------------------------------------------|-----------------------------15-------------15----|


E|------------------------------------------------------------|--------1815181518-2018201820------20--20--|
B|--------------------------------------------------------1815|-181518------------------------------------|
G|---------------------------------------------1715171517-----|-------------------------------------------|
D|----------------------------------1715171517----------------|-------------------------------------------|
A|-----------------------1715171517---------------------------|-------------------------------------------|
E|-1513151315-1815181518--------------------------------------|-------------------------------------------|


E|-20----20--------|------20--22--18--22--17--22--18--22--20--22--|-18--22--17--22------22------22------22--20--22--|
B|-----------------|----------------------------------------------|-----------------20------19------20--------------|
G|-----------------|----------------------------------------------|-------------------------------------------------|
D|-----------------|----------------------------------------------|-------------------------------------------------|
A|-----------------|----------------------------------------------|-------------------------------------------------|
E|-----------------|----------------------------------------------|-------------------------------------------------|


E|-17----15--------------|-15---------15---|------------------------|------------------------|
B|-----------15--13--15--|-----------------|------------------------|------------------------|
G|-----------------------|-----------------|------------------------|------------------------|
D|-----------------------|-------8----8----|-10----12-----------8---|-10----12------12--12---|
A|-----------------------|-----------------|------------------------|------------------------|
E|-----------------------|-----------------|------------------------|------------------------|


E|--------|-----------------|-------------|--------|---------------------------------|
B|--------|-------8----8----|-10----11----|-8------|---------------------------------|
G|--------|-----------------|-------------|--------|-10--8---7---5---5---7---7---7---|
D|-12-----|-----------------|-------------|--------|---------------------------------|
A|--------|-----------------|-------------|--------|---------------------------------|
E|--------|-----------------|-------------|--------|---------------------------------|


E|-----------------|-----------------|-----------------|-------------|-----------------|
B|-----------------|-----------------|-----------------|-------------|-------8----8----|
G|-----------------|-----------------|-----------------|-------------|-----------------|
D|-------8----8----|-10----12--------|-----------------|-------------|-----------------|
A|-----------------|-----------------|-3-----8----5----|-5------5----|-----------------|
E|-----------------|-----------------|-----------------|-------------|-----------------|


E|-------10----|--------|--------|----------------|-8--------------|--------|--------|
B|-10----------|-8------|-8------|------------8---|--------8-------|--------|-14-----|
G|-------------|--------|--------|-8------10------|------------10--|-9------|--------|
D|-------------|--------|--------|----------------|----------------|--------|--------|
A|-------------|--------|--------|----------------|----------------|--------|--------|
E|-------------|--------|--------|----------------|----------------|--------|--------|


E|--------|--------|--------|--------|--------|--------|--------|--------|---------------------------|
B|-15-----|-15-----|--------|--------|--------|--------|--------|--------|-----13--11--13------------|
G|--------|--------|--------|--------|--------|--------|--------|--------|-----------------12--------|
D|--------|--------|--------|--------|--------|--------|--------|--------|---------------------------|
A|--------|--------|--------|--------|--------|--------|--------|--------|---------------------------|
E|--------|--------|--------|--------|--------|--------|--------|--------|---------------------------|


E|--------|--------|--------|------------------------------|------------------------------|
B|--------|--------|--------|-----13--11--13-------11------|------------------------------|
G|--------|--------|--------|-----------------12-----------|------------------------------|
D|--------|--------|--------|------------------------------|------------------------------|
A|--------|--------|--------|------------------------------|------10------10--10--10--10--|
E|--------|--------|--------|------------------------------|------------------------------|


E|---------------------------------|------------------------------|------------------------------|
B|---------------------------------|------------------------------|-----13--11--13-------11------|
G|---------------------------------|------------------------------|-----------------12-----------|
D|---------------------------------|------------------------------|------------------------------|
A|-10--10------10--10--10------10--|-10--8-------10--8---10--10---|------------------------------|
E|---------------------------------|------------------------------|------------------------------|


E|------------------------------|------------------------------|-----------------------------------|
B|------------------------------|---------11--13---------------|-----------------------------------|
G|------------------------------|-----12----------12---10------|------10-12--10--------------------|
D|------------------------------|------------------------------|-----------------12--10-8----------|
A|------10------10--10--10--10--|-10---------------------------|---------------------------10------|
E|------------------------------|------------------------------|-----------------------------------|


E|------------------------------|--------|------------------------------|-----------10----------|
B|-----13--11--13---------------|--------|-----13--11--13-------11------|-------13------13--11--|
G|-----------------12---10------|--------|-----------------12-----------|-----------------------|
D|------------------------------|--------|------------------------------|-----------------------|
A|------------------------------|--------|------------------------------|-----------------------|
E|------------------------------|--------|------------------------------|-----------------------|


E|------------------------------|-----------------------|--------------------------------|
B|-----13--11--13-------11------|-----------------------|-11--11---------------------11--|
G|-12--------------12-----------|---------------10--12--|---------12-10-----10--12-------|
D|------------------------------|-----------12----------|---------------12---------------|
A|------------------------------|-----------------------|--------------------------------|
E|------------------------------|-----------------------|--------------------------------|


E|--------------------------------|-----------------------------------------------------|
B|------11------------------------|-11---------------11-----------11-----------11-------|
G|---------12-10------10--12------|----12-10------------12-10--------12-10--------12-10-|
D|---------------12---------------|----------12---------------12-----------12-----------|
A|--------------------------------|-----------------------------------------------------|
E|--------------------------------|-----------------------------------------------------|


E|----------------------------------------|------15-------------15-------------------|
B|-----11-----------11-----------11--11---|---------18-15----15----18-15----15-------|
G|--------12-10--------12-10-12-----------|---------------17-------------17----17-15-|
D|-12-----------12------------------------|------------------------------------------|
A|----------------------------------------|------------------------------------------|
E|----------------------------------------|------------------------------------------|


E|---------------------------15----------------|-----------------------15----------15----|
B|---------------------15-18----18-15----15----|---------15------15--18---18-15----------|
G|----17----15--17--------------------17----15-|-17--17-------------------------17----15-|
D|-17----17------------------------------------|-----------------------------------------|
A|---------------------------------------------|-----------------------------------------|
E|---------------------------------------------|-----------------------------------------|


E|--------------------15--------------|------15-------------15-----15----18----|-18---15----------------------------------|
B|--------------15-18----18-15----15--|---------18-15----15----18-----15-------|---------18-15----15-18-15----------------|
G|-17--15---17-----------------17-----|-17------------17-----------------------|---------------17----------17-15----17----|
D|------------------------------------|----------------------------------------|---------------------------------17----17-|
A|------------------------------------|----------------------------------------|------------------------------------------|
E|------------------------------------|----------------------------------------|------------------------------------------|


E|---------------------------------------------|--------------------|--------|--------|
B|---------------------------------------------|--------------------|--------|--------|
G|-15--15--------------------------------------|--------------------|--------|--------|
D|--------17-15--------------------------------|--------------------|--------|--------|
A|--------------17-15-13----15--13-------------|--------------------|--------|--------|
E|-----------------------15---------15--13--13-|-15--15-------------|--------|--------|


E|-----------------------|--------|--------|--------|
B|-------------8---------|--------|--------|--------|
G|-------------7---------|--------|--------|--------|
D|-----------------------|--------|--------|--------|
A|-----3---5-------------|--------|--------|--------|
E|-----------------------|--------|--------|--------|





Track 2: -

E|-----------------|------------------------|------------------------|--------|-----------------|
B|-----------------|------------------------|------------------------|--------|-----------------|
G|-----------------|------------------------|------------------------|--------|-----------------|
D|-------5----5----|-7-----8----------------|------------------------|--------|-------8----8----|
A|-----------------|--------------------1---|-3-----5-------5---5----|-5------|-----------------|
E|-----------------|------------------------|------------------------|--------|-----------------|


E|-------------|--------|--------|-----------------|------------------------|------------------------|
B|-------------|--------|--------|-----------------|------------------------|------------------------|
G|-------7-----|--------|--------|-----------------|------------------------|------------------------|
D|-10----------|-8------|-8------|-------5----5----|-7-----8----------------|------------------------|
A|-------------|--------|--------|-----------------|--------------------1---|-3-----5-------5---5----|
E|-------------|--------|--------|-----------------|------------------------|------------------------|


E|--------|-----------------|-------------|--------|--------|----------------|----------------|
B|--------|-----------------|-------------|--------|--------|----------------|----------------|
G|--------|-----------------|-------10----|--------|--------|--------7---8---|-12-----8---7---|
D|--------|-------8----8----|-10----------|-8------|-8------|-10-------------|----------------|
A|-5------|-----------------|-------------|--------|--------|----------------|----------------|
E|--------|-----------------|-------------|--------|--------|----------------|----------------|


E|--------|--------|--------------------|-----10--10----------------|-----14--14----------------|
B|--------|--------|----------------10--|-----------------------15--|-------------------19--22--|
G|-6------|-14-----|------------11------|-------------------14------|---------------19----------|
D|--------|--------|-12-----12----------|---------------16----------|---------------------------|
A|--------|--------|--------------------|---------------------------|---------------------------|
E|--------|--------|--------------------|---------------------------|---------------------------|


E|-----20--20-----|--------|--------|--------|--------|--------|--------|--------|
B|----------------|--------|--------|--------|--------|--------|--------|--------|
G|----------------|--------|--------|--------|--------|--------|--------|--------|
D|----------------|--------|--------|--------|--------|--------|--------|--------|
A|----------------|--------|--------|--------|--------|--------|--------|--------|
E|----------------|--------|--------|--------|--------|--------|--------|--------|


E|--------|--------|--------|--------|--------|--------|--------|--------|--------|
B|--------|--------|--------|--------|--------|--------|--------|--------|--------|
G|--------|--------|--------|--------|--------|--------|--------|--------|--------|
D|--------|--------|--------|--------|--------|--------|--------|--------|--------|
A|--------|--------|--------|--------|--------|--------|--------|--------|--------|
E|--------|--------|--------|--------|--------|--------|--------|--------|--------|


E|--------|--------|--------|--------|--------|--------|--------|--------|--------|
B|--------|--------|--------|--------|--------|--------|--------|--------|--------|
G|--------|--------|--------|--------|--------|--------|--------|--------|--------|
D|--------|--------|--------|--------|--------|--------|--------|--------|--------|
A|--------|--------|--------|--------|--------|--------|--------|--------|--------|
E|--------|--------|--------|--------|--------|--------|--------|--------|--------|


E|--------|--------|--------|--------|--------|--------|--------|--------|--------|
B|--------|--------|--------|--------|--------|--------|--------|--------|--------|
G|--------|--------|--------|--------|--------|--------|--------|--------|--------|
D|--------|--------|--------|--------|--------|--------|--------|--------|--------|
A|--------|--------|--------|--------|--------|--------|--------|--------|--------|
E|--------|--------|--------|--------|--------|--------|--------|--------|--------|


E|--------|---------------------------|------------------------------|--------|-----------------|
B|--------|--------------11--11--10---|-----------------11--11--10---|-10-----|-----------------|
G|--------|--------------12--12--11---|-14--12----------12--12--11---|-11-----|-----------------|
D|--------|----------10---------------|---------12--12---------------|--------|-------5----5----|
A|--------|---------------------------|------------------------------|--------|-----------------|
E|--------|---------------------------|------------------------------|--------|-----------------|


E|--------|--------|--------|--------|--------|--------|--------|--------|--------|
B|--------|--------|--------|--------|--------|--------|--------|--------|--------|
G|--------|--------|--------|--------|--------|--------|--------|--------|--------|
D|--------|--------|--------|--------|--------|--------|--------|--------|--------|
A|--------|--------|--------|--------|--------|--------|--------|--------|--------|
E|--------|--------|--------|--------|--------|--------|--------|--------|--------|


E|--------|--------|--------|--------|--------|--------|--------|--------|--------|
B|--------|--------|--------|--------|--------|--------|--------|--------|--------|
G|--------|--------|--------|--------|--------|--------|--------|--------|--------|
D|--------|--------|--------|--------|--------|--------|--------|--------|--------|
A|--------|--------|--------|--------|--------|--------|--------|--------|--------|
E|--------|--------|--------|--------|--------|--------|--------|--------|--------|


E|--------|--------|--------|--------|--------|--------|--------|--------|--------|
B|--------|--------|--------|--------|--------|--------|--------|--------|--------|
G|--------|--------|--------|--------|--------|--------|--------|--------|--------|
D|--------|--------|--------|--------|--------|--------|--------|--------|--------|
A|--------|--------|--------|--------|--------|--------|--------|--------|--------|
E|--------|--------|--------|--------|--------|--------|--------|--------|--------|


E|--------|--------|--------|--------|--------|--------|--------|--------|--------|
B|--------|--------|--------|--------|--------|--------|--------|--------|--------|
G|--------|--------|--------|--------|--------|--------|--------|--------|--------|
D|--------|--------|--------|--------|--------|--------|--------|--------|--------|
A|--------|--------|--------|--------|--------|--------|--------|--------|--------|
E|--------|--------|--------|--------|--------|--------|--------|--------|--------|


E|--------|--------|--------|--------|--------|--------|--------|--------|--------|
B|--------|--------|--------|--------|--------|--------|--------|--------|--------|
G|--------|--------|--------|--------|--------|--------|--------|--------|--------|
D|--------|--------|--------|--------|--------|--------|--------|--------|--------|
A|--------|--------|--------|--------|--------|--------|--------|--------|--------|
E|--------|--------|--------|--------|--------|--------|--------|--------|--------|


E|--------|--------|--------|--------|--------|--------|--------|--------|--------|
B|--------|--------|--------|--------|--------|--------|--------|--------|--------|
G|--------|--------|--------|--------|--------|--------|--------|--------|--------|
D|--------|--------|--------|--------|--------|--------|--------|--------|--------|
A|--------|--------|--------|--------|--------|--------|--------|--------|--------|
E|--------|--------|--------|--------|--------|--------|--------|--------|--------|


E|--------|--------|--------|--------|--------|--------|--------|--------|--------|
B|--------|--------|--------|--------|--------|--------|--------|--------|--------|
G|--------|--------|--------|--------|--------|--------|--------|--------|--------|
D|--------|--------|--------|--------|--------|--------|--------|--------|--------|
A|--------|--------|--------|--------|--------|--------|--------|--------|--------|
E|--------|--------|--------|--------|--------|--------|--------|--------|--------|





Track 3: -

E|---------10--------------10------|---------10--------------10------|---------10--------------10------|
B|-----11------11------11------11--|-----11------11------11------11--|-----11------11------11------11--|
G|-12--------------12--------------|-10--------------10--------------|-8---------------8---------------|
D|---------------------------------|---------------------------------|---------------------------------|
A|---------------------------------|---------------------------------|---------------------------------|
E|---------------------------------|---------------------------------|---------------------------------|


E|---------10--------------10------|---------10--------------10------|---------10--------------10------|
B|-----11------11------11------11--|-----11------11------11------11--|-----11------11------11------11--|
G|-8---------------8---------------|-12--------------12--------------|-10--------------10--------------|
D|---------------------------------|---------------------------------|---------------------------------|
A|---------------------------------|---------------------------------|---------------------------------|
E|---------------------------------|---------------------------------|---------------------------------|


E|---------10--------------10------|---------10--------------10------|---------10--------------10------|
B|-----11------11------11------11--|-----11------11------11------11--|-----11------11------11------11--|
G|-8---------------8---------------|-8---------------8---------------|-12--------------12--------------|
D|---------------------------------|---------------------------------|---------------------------------|
A|---------------------------------|---------------------------------|---------------------------------|
E|---------------------------------|---------------------------------|---------------------------------|


E|---------10--------------10------|---------10--------------10------|---------10--------------10------|
B|-----11------11------11------11--|-----11------11------11------11--|-----11------11------11------11--|
G|-10--------------10--------------|-8---------------8---------------|-8---------------8---------------|
D|---------------------------------|---------------------------------|---------------------------------|
A|---------------------------------|---------------------------------|---------------------------------|
E|---------------------------------|---------------------------------|---------------------------------|


E|---------10--------------10------|---------10--------------10------|---------10--------------10------|
B|-----11------11------11------11--|-----11------11------11------11--|-----11------11------11------11--|
G|-12--------------12--------------|-10--------------10--------------|-8---------------8---------------|
D|---------------------------------|---------------------------------|---------------------------------|
A|---------------------------------|---------------------------------|---------------------------------|
E|---------------------------------|---------------------------------|---------------------------------|


E|---------10--------------10------|---------15--------------15------|---------15--------------15------|
B|-----11------11------11------11--|-----16------16------16------16--|-----15------15------15------15--|
G|-8---------------8---------------|-17--------------17--------------|-15--------------15--------------|
D|---------------------------------|---------------------------------|---------------------------------|
A|---------------------------------|---------------------------------|---------------------------------|
E|---------------------------------|---------------------------------|---------------------------------|


E|---------15--------------15------|---------15--------------15------|---------17--------------17------|
B|-----14------14------14------14--|-----14------14------14------14--|-----19------19------19------19--|
G|-14--------------14--------------|-14--------------14--------------|-19--------------19--------------|
D|---------------------------------|---------------------------------|---------------------------------|
A|---------------------------------|---------------------------------|---------------------------------|
E|---------------------------------|---------------------------------|---------------------------------|


E|---------17--------------17------|---------17--------------17------|---------17--------------17------|
B|-----19------19------19------19--|-----19------19------19------19--|-----19------19------19------19--|
G|-17--------------17--------------|-15--------------15--------------|---------------------------------|
D|---------------------------------|---------------------------------|-19--------------19--------------|
A|---------------------------------|---------------------------------|---------------------------------|
E|---------------------------------|---------------------------------|---------------------------------|


E|--------|--------|--------|--------|--------|--------|--------|--------|--------|
B|--------|--------|--------|--------|--------|--------|--------|--------|--------|
G|--------|--------|--------|--------|--------|--------|--------|--------|--------|
D|--------|--------|--------|--------|--------|--------|--------|--------|--------|
A|--------|--------|--------|--------|--------|--------|--------|--------|--------|
E|--------|--------|--------|--------|--------|--------|--------|--------|--------|


E|--------|--------|--------|--------|--------|--------|--------|--------|--------|
B|--------|--------|--------|--------|--------|--------|--------|--------|--------|
G|--------|--------|--------|--------|--------|--------|--------|--------|--------|
D|--------|--------|--------|--------|--------|--------|--------|--------|--------|
A|--------|--------|--------|--------|--------|--------|--------|--------|--------|
E|--------|--------|--------|--------|--------|--------|--------|--------|--------|


E|--------|--------|--------|--------|--------|--------|--------|--------|--------|
B|--------|--------|--------|--------|--------|--------|--------|--------|--------|
G|--------|--------|--------|--------|--------|--------|--------|--------|--------|
D|--------|--------|--------|--------|--------|--------|--------|--------|--------|
A|--------|--------|--------|--------|--------|--------|--------|--------|--------|
E|--------|--------|--------|--------|--------|--------|--------|--------|--------|


E|--------|--------|--------|--------|--------|--------|--------|--------|--------|
B|--------|--------|--------|--------|--------|--------|--------|--------|--------|
G|--------|--------|--------|--------|--------|--------|--------|--------|--------|
D|--------|--------|--------|--------|--------|--------|--------|--------|--------|
A|--------|--------|--------|--------|--------|--------|--------|--------|--------|
E|--------|--------|--------|--------|--------|--------|--------|--------|--------|


E|--------|-----------10------10--|---------10--------------10------|--------|--------|
B|--------|-------13------13------|-----11------11------11------11--|--------|--------|
G|--------|-----------------------|-12--------------12--------------|--------|--------|
D|--------|-----------------------|---------------------------------|--------|--------|
A|--------|-----------------------|---------------------------------|--------|--------|
E|--------|-----------------------|---------------------------------|--------|--------|


E|--------|--------|--------|--------|--------|--------|--------|--------|--------|
B|--------|--------|--------|--------|--------|--------|--------|--------|--------|
G|--------|--------|--------|--------|--------|--------|--------|--------|--------|
D|--------|--------|--------|--------|--------|--------|--------|--------|--------|
A|--------|--------|--------|--------|--------|--------|--------|--------|--------|
E|--------|--------|--------|--------|--------|--------|--------|--------|--------|


E|--------|--------|--------|--------|--------|--------|--------|--------|--------|
B|--------|--------|--------|--------|--------|--------|--------|--------|--------|
G|--------|--------|--------|--------|--------|--------|--------|--------|--------|
D|--------|--------|--------|--------|--------|--------|--------|--------|--------|
A|--------|--------|--------|--------|--------|--------|--------|--------|--------|
E|--------|--------|--------|--------|--------|--------|--------|--------|--------|


E|--------|--------|--------|--------|--------|--------|--------|--------|--------|
B|--------|--------|--------|--------|--------|--------|--------|--------|--------|
G|--------|--------|--------|--------|--------|--------|--------|--------|--------|
D|--------|--------|--------|--------|--------|--------|--------|--------|--------|
A|--------|--------|--------|--------|--------|--------|--------|--------|--------|
E|--------|--------|--------|--------|--------|--------|--------|--------|--------|


E|--------|--------|--------|--------|--------|--------|--------|--------|--------|
B|--------|--------|--------|--------|--------|--------|--------|--------|--------|
G|--------|--------|--------|--------|--------|--------|--------|--------|--------|
D|--------|--------|--------|--------|--------|--------|--------|--------|--------|
A|--------|--------|--------|--------|--------|--------|--------|--------|--------|
E|--------|--------|--------|--------|--------|--------|--------|--------|--------|


E|--------|--------|--------|--------|--------|--------|--------|--------|--------|
B|--------|--------|--------|--------|--------|--------|--------|--------|--------|
G|--------|--------|--------|--------|--------|--------|--------|--------|--------|
D|--------|--------|--------|--------|--------|--------|--------|--------|--------|
A|--------|--------|--------|--------|--------|--------|--------|--------|--------|
E|--------|--------|--------|--------|--------|--------|--------|--------|--------|


E|--------|--------|--------|--------|--------|--------|--------|--------|--------|
B|--------|--------|--------|--------|--------|--------|--------|--------|--------|
G|--------|--------|--------|--------|--------|--------|--------|--------|--------|
D|--------|--------|--------|--------|--------|--------|--------|--------|--------|
A|--------|--------|--------|--------|--------|--------|--------|--------|--------|
E|--------|--------|--------|--------|--------|--------|--------|--------|--------|


E|--------|--------|--------|--------|--------|--------|--------|
B|--------|--------|--------|--------|--------|--------|--------|
G|--------|--------|--------|--------|--------|--------|--------|
D|--------|--------|--------|--------|--------|--------|--------|
A|--------|--------|--------|--------|--------|--------|--------|
E|--------|--------|--------|--------|--------|--------|--------|





Track 4: -

E|--------|--------|--------|--------|--------|--------|--------|--------|--------|
B|--------|--------|--------|--------|--------|--------|--------|--------|--------|
G|--------|--------|--------|--------|--------|--------|--------|--------|--------|
D|--------|--------|--------|--------|--------|--------|--------|--------|--------|
A|--------|--------|--------|--------|--------|--------|--------|--------|--------|
E|--------|--------|--------|--------|--------|--------|--------|--------|--------|


E|--------|--------|--------|--------|--------|--------|--------|--------|--------|
B|--------|--------|--------|--------|--------|--------|--------|--------|--------|
G|--------|--------|--------|--------|--------|--------|--------|--------|--------|
D|--------|--------|--------|--------|--------|--------|--------|--------|--------|
A|--------|--------|--------|--------|--------|--------|--------|--------|--------|
E|--------|--------|--------|--------|--------|--------|--------|--------|--------|


E|--------|--------|--------|--------|--------|--------|-10---10-------8----6---|-6----6-----------5----3---|
B|--------|--------|--------|--------|--------|--------|-11---11-------10---8---|-8----8-------6---6----4---|
G|--------|--------|--------|--------|--------|--------|-12---12-------10---8---|-8----8-------7---7----5---|
D|--------|--------|--------|--------|--------|--------|-12---12-------10---8---|-8----8-------7---7----5---|
A|--------|--------|--------|--------|--------|--------|-10---10-------8----6---|-6----6-------5---5----3---|
E|--------|--------|--------|--------|--------|--------|------------------------|---------------------------|


E|-3----3--------5----6---|-6----6--------8----10--|-10---10-------8----6---|-6----6--------5----3---|
B|-4----4--------6----8---|-8----8--------10---11--|-11---11-------10---8---|-8----8--------6----4---|
G|-5----5--------7----8---|-8----8--------10---12--|-12---12-------10---8---|-8----8--------7----5---|
D|-5----5--------7----8---|-8----8--------10---12--|-12---12-------10---8---|-8----8--------7----5---|
A|-3----3--------5----6---|-6----6--------8----10--|-10---10-------8----6---|-6----6--------5----3---|
E|------------------------|------------------------|------------------------|------------------------|


E|-3----3--------5----6---|-6----6--------8----10--|-10---10-------8----6---|-6----6--------5----3---|
B|-4----4--------6----8---|-8----8--------10---11--|-11---11-------10---8---|-8----8--------6----4---|
G|-5----5--------7----8---|-8----8--------10---12--|-12---12-------10---8---|-8----8--------7----5---|
D|-5----5--------7----8---|-8----8--------10---12--|-12---12-------10---8---|-8----8--------7----5---|
A|-3----3--------5----6---|-6----6--------8----10--|-10---10-------8----6---|-6----6--------5----3---|
E|------------------------|------------------------|------------------------|------------------------|


E|-3----3--------5----6---|-6----6--------8----10--|-10---10-------8----6---|-6----6--------5----3---|
B|-4----4--------6----8---|-8----8--------10---11--|-11---11-------10---8---|-8----8--------6----4---|
G|-5----5--------7----8---|-8----8--------10---12--|-12---12-------10---8---|-8----8--------7----5---|
D|-5----5--------7----8---|-8----8--------10---12--|-12---12-------10---8---|-8----8--------7----5---|
A|-3----3--------5----6---|-6----6--------8----10--|-10---10-------8----6---|-6----6--------5----3---|
E|------------------------|------------------------|------------------------|------------------------|


E|-3----3--------5----6---|-6----6--------8--------|--------|--------|--------|--------|
B|-4----4--------6----8---|-8----8--------10-------|--------|--------|--------|--------|
G|-5----5--------7----8---|-8----8--------10-------|--------|--------|--------|--------|
D|-5----5--------7----8---|-8----8--------10-------|--------|--------|--------|--------|
A|-3----3--------5----6---|-6----6--------8--------|--------|--------|--------|--------|
E|------------------------|------------------------|--------|--------|--------|--------|


E|--------|--------|--------|--------|--------|--------|--------|--------|--------|
B|--------|--------|--------|--------|--------|--------|--------|--------|--------|
G|--------|--------|--------|--------|--------|--------|--------|--------|--------|
D|--------|--------|--------|--------|--------|--------|--------|--------|--------|
A|--------|--------|--------|--------|--------|--------|--------|--------|--------|
E|--------|--------|--------|--------|--------|--------|--------|--------|--------|


E|--------|--------|--------|--------|--------|--------|--------|--------|--------|
B|--------|--------|--------|--------|--------|--------|--------|--------|--------|
G|--------|--------|--------|--------|--------|--------|--------|--------|--------|
D|--------|--------|--------|--------|--------|--------|--------|--------|--------|
A|--------|--------|--------|--------|--------|--------|--------|--------|--------|
E|--------|--------|--------|--------|--------|--------|--------|--------|--------|


E|--------|--------|--------|--------|--------|--------|--------|--------|--------|
B|--------|--------|--------|--------|--------|--------|--------|--------|--------|
G|--------|--------|--------|--------|--------|--------|--------|--------|--------|
D|--------|--------|--------|--------|--------|--------|--------|--------|--------|
A|--------|--------|--------|--------|--------|--------|--------|--------|--------|
E|--------|--------|--------|--------|--------|--------|--------|--------|--------|


E|--------|--------|--------|--------|--------|--------|--------|--------|--------|
B|--------|--------|--------|--------|--------|--------|--------|--------|--------|
G|--------|--------|--------|--------|--------|--------|--------|--------|--------|
D|--------|--------|--------|--------|--------|--------|--------|--------|--------|
A|--------|--------|--------|--------|--------|--------|--------|--------|--------|
E|--------|--------|--------|--------|--------|--------|--------|--------|--------|


E|--------|--------|--------|--------|--------|--------|-10---10-------8----6---|-6----6--------5----3---|
B|--------|--------|--------|--------|--------|--------|-11---11-------10---8---|-8----8--------6----4---|
G|--------|--------|--------|--------|--------|--------|-12---12-------10---8---|-8----8--------7----5---|
D|--------|--------|--------|--------|--------|--------|-12---12-------10---8---|-8----8--------7----5---|
A|--------|--------|--------|--------|--------|--------|-10---10-------8----6---|-6----6--------5----3---|
E|--------|--------|--------|--------|--------|--------|------------------------|------------------------|


E|-3----3--------5----6---|-6----6--------8----10--|-10---10-------8----6---|-6----6--------5----3---|
B|-4----4--------6----8---|-8----8--------10---11--|-11---11-------10---8---|-8----8--------6----4---|
G|-5----5--------7----8---|-8----8--------10---12--|-12---12-------10---8---|-8----8--------7----5---|
D|-5----5--------7----8---|-8----8--------10---12--|-12---12-------10---8---|-8----8--------7----5---|
A|-3----3--------5----6---|-6----6--------8----10--|-10---10-------8----6---|-6----6--------5----3---|
E|------------------------|------------------------|------------------------|------------------------|


E|-3----3--------5----6---|-6----6--------8----10--|-10---10-------8----6---|-6----6--------5----3---|
B|-4----4--------6----8---|-8----8--------10---11--|-11---11-------10---8---|-8----8--------6----4---|
G|-5----5--------7----8---|-8----8--------10---12--|-12---12-------10---8---|-8----8--------7----5---|
D|-5----5--------7----8---|-8----8--------10---12--|-12---12-------10---8---|-8----8--------7----5---|
A|-3----3--------5----6---|-6----6--------8----10--|-10---10-------8----6---|-6----6--------5----3---|
E|------------------------|------------------------|------------------------|------------------------|


E|-3----3--------5----6---|-6----6--------8----10--|-10---10-------8----6---|-6----6--------5----3---|
B|-4----4--------6----8---|-8----8--------10---11--|-11---11-------10---8---|-8----8--------6----4---|
G|-5----5--------7----8---|-8----8--------10---12--|-12---12-------10---8---|-8----8--------7----5---|
D|-5----5--------7----8---|-8----8--------10---12--|-12---12-------10---8---|-8----8--------7----5---|
A|-3----3--------5----6---|-6----6--------8----10--|-10---10-------8----6---|-6----6--------5----3---|
E|------------------------|------------------------|------------------------|------------------------|


E|-3----3--------5----6---|-6----6--------8----10--|-10---10-------8----6---|-6----6--------5----3---|
B|-4----4--------6----8---|-8----8--------10---11--|-11---11-------10---8---|-8----8--------6----4---|
G|-5----5--------7----8---|-8----8--------10---12--|-12---12-------10---8---|-8----8--------7----5---|
D|-5----5--------7----8---|-8----8--------10---12--|-12---12-------10---8---|-8----8--------7----5---|
A|-3----3--------5----6---|-6----6--------8----10--|-10---10-------8----6---|-6----6--------5----3---|
E|------------------------|------------------------|------------------------|------------------------|


E|-3----3--------5----6---|-6----6--------8----10--|-10---10-------8----6---|-6----6--------5----3---|
B|-4----4--------6----8---|-8----8--------10---11--|-11---11-------10---8---|-8----8--------6----4---|
G|-5----5--------7----8---|-8----8--------10---12--|-12---12-------10---8---|-8----8--------7----5---|
D|-5----5--------7----8---|-8----8--------10---12--|-12---12-------10---8---|-8----8--------7----5---|
A|-3----3--------5----6---|-6----6--------8----10--|-10---10-------8----6---|-6----6--------5----3---|
E|------------------------|------------------------|------------------------|------------------------|


E|-3----3--------5----6---|-6----6--------8----10--|-10---10-------8----6---|-6----6--------5----3---|
B|-4----4--------6----8---|-8----8--------10---11--|-11---11-------10---8---|-8----8--------6----4---|
G|-5----5--------7----8---|-8----8--------10---12--|-12---12-------10---8---|-8----8--------7----5---|
D|-5----5--------7----8---|-8----8--------10---12--|-12---12-------10---8---|-8----8--------7----5---|
A|-3----3--------5----6---|-6----6--------8----10--|-10---10-------8----6---|-6----6--------5----3---|
E|------------------------|------------------------|------------------------|------------------------|


E|-3----3--------5----6---|-6----6--------8----10--|-10---10-------8----6---|-6----6--------5----3---|
B|-4----4--------6----8---|-8----8--------10---11--|-11---11-------10---8---|-8----8--------6----4---|
G|-5----5--------7----8---|-8----8--------10---12--|-12---12-------10---8---|-8----8--------7----5---|
D|-5----5--------7----8---|-8----8--------10---12--|-12---12-------10---8---|-8----8--------7----5---|
A|-3----3--------5----6---|-6----6--------8----10--|-10---10-------8----6---|-6----6--------5----3---|
E|------------------------|------------------------|------------------------|------------------------|


E|-3----3--------5----6---|-6----6--------8----10--|-10---10-------8----6---|-6----6--------5----3---|
B|-4----4--------6----8---|-8----8--------10---11--|-11---11-------10---8---|-8----8--------6----4---|
G|-5----5--------7----8---|-8----8--------10---12--|-12---12-------10---8---|-8----8--------7----5---|
D|-5----5--------7----8---|-8----8--------10---12--|-12---12-------10---8---|-8----8--------7----5---|
A|-3----3--------5----6---|-6----6--------8----10--|-10---10-------8----6---|-6----6--------5----3---|
E|------------------------|------------------------|------------------------|------------------------|


E|-3----3--------5----6---|-6----6--------8----10--|-10---10-------8----6---|-6----6--------5----3---|
B|-4----4--------6----8---|-8----8--------10---11--|-11---11-------10---8---|-8----8--------6----4---|
G|-5----5--------7----8---|-8----8--------10---12--|-12---12-------10---8---|-8----8--------7----5---|
D|-5----5--------7----8---|-8----8--------10---12--|-12---12-------10---8---|-8----8--------7----5---|
A|-3----3--------5----6---|-6----6--------8----10--|-10---10-------8----6---|-6----6--------5----3---|
E|------------------------|------------------------|------------------------|------------------------|


E|-3----3--------5----6---|-6----6--------8----10--|
B|-4----4--------6----8---|-8----8--------10---11--|
G|-5----5--------7----8---|-8----8--------10---12--|
D|-5----5--------7----8---|-8----8--------10---12--|
A|-3----3--------5----6---|-6----6--------8----10--|
E|------------------------|------------------------|





Track 5: -

E|--------|--------|--------|--------|--------|--------|--------|--------|--------|
B|--------|--------|--------|--------|--------|--------|--------|--------|--------|
G|--------|--------|--------|--------|--------|--------|--------|--------|--------|
D|--------|--------|--------|--------|--------|--------|--------|--------|--------|
A|--------|--------|--------|--------|--------|--------|--------|--------|--------|
E|--------|--------|--------|--------|--------|--------|--------|--------|--------|


E|--------|--------|--------|--------|--------|--------|--------|--------|--------|
B|--------|--------|--------|--------|--------|--------|--------|--------|--------|
G|--------|--------|--------|--------|--------|--------|--------|--------|--------|
D|--------|--------|--------|--------|--------|--------|--------|--------|--------|
A|--------|--------|--------|--------|--------|--------|--------|--------|--------|
E|--------|--------|--------|--------|--------|--------|--------|--------|--------|


E|--------|--------|--------|--------|--------|--------|--------|--------|--------|
B|--------|--------|--------|--------|--------|--------|--------|--------|--------|
G|--------|--------|--------|--------|--------|--------|--------|--------|--------|
D|--------|--------|--------|--------|--------|--------|--------|--------|--------|
A|--------|--------|--------|--------|--------|--------|--------|--------|--------|
E|--------|--------|--------|--------|--------|--------|--------|--------|--------|


E|--------|--------|--------|--------|--------|--------|--------|--------|--------|
B|--------|--------|--------|--------|--------|--------|--------|--------|--------|
G|--------|--------|--------|--------|--------|--------|--------|--------|--------|
D|--------|--------|--------|--------|--------|--------|--------|--------|--------|
A|--------|--------|--------|--------|--------|--------|--------|--------|--------|
E|--------|--------|--------|--------|--------|--------|--------|--------|--------|


E|--------|--------|--------|--------|--------|--------------------|-------------|
B|--------|--------|--------|--------|--------|--------------------|-------------|
G|--------|--------|--------|--------|--------|--------------------|-------------|
D|--------|--------|--------|--------|--------|--------------------|-------------|
A|--------|--------|--------|--------|--------|--------------------|-------------|
E|--------|--------|--------|--------|--------|-----------15-------|-3----3------|


E|-------------|-------------|-----------------------------------------------|--------------|
B|-------------|-------------|-----------------------------------------------|--------------|
G|-------------|-------------|-----------------------------------------------|--------------|
D|-------------|-------------|-----10-10-10-10-10-10-10-10-10-10-10-10-10-10-|-5------5--5--|
A|-------------|-------------|-----10-10-10-10-10-10-10-10-10-10-10-10-10-10-|-5------5--5--|
E|-6----6------|-8----8------|-8---8--8--8--8--8--8--8--8--8--8--8--8--8--8--|-3------3--3--|


E|--------------|--------|-------------------------------------------------|---------------------------------------------|
B|--------------|--------|-------------------------------------------------|---------------------------------------------|
G|--------------|--------|-------------------------------------------------|---------------------------------------------|
D|-8------8--8--|-10-----|-10-10-10-10-10-10-10-10-10-10-10-10-10-10-10-10-|-5----5--5--5--5--5--5--5--5--5--5--5--5--5--|
A|-8------8--8--|-10-----|-10-10-10-10-10-10-10-10-10-10-10-10-10-10-10-10-|-5----5--5--5--5--5--5--5--5--5--5--5--5--5--|
E|-6------6--6--|-8------|-8--8--8--8--8--8--8--8--8--8--8--8--8--8--8--8--|-3----3--3--3--3--3--3--3--3--3--3--3--3--3--|


E|---------------------------------------------|---------------------------------------------|
B|---------------------------------------------|---------------------------------------------|
G|---------------------------------------------|---------------------------------------------|
D|-8----8--8--8--8--8--8--8--8--8--8--8--8--8--|-10---10-10-10-10-10-10-10-10-10-10-10-10-10-|
A|-8----8--8--8--8--8--8--8--8--8--8--8--8--8--|-10---10-10-10-10-10-10-10-10-10-10-10-10-10-|
E|-6----6--6--6--6--6--6--6--6--6--6--6--6--6--|-8----8--8--8--8--8--8--8--8--8--8--8--8--8--|


E|-------------------------------------------------|-3----3--3--3--3--3--3--3--3--3--3--3--3--3--|
B|-------------------------------------------------|-3----3--3--3--3--3--3--3--3--3--3--3--3--3--|
G|-------------------------------------------------|-4----4--4--4--4--4--4--4--4--4--4--4--4--4--|
D|-10-10-10-10-10-10-10-10-10-10-10-10-10-10-10-10-|-5----5--5--5--5--5--5--5--5--5--5--5--5--5--|
A|-10-10-10-10-10-10-10-10-10-10-10-10-10-10-10-10-|-5----5--5--5--5--5--5--5--5--5--5--5--5--5--|
E|-8--8--8--8--8--8--8--8--8--8--8--8--8--8--8--8--|-3----3--3--3--3--3--3--3--3--3--3--3--3--3--|


E|-6----6--6--6--6--6--6--6--6--6--6--6--6--6--|-8----8--8--8--8--8--8--8--8--8--8--8--8--8--|
B|-6----6--6--6--6--6--6--6--6--6--6--6--6--6--|-8----8--8--8--8--8--8--8--8--8--8--8--8--8--|
G|-7----7--7--7--7--7--7--7--7--7--7--7--7--7--|-9----9--9--9--9--9--9--9--9--9--9--9--9--9--|
D|-8----8--8--8--8--8--8--8--8--8--8--8--8--8--|-10---10-10-10-10-10-10-10-10-10-10-10-10-10-|
A|-8----8--8--8--8--8--8--8--8--8--8--8--8--8--|-10---10-10-10-10-10-10-10-10-10-10-10-10-10-|
E|-6----6--6--6--6--6--6--6--6--6--6--6--6--6--|-8----8--8--8--8--8--8--8--8--8--8--8--8--8--|


E|-8--8--8--8--8--8--8--8--8--8--8--8--8--8--8--8--|--------|--------|--------|--------|
B|-8--8--8--8--8--8--8--8--8--8--8--8--8--8--8--8--|--------|--------|--------|--------|
G|-9--9--9--9--9--9--9--9--9--9--9--9--9--9--9--9--|--------|--------|--------|--------|
D|-10-10-10-10-10-10-10-10-10-10-10-10-10-10-10-10-|-12-----|-12-----|-12-----|--------|
A|-10-10-10-10-10-10-10-10-10-10-10-10-10-10-10-10-|-12-----|--------|--------|--------|
E|-8--8--8--8--8--8--8--8--8--8--8--8--8--8--8--8--|-10-----|--------|--------|--------|


E|--------|--------|--------|--------|--------|--------|--------|--------|--------|
B|--------|--------|--------|--------|--------|--------|--------|--------|--------|
G|--------|--------|--------|--------|--------|--------|--------|--------|--------|
D|--------|--------|--------|--------|--------|--------|--------|--------|--------|
A|--------|--------|--------|--------|--------|--------|--------|--------|--------|
E|--------|--------|--------|--------|--------|--------|--------|--------|--------|


E|--------|--------|--------|--------|--------|--------|--------|--------|--------|
B|--------|--------|--------|--------|--------|--------|--------|--------|--------|
G|--------|--------|--------|--------|--------|--------|--------|--------|--------|
D|--------|--------|--------|--------|--------|--------|--------|--------|--------|
A|--------|--------|--------|--------|--------|--------|--------|--------|--------|
E|--------|--------|--------|--------|--------|--------|--------|--------|--------|


E|--------|--------|--------|--------|--------|--------|--------|--------|--------|
B|--------|--------|--------|--------|--------|--------|--------|--------|--------|
G|--------|--------|--------|--------|--------|--------|--------|--------|--------|
D|--------|--------|--------|--------|--------|--------|--------|--------|--------|
A|--------|--------|--------|--------|--------|--------|--------|--------|--------|
E|--------|--------|--------|--------|--------|--------|--------|--------|--------|


E|--------|--------|--------|--------|--------|--------|--------|--------|--------|
B|--------|--------|--------|--------|--------|--------|--------|--------|--------|
G|--------|--------|--------|--------|--------|--------|--------|--------|--------|
D|--------|--------|--------|--------|--------|--------|--------|--------|--------|
A|--------|--------|--------|--------|--------|--------|--------|--------|--------|
E|--------|--------|--------|--------|--------|--------|--------|--------|--------|


E|--------|--------|--------|--------|--------|--------|--------|--------|--------|
B|--------|--------|--------|--------|--------|--------|--------|--------|--------|
G|--------|--------|--------|--------|--------|--------|--------|--------|--------|
D|--------|--------|--------|--------|--------|--------|--------|--------|--------|
A|--------|--------|--------|--------|--------|--------|--------|--------|--------|
E|--------|--------|--------|--------|--------|--------|--------|--------|--------|


E|--------|--------|--------|--------|--------|--------|--------|--------|--------|
B|--------|--------|--------|--------|--------|--------|--------|--------|--------|
G|--------|--------|--------|--------|--------|--------|--------|--------|--------|
D|--------|--------|--------|--------|--------|--------|--------|--------|--------|
A|--------|--------|--------|--------|--------|--------|--------|--------|--------|
E|--------|--------|--------|--------|--------|--------|--------|--------|--------|


E|--------|--------|--------|--------|--------|--------|--------|--------|--------|
B|--------|--------|--------|--------|--------|--------|--------|--------|--------|
G|--------|--------|--------|--------|--------|--------|--------|--------|--------|
D|--------|--------|--------|--------|--------|--------|--------|--------|--------|
A|--------|--------|--------|--------|--------|--------|--------|--------|--------|
E|--------|--------|--------|--------|--------|--------|--------|--------|--------|


E|--------|
B|--------|
G|--------|
D|--------|
A|--------|
E|--------|





Track 6: -

E|--------|--------|--------|--------|--------|--------|--------|--------|--------|
B|--------|--------|--------|--------|--------|--------|--------|--------|--------|
G|--------|--------|--------|--------|--------|--------|--------|--------|--------|
D|--------|--------|--------|--------|--------|--------|--------|--------|--------|
A|--------|--------|--------|--------|--------|--------|--------|--------|--------|
E|--------|--------|--------|--------|--------|--------|--------|--------|--------|


E|--------|--------|--------|--------|--------|--------|--------|--------|--------|
B|--------|--------|--------|--------|--------|--------|--------|--------|--------|
G|--------|--------|--------|--------|--------|--------|--------|--------|--------|
D|--------|--------|--------|--------|--------|--------|--------|--------|--------|
A|--------|--------|--------|--------|--------|--------|--------|--------|--------|
E|--------|--------|--------|--------|--------|--------|--------|--------|--------|


E|--------|--------|--------|--------|--------|--------|--------|--------|--------|
B|--------|--------|--------|--------|--------|--------|--------|--------|--------|
G|--------|--------|--------|--------|--------|--------|--------|--------|--------|
D|--------|--------|--------|--------|--------|--------|--------|--------|--------|
A|--------|--------|--------|--------|--------|--------|--------|--------|--------|
E|--------|--------|--------|--------|--------|--------|--------|--------|--------|


E|--------|--------|--------|--------|--------|--------|--------|--------|--------|
B|--------|--------|--------|--------|--------|--------|--------|--------|--------|
G|--------|--------|--------|--------|--------|--------|--------|--------|--------|
D|--------|--------|--------|--------|--------|--------|--------|--------|--------|
A|--------|--------|--------|--------|--------|--------|--------|--------|--------|
E|--------|--------|--------|--------|--------|--------|--------|--------|--------|


E|--------|--------|--------|--------|--------|--------|--------|--------|--------|
B|--------|--------|--------|--------|--------|--------|--------|--------|--------|
G|--------|--------|--------|--------|--------|--------|--------|--------|--------|
D|--------|--------|--------|--------|--------|--------|--------|--------|--------|
A|--------|--------|--------|--------|--------|--------|--------|--------|--------|
E|--------|--------|--------|--------|--------|--------|--------|--------|--------|


E|-----------------|--------|--------|--------|--------|--------|--------|--------|
B|-----------------|--------|--------|--------|--------|--------|--------|--------|
G|-----------------|--------|--------|--------|--------|--------|--------|--------|
D|-----------------|--------|--------|--------|--------|--------|--------|--------|
A|-----------------|--------|--------|--------|--------|--------|--------|--------|
E|-----------13----|--------|--------|--------|--------|--------|--------|--------|


E|--------|---------------------------------------------|---------------------------------------------|
B|--------|---------------------------------------------|---------------------------------------------|
G|--------|---------------------------------------------|---------------------------------------------|
D|--------|-5----5--5--5--5--5--5--5--5--5--5--5--5--5--|-8----8--8--8--8--8--8--8--8--8--8--8--8--8--|
A|--------|-5----5--5--5--5--5--5--5--5--5--5--5--5--5--|-8----8--8--8--8--8--8--8--8--8--8--8--8--8--|
E|--------|-3----3--3--3--3--3--3--3--3--3--3--3--3--3--|-6----6--6--6--6--6--6--6--6--6--6--6--6--6--|


E|---------------------------------------------|-------------------------------------------------|
B|---------------------------------------------|-------------------------------------------------|
G|---------------------------------------------|-------------------------------------------------|
D|-10---10-10-10-10-10-10-10-10-10-10-10-10-10-|-10-10-10-10-10-10-10-10-10-10-10-10-10-10-10-10-|
A|-10---10-10-10-10-10-10-10-10-10-10-10-10-10-|-10-10-10-10-10-10-10-10-10-10-10-10-10-10-10-10-|
E|-8----8--8--8--8--8--8--8--8--8--8--8--8--8--|-8--8--8--8--8--8--8--8--8--8--8--8--8--8--8--8--|


E|--------|--------|--------|--------|--------|--------|--------|--------|--------|
B|--------|--------|--------|--------|--------|--------|--------|--------|--------|
G|--------|--------|--------|--------|--------|--------|--------|--------|--------|
D|-12-----|--------|--------|--------|--------|--------|--------|--------|--------|
A|-12-----|--------|--------|--------|--------|--------|--------|--------|--------|
E|-10-----|--------|--------|--------|--------|--------|--------|--------|--------|


E|--------|--------|--------|--------|--------|--------|--------|--------|--------|
B|--------|--------|--------|--------|--------|--------|--------|--------|--------|
G|--------|--------|--------|--------|--------|--------|--------|--------|--------|
D|--------|--------|--------|--------|--------|--------|--------|--------|--------|
A|--------|--------|--------|--------|--------|--------|--------|--------|--------|
E|--------|--------|--------|--------|--------|--------|--------|--------|--------|


E|--------|--------|--------|--------|--------|--------|--------|--------|--------|
B|--------|--------|--------|--------|--------|--------|--------|--------|--------|
G|--------|--------|--------|--------|--------|--------|--------|--------|--------|
D|--------|--------|--------|--------|--------|--------|--------|--------|--------|
A|--------|--------|--------|--------|--------|--------|--------|--------|--------|
E|--------|--------|--------|--------|--------|--------|--------|--------|--------|


E|--------|--------|--------|--------|--------|--------|--------|--------|--------|
B|--------|--------|--------|--------|--------|--------|--------|--------|--------|
G|--------|--------|--------|--------|--------|--------|--------|--------|--------|
D|--------|--------|--------|--------|--------|--------|--------|--------|--------|
A|--------|--------|--------|--------|--------|--------|--------|--------|--------|
E|--------|--------|--------|--------|--------|--------|--------|--------|--------|


E|--------|--------|--------|--------|--------|--------|--------|--------|--------|
B|--------|--------|--------|--------|--------|--------|--------|--------|--------|
G|--------|--------|--------|--------|--------|--------|--------|--------|--------|
D|--------|--------|--------|--------|--------|--------|--------|--------|--------|
A|--------|--------|--------|--------|--------|--------|--------|--------|--------|
E|--------|--------|--------|--------|--------|--------|--------|--------|--------|


E|--------|--------|--------|--------|--------|--------|--------|--------|--------|
B|--------|--------|--------|--------|--------|--------|--------|--------|--------|
G|--------|--------|--------|--------|--------|--------|--------|--------|--------|
D|--------|--------|--------|--------|--------|--------|--------|--------|--------|
A|--------|--------|--------|--------|--------|--------|--------|--------|--------|
E|--------|--------|--------|--------|--------|--------|--------|--------|--------|


E|--------|--------|--------|--------|--------|--------|--------|--------|--------|
B|--------|--------|--------|--------|--------|--------|--------|--------|--------|
G|--------|--------|--------|--------|--------|--------|--------|--------|--------|
D|--------|--------|--------|--------|--------|--------|--------|--------|--------|
A|--------|--------|--------|--------|--------|--------|--------|--------|--------|
E|--------|--------|--------|--------|--------|--------|--------|--------|--------|


E|--------|--------|--------|--------|--------|
B|--------|--------|--------|--------|--------|
G|--------|--------|--------|--------|--------|
D|--------|--------|--------|--------|--------|
A|--------|--------|--------|--------|--------|
E|--------|--------|--------|--------|--------|





Track 7: -

E|--------|--------|--------|--------|--------|--------|--------|--------|--------|
B|--------|--------|--------|--------|--------|--------|--------|--------|--------|
G|--------|--------|--------|--------|--------|--------|--------|--------|--------|
D|--------|--------|--------|--------|--------|--------|--------|--------|--------|
A|--------|--------|--------|--------|--------|--------|--------|--------|--------|
E|--------|--------|--------|--------|--------|--------|--------|--------|--------|


E|--------|--------|--------|--------|--------|--------|--------|--------|--------|
B|--------|--------|--------|--------|--------|--------|--------|--------|--------|
G|--------|--------|--------|--------|--------|--------|--------|--------|--------|
D|--------|--------|--------|--------|--------|--------|--------|--------|--------|
A|--------|--------|--------|--------|--------|--------|--------|--------|--------|
E|--------|--------|--------|--------|--------|--------|--------|--------|--------|


E|--------|--------|--------|--------|--------|--------|--------|--------|--------|
B|--------|--------|--------|--------|--------|--------|--------|--------|--------|
G|--------|--------|--------|--------|--------|--------|--------|--------|--------|
D|--------|--------|--------|--------|--------|--------|--------|--------|--------|
A|--------|--------|--------|--------|--------|--------|--------|--------|--------|
E|--------|--------|--------|--------|--------|--------|--------|--------|--------|


E|--------|--------|--------|--------|--------|--------|--------|--------|--------|
B|--------|--------|--------|--------|--------|--------|--------|--------|--------|
G|--------|--------|--------|--------|--------|--------|--------|--------|--------|
D|--------|--------|--------|--------|--------|--------|--------|--------|--------|
A|--------|--------|--------|--------|--------|--------|--------|--------|--------|
E|--------|--------|--------|--------|--------|--------|--------|--------|--------|


E|--------|--------|--------|--------|--------|--------|--------|--------|--------|
B|--------|--------|--------|--------|--------|--------|--------|--------|--------|
G|--------|--------|--------|--------|--------|--------|--------|--------|--------|
D|--------|--------|--------|--------|--------|--------|--------|--------|--------|
A|--------|--------|--------|--------|--------|--------|--------|--------|--------|
E|--------|--------|--------|--------|--------|--------|--------|--------|--------|


E|--------|--------|--------|--------|--------|--------|--------|--------|--------|
B|--------|--------|--------|--------|--------|--------|--------|--------|--------|
G|--------|--------|--------|--------|--------|--------|--------|--------|--------|
D|--------|--------|--------|--------|--------|--------|--------|--------|--------|
A|--------|--------|--------|--------|--------|--------|--------|--------|--------|
E|--------|--------|--------|--------|--------|--------|--------|--------|--------|


E|--------|--------|--------|--------|--------|--------|--------|--------|--------|
B|--------|--------|--------|--------|--------|--------|--------|--------|--------|
G|--------|--------|--------|--------|--------|--------|--------|--------|--------|
D|--------|--------|--------|--------|--------|--------|--------|--------|--------|
A|--------|--------|--------|--------|--------|--------|--------|--------|--------|
E|--------|--------|--------|--------|--------|--------|--------|--------|--------|


E|------------------------|------------------------|--------|-----------------|-------------|
B|------------------------|------------------------|--------|-----------------|-------------|
G|------------------------|------------------------|--------|-----------------|-------7-----|
D|-7-----8----------------|------------------------|--------|-------8----8----|-10----------|
A|--------------------1---|-3-----5-------5---5----|-5------|-----------------|-------------|
E|------------------------|------------------------|--------|-----------------|-------------|


E|--------|--------|-----------------|------------------------------|-----------------|
B|--------|--------|-----------------|------------------------------|-----------------|
G|--------|--------|-----------------|------------------------------|-5-----10---7----|
D|-8------|-8------|-------5----5----|-7--------8-----------5---8---|-----------------|
A|--------|--------|-----------------|------------------------------|-----------------|
E|--------|--------|-----------------|------------------------------|-----------------|


E|-------------|-----------------|-----------------|--------|--------|----------------|
B|-------------|-----------------|-----------------|--------|--------|----------------|
G|-7------7----|-----------------|-----------------|--------|--------|--------7---8---|
D|-------------|-------8----8----|-10----12---8----|-8------|-8------|-10-------------|
A|-------------|-----------------|-----------------|--------|--------|----------------|
E|-------------|-----------------|-----------------|--------|--------|----------------|


E|----------------|----------------|----------------|--------------------|---------------------------|
B|----------------|----------------|----------------|----------------7---|-----10--10------------10--|
G|-12-----8---7---|-6--------------|-14-----14--14--|------------7-------|-------------------11------|
D|----------------|--------7-------|----------------|-12-----7-----------|---------------12----------|
A|----------------|----------------|----------------|--------------------|---------------------------|
E|----------------|----------------|----------------|--------------------|---------------------------|


E|---------------------------|-----20--20-----|--------|--------|--------|--------|
B|-----13--13--------19--22--|----------------|--------|--------|--------|--------|
G|---------------19----------|----------------|--------|--------|--------|--------|
D|---------------------------|----------------|--------|--------|--------|--------|
A|---------------------------|----------------|--------|--------|--------|--------|
E|---------------------------|----------------|--------|--------|--------|--------|


E|--------|--------|--------|--------|--------|--------|--------|--------|--------|
B|--------|--------|--------|--------|--------|--------|--------|--------|--------|
G|--------|--------|--------|--------|--------|--------|--------|--------|--------|
D|--------|--------|--------|--------|--------|--------|--------|--------|--------|
A|--------|--------|--------|--------|--------|--------|--------|--------|--------|
E|--------|--------|--------|--------|--------|--------|--------|--------|--------|


E|--------|--------|--------|--------|--------|--------|--------|--------|--------|
B|--------|--------|--------|--------|--------|--------|--------|--------|--------|
G|--------|--------|--------|--------|--------|--------|--------|--------|--------|
D|--------|--------|--------|--------|--------|--------|--------|--------|--------|
A|--------|--------|--------|--------|--------|--------|--------|--------|--------|
E|--------|--------|--------|--------|--------|--------|--------|--------|--------|


E|--------|--------|--------|--------|--------|--------|--------|--------|--------|
B|--------|--------|--------|--------|--------|--------|--------|--------|--------|
G|--------|--------|--------|--------|--------|--------|--------|--------|--------|
D|--------|--------|--------|--------|--------|--------|--------|--------|--------|
A|--------|--------|--------|--------|--------|--------|--------|--------|--------|
E|--------|--------|--------|--------|--------|--------|--------|--------|--------|


E|--------|--------|--------|--------|--------|--------|--------|--------|--------|
B|--------|--------|--------|--------|--------|--------|--------|--------|--------|
G|--------|--------|--------|--------|--------|--------|--------|--------|--------|
D|--------|--------|--------|--------|--------|--------|--------|--------|--------|
A|--------|--------|--------|--------|--------|--------|--------|--------|--------|
E|--------|--------|--------|--------|--------|--------|--------|--------|--------|





Track 8: -

E|--------|--------|--------|--------|--------|--------|--------|--------|--------|
B|--------|--------|--------|--------|--------|--------|--------|--------|--------|
G|--------|--------|--------|--------|--------|--------|--------|--------|--------|
D|--------|--------|--------|--------|--------|--------|--------|--------|--------|
A|--------|--------|--------|--------|--------|--------|--------|--------|--------|
E|--------|--------|--------|--------|--------|--------|--------|--------|--------|


E|--------|--------|--------|--------|--------|--------|--------|--------|--------|
B|--------|--------|--------|--------|--------|--------|--------|--------|--------|
G|--------|--------|--------|--------|--------|--------|--------|--------|--------|
D|--------|--------|--------|--------|--------|--------|--------|--------|--------|
A|--------|--------|--------|--------|--------|--------|--------|--------|--------|
E|--------|--------|--------|--------|--------|--------|--------|--------|--------|


E|--------|--------|--------|--------|--------|--------|--------|--------|--------|
B|--------|--------|--------|--------|--------|--------|--------|--------|--------|
G|--------|--------|--------|--------|--------|--------|--------|--------|--------|
D|--------|--------|--------|--------|--------|--------|--------|--------|--------|
A|--------|--------|--------|--------|--------|--------|--------|--------|--------|
E|--------|--------|--------|--------|--------|--------|--------|--------|--------|


E|--------|--------|--------|--------|--------|--------|--------|--------|--------|
B|--------|--------|--------|--------|--------|--------|--------|--------|--------|
G|--------|--------|--------|--------|--------|--------|--------|--------|--------|
D|--------|--------|--------|--------|--------|--------|--------|--------|--------|
A|--------|--------|--------|--------|--------|--------|--------|--------|--------|
E|--------|--------|--------|--------|--------|--------|--------|--------|--------|


E|--------|--------|--------|--------|--------|--------|--------|--------|--------|
B|--------|--------|--------|--------|--------|--------|--------|--------|--------|
G|--------|--------|--------|--------|--------|--------|--------|--------|--------|
D|--------|--------|--------|--------|--------|--------|--------|--------|--------|
A|--------|--------|--------|--------|--------|--------|--------|--------|--------|
E|--------|--------|--------|--------|--------|--------|--------|--------|--------|


E|--------|--------|--------|--------|--------|--------|--------|--------|--------|
B|--------|--------|--------|--------|--------|--------|--------|--------|--------|
G|--------|--------|--------|--------|--------|--------|--------|--------|--------|
D|--------|--------|--------|--------|--------|--------|--------|--------|--------|
A|--------|--------|--------|--------|--------|--------|--------|--------|--------|
E|--------|--------|--------|--------|--------|--------|--------|--------|--------|


E|--------|--------|--------|--------|--------|--------|--------|--------|--------|
B|--------|--------|--------|--------|--------|--------|--------|--------|--------|
G|--------|--------|--------|--------|--------|--------|--------|--------|--------|
D|--------|--------|--------|--------|--------|--------|--------|--------|--------|
A|--------|--------|--------|--------|--------|--------|--------|--------|--------|
E|--------|--------|--------|--------|--------|--------|--------|--------|--------|


E|---------10--------------10------|---------10--------------10------|---------10--------------10------|
B|-----11------11------11------11--|-----11------11------11------11--|-----11------11------11------11--|
G|-10--------------10--------------|-8---------------8---------------|-8---------------8---------------|
D|---------------------------------|---------------------------------|---------------------------------|
A|---------------------------------|---------------------------------|---------------------------------|
E|---------------------------------|---------------------------------|---------------------------------|


E|---------10--------------10------|---------10--------------10------|---------10--------------10------|
B|-----11------11------11------11--|-----11------11------11------11--|-----11------11------11------11--|
G|-12--------------12--------------|-10--------------10--------------|-8---------------8---------------|
D|---------------------------------|---------------------------------|---------------------------------|
A|---------------------------------|---------------------------------|---------------------------------|
E|---------------------------------|---------------------------------|---------------------------------|


E|---------10--------------10------|---------10--------------10------|---------10--------------10------|
B|-----11------11------11------11--|-----11------11------11------11--|-----11------11------11------11--|
G|-8---------------8---------------|-12--------------12--------------|-10--------------10--------------|
D|---------------------------------|---------------------------------|---------------------------------|
A|---------------------------------|---------------------------------|---------------------------------|
E|---------------------------------|---------------------------------|---------------------------------|


E|---------10--------------10------|---------10--------------10------|---------10--------------10------|
B|-----11------11------11------11--|-----11------11------11------11--|-----11------11------11------11--|
G|-8---------------8---------------|-8---------------8---------------|-12--------------12--------------|
D|---------------------------------|---------------------------------|---------------------------------|
A|---------------------------------|---------------------------------|---------------------------------|
E|---------------------------------|---------------------------------|---------------------------------|


E|---------10--------------10------|---------10--------------10------|---------10--------------10------|
B|-----11------11------11------11--|-----11------11------11------11--|-----11------11------11------11--|
G|-10--------------10--------------|-8---------------8---------------|-8---------------8---------------|
D|---------------------------------|---------------------------------|---------------------------------|
A|---------------------------------|---------------------------------|---------------------------------|
E|---------------------------------|---------------------------------|---------------------------------|


E|---------15--------------15------|---------15--------------15------|---------15--------------15------|
B|-----16------16------16------16--|-----15------15------15------15--|-----14------14------14------14--|
G|-17--------------17--------------|-15--------------15--------------|-14--------------14--------------|
D|---------------------------------|---------------------------------|---------------------------------|
A|---------------------------------|---------------------------------|---------------------------------|
E|---------------------------------|---------------------------------|---------------------------------|


E|---------15--------------15------|---------17--------------17------|---------17--------------17------|
B|-----14------14------14------14--|-----19------19------19------19--|-----19------19------19------19--|
G|-14--------------14--------------|-19--------------19--------------|-17--------------17--------------|
D|---------------------------------|---------------------------------|---------------------------------|
A|---------------------------------|---------------------------------|---------------------------------|
E|---------------------------------|---------------------------------|---------------------------------|


E|---------17--------------17------|---------17--------------17------|--------|--------|
B|-----19------19------19------19--|-----19------19------19------19--|--------|--------|
G|-15--------------15--------------|-14--------------14--------------|--------|--------|
D|---------------------------------|---------------------------------|--------|--------|
A|---------------------------------|---------------------------------|--------|--------|
E|---------------------------------|---------------------------------|--------|--------|


E|--------|--------|--------|--------|--------|--------|--------|--------|--------|
B|--------|--------|--------|--------|--------|--------|--------|--------|--------|
G|--------|--------|--------|--------|--------|--------|--------|--------|--------|
D|--------|--------|--------|--------|--------|--------|--------|--------|--------|
A|--------|--------|--------|--------|--------|--------|--------|--------|--------|
E|--------|--------|--------|--------|--------|--------|--------|--------|--------|


E|--------|--------|--------|--------|--------|--------|--------|--------|--------|
B|--------|--------|--------|--------|--------|--------|--------|--------|--------|
G|--------|--------|--------|--------|--------|--------|--------|--------|--------|
D|--------|--------|--------|--------|--------|--------|--------|--------|--------|
A|--------|--------|--------|--------|--------|--------|--------|--------|--------|
E|--------|--------|--------|--------|--------|--------|--------|--------|--------|


E|--------|--------|--------|--------|--------|--------|--------|--------|--------|
B|--------|--------|--------|--------|--------|--------|--------|--------|--------|
G|--------|--------|--------|--------|--------|--------|--------|--------|--------|
D|--------|--------|--------|--------|--------|--------|--------|--------|--------|
A|--------|--------|--------|--------|--------|--------|--------|--------|--------|
E|--------|--------|--------|--------|--------|--------|--------|--------|--------|


E|--------|--------|--------|--------|--------|--------|--------|--------|--------|
B|--------|--------|--------|--------|--------|--------|--------|--------|--------|
G|--------|--------|--------|--------|--------|--------|--------|--------|--------|
D|--------|--------|--------|--------|--------|--------|--------|--------|--------|
A|--------|--------|--------|--------|--------|--------|--------|--------|--------|
E|--------|--------|--------|--------|--------|--------|--------|--------|--------|


E|--------|--------|
B|--------|--------|
G|--------|--------|
D|--------|--------|
A|--------|--------|
E|--------|--------|





Track 9: -

G|--------|--------|--------|--------|-----------------------|-----------------------|
D|--------|--------|--------|--------|-----------------------|-----------------------|
A|--------|--------|--------|--------|-----------------------|-----------------------|
E|--------|--------|--------|--------|-15--15--15------------|-13--13--13------------|


G|-----------------------|--------|--------|--------|--------|--------|-----------------------|
D|-----------------------|--------|--------|--------|--------|--------|-----------------------|
A|-----------------------|--------|--------|--------|--------|--------|-----------------------|
E|-11--11--11------------|--------|--------|--------|--------|--------|-15--15--15------------|


G|-----------------------|-----------------------|--------|--------|--------|-----------------|
D|-----------------------|-----------------------|--------|--------|--------|-----------------|
A|-----------------------|-----------------------|--------|--------|--------|-------12---12---|
E|-13--13--13------------|-11--11--11------------|--------|--------|--------|-----------------|


G|--------|----------------|----------------|----------------|---------------------|
D|--------|----------------|-10-----10--10--|-8------8---8---|-7----7----7----7----|
A|-0------|-5------5---5---|----------------|----------------|---------------------|
E|--------|----------------|----------------|----------------|---------------------|


G|--------|--------|--------|--------------------|---------------------|--------|--------|
D|--------|--------|--------|--------------------|---------------------|--------|--------|
A|--------|--------|--------|--------------------|---------------------|--------|--------|
E|--------|--------|--------|----------------1---|-3----3----3---------|--------|--------|


G|-------19----|-12---12-------------------|------------------------------|---------------------------|
D|-------------|---------------------------|------------------------------|---------------------------|
A|-------------|---------------8-------6---|-6---6---6--------5-------3---|-3----3--------5-------6---|
E|-------------|---------------------------|------------------------------|---------------------------|


G|---------------------------|---------------------------|---------------------------|
D|---------------------------|---------------------------|---------------------------|
A|-6----6--------------------|---------------8-------6---|-6----6--------5-------3---|
E|---------------1-------3---|-3----3--------------------|---------------------------|


G|---------------------------|-----------------------------|-----------------------------------------|
D|---------------------------|-----------------------------|-----------------------------------------|
A|-3----3--------5-------6---|-6----6----------------------|-----------------------------------------|
E|---------------------------|---------------1-------1--3--|-3---1--3--3--1--3---1--3---1--3---1--3--|


G|-----------------------------------------|-----------------------------------------|
D|-----------------------------------------|-----------------------------------------|
A|-----------------------------------------|-----------------------------------------|
E|-3---1--3--3--1--3---1--3---1--3---1--3--|-3---1--3--3--1--3---1--3--3--1--3---1---|


G|-------------------------------------------|---------------------------------------|
D|-------------------------------------------|---------------------------------------|
A|-------------------------------------------|------------------------10-------------|
E|-6---3--6--6--3--6---3--6--6--3--6--6--3---|-8---6--8--8--6--8---6------6--8---6---|


G|-----------------------------------------|-------------------------------------------|
D|-----------------------------------------|-------------------------------------------|
A|-----------------------------------------|-------------------------------------------|
E|-8---6--8--8--6--8---6--8--8--6--8---6---|-3---1--3--3--1--3---1--3--3--1--3--3--1---|


G|-------------------------------------------|-------------------------------------------|
D|-------------------------------------------|-------------------------------------------|
A|-------------------------------------------|-------------------------------------------|
E|-6---3--6--6--3--6---3--6--6--3--6--6--3---|-8---6--8--8--6--8---6--8--8--6--8--8--6---|


G|-------------------------------------------|-------------------------------------------|
D|-------------------------------------------|-------------------------------------------|
A|-------------------------------------------|-------------------------------------------|
E|-8---6--8--8--6--8---6--8--8--6--8--8--6---|-3---1--3--3--1--3---1--3--3--1--3--3--1---|


G|-------------------------------------------|-------------------------------------------|
D|-------------------------------------------|-------------------------------------------|
A|-------------------------------------------|-------------------------------------------|
E|-6---3--6--6--3--6---3--6--6--3--6--6--3---|-8---6--8--8--6--8---6--8--8--6--8--8--6---|


G|-------------------------------------------|-------------------------------------------|
D|-------------------------------------------|-------------------------------------------|
A|-------------------------------------------|-------------------------------------------|
E|-8---6--8--8--6--8---6--8--8--6--8--8--6---|-3---1--3--3--1--3---1--3--3--1--3--3--1---|


G|-------------------------------------------|-------------------------------------------|
D|-------------------------------------------|-------------------------------------------|
A|-------------------------------------------|-------------------------------------------|
E|-6---3--6--6--3--6---3--6--6--3--6--6--3---|-8---6--8--8--6--8---6--8--8--6--8--8--6---|


G|-------------------------------------------|----------------|-7------7-------|----------------|
D|-------------------------------------------|------------7---|------------7---|------------7---|
A|-------------------------------------------|-5------5-------|----------------|-5------5-------|
E|-8---6--8--8--6--8---6--8--8--6--8--8--6---|----------------|----------------|----------------|


G|-7------|-----------------|--------|--------|--------|-12-----|-10-----|-8------|
D|--------|-----------------|--------|--------|--------|--------|--------|--------|
A|--------|-----------------|--------|--------|--------|--------|--------|--------|
E|--------|-3----3----------|--------|--------|--------|--------|--------|--------|


G|-8------8----|--------|--------|--------|--------|--------|-2-----------|--------|
D|-------------|-5------|-3------|-1------|-1------|-5------|-------3-----|-1------|
A|-------------|--------|--------|--------|--------|--------|-------------|--------|
E|-------------|--------|--------|--------|--------|--------|-------------|--------|


G|--------|-5------5---0---|-3------5---3---|-2------2----|-----------------|----------------|
D|-1------|----------------|----------------|-------------|-----------------|----------------|
A|--------|----------------|----------------|-------------|-12---12---0-----|-5------5---0---|
E|--------|----------------|----------------|-------------|-----------------|----------------|


G|----------------|--------|-------------|-----------------|--------|--------|-----------------------|
D|-10-----10--10--|-8------|-7------7----|-----------------|--------|--------|-----------------------|
A|----------------|--------|-------------|-----------------|--------|--------|-----------------------|
E|----------------|--------|-------------|-3----3----------|--------|--------|-----------1-------3---|


G|--------------------|--------|--------|-----------------------|---------------------------|
D|--------------------|--------|--------|---------------3---5---|---------------------------|
A|--------------------|--------|--------|-------3---5-----------|---------------8-------6---|
E|-3----3-------------|--------|--------|-----------------------|-3----3--------------------|


G|---------------------------|---------------------------|---------------------------|
D|---------------------------|---------------------------|---------------------------|
A|-6----6--------5-------3---|-3----3--------5-------6---|-6----6--------------------|
E|---------------------------|---------------------------|---------------1-------3---|


G|---------------------------|---------------------------|---------------------------|
D|---------------------------|---------------------------|---------------------------|
A|---------------8-------6---|-6----6--------5-------3---|-3----3--------5-------6---|
E|-3----3--------------------|---------------------------|---------------------------|


G|---------------------------|---------------------------|---------------------------|
D|---------------------------|---------------------------|---------------------------|
A|-6----6--------------------|---------------8-------6---|-6----6--------5-------3---|
E|---------------1-------3---|-3----3--------------------|---------------------------|


G|---------------------------|---------------------------|---------------------------|
D|---------------------------|---------------------------|---------------------------|
A|-3----3--------5-------6---|-6----6--------------------|---------------8-------6---|
E|---------------------------|---------------1-------3---|-3----3--------------------|


G|---------------------------|---------------------------|---------------------------|
D|---------------------------|---------------------------|---------------------------|
A|-6----6--------5-------3---|-3----3--------5-------6---|-6----6--------------------|
E|---------------------------|---------------------------|---------------1-------3---|


G|---------------------------|---------------------------|---------------------------|
D|---------------------------|---------------------------|---------------------------|
A|---------------8-------6---|-6----6--------5-------3---|-3----3--------5-------6---|
E|-3----3--------------------|---------------------------|---------------------------|


G|---------------------------|---------------------------|---------------------------|
D|---------------------------|---------------------------|---------------------------|
A|-6----6--------------------|---------------8-------6---|-6----6--------5-------3---|
E|---------------1-------3---|-3----3--------------------|---------------------------|


G|---------------------------|---------------------------|--------------------|--------|
D|---------------------------|---------------------------|--------------------|--------|
A|-3----3--------5-------6---|-6----6--------------------|--------------------|--------|
E|---------------------------|---------------1-------3---|-3----3-------------|--------|


G|--------|--------|--------|--------|--------|--------|
D|--------|--------|--------|--------|--------|--------|
A|--------|--------|--------|--------|--------|--------|
E|--------|--------|--------|--------|--------|--------|