Menu:

 

Search:

 

joe satriani - brother john:

 



Title: Brother John
Artist: 
Album: Not Of This Earth
Author: Joe Satriani


Track 1: Joe Satriani 

E|----------------------------------------------------|----------------------2----------------------|
B|----------------------------------------------------|----------------------2--------5-------------|
G|----------------4--4--4--------------------4--4--4--|----------------4--------------4-----4---3---|
D|-4--4--4--------2--2--2--4--------4--------2--2--2--|-4--4--4--------2-----------4--------2---2---|
A|-4--5--4--2--0-----------4-5-4-2--4--2--0-----------|-4--5--4--2--0-----5-------------------------|
E|----------------------------------------------------|-------------------------3--------2----------|


E|------------------------------------------------|----------------------2----------------------|
B|------------------------------------------------|----------------------2--------5-------------|
G|----------------4---4--------------------4---4--|----------------4--------------4-----4---3---|
D|-4--4--4--------2---2--4--------4--------2---2--|-4--4--4--------2-----------4--------2---2---|
A|-4--5--4--2--0---------4-5-4-2--4--2--0---------|-4--5--4--2--0-----5-------------------------|
E|------------------------------------------------|-------------------------3--------2----------|


E|-------------------------------------------------|-------------12------------------------------|
B|-------------------------------------------------|-----------------12--------------------------|
G|----11-11-11----11-11-11----11-11-11----9--9--9--|----9--9--9-------------9--9--9-----8--8--8--|
D|----11-11-11----11-11-11----9--9--9-----9--9--9--|----9--9--9-------------7--7--7-----7--7--7--|
A|-------------------------------------------------|---------------------------------------------|
E|-10----------10----------9-----------9-----------|-8-------------------7-----------7-----------|


E|-------------------------------------------------|-------------------------------------------------|
B|-------------------------------------------------|----3--3-----3--3-----2--2-----2--2--------------|
G|----6--6--6-----6--6--6-----4--4--4-----4--4--4--|----4--4-----4--4-----3--3-----3--3-----4--4-----|
D|----5--5--5-----5--5--5-----4--4--4-----4--4--4--|----------------------------------------5--5-----|
A|-------------------------------------------------|-------------------------------------------------|
E|-5-----------5-----------3-----------3-----------|-2--------2--------2--------2--------2--------2--|


E|-----------------------------------------------|-------------------------------------------------2--|
B|-----------------------------------------------|-------------------------------------------------2--|
G|-4--4-----3--3-----3--3-----------------4---4--|-------------------4--4--4--------------------------|
D|-5--5-----4--4-----4--4--4--4--4--------2---2--|-4--------4--------2--2--2--4-----4--------2--------|
A|-------------------------4--5--4--2--0---------|-4-5-4-2--4--2--0-----------4--5--4--2--0-----5-----|
E|-------2--------2------------------------------|----------------------------------------------------|


E|-------------------------------------------|-------------------------------------------------2--|
B|-------5-----------------------------------|-------------------------------------------------2--|
G|-------4-----4---3------------------4---4--|-------------------4--4--4-----------------4--------|
D|----4--------2---2---4-----4--------2---2--|-4--------4--------2--2--2--4--4--4--------2--------|
A|---------------------4--5--4--2--0---------|-4-5-4-2--4--2--0-----------4--5--4--2--0-----5-----|
E|-3--------2--------------------------------|----------------------------------------------------|


E|---------------------------------------------|-------------------------------------12------|
B|-------5-------------------------------------|-----------------------------------------12--|
G|-------4-----4---3------11-11-11----11-11-11-|----11-11-11----9--9--9-----9--9--9----------|
D|----4--------2---2------11-11-11----11-11-11-|----9--9--9-----9--9--9-----9--9--9----------|
A|---------------------------------------------|---------------------------------------------|
E|-3--------2----------10----------10----------|-9-----------9-----------8-------------------|


E|-------------------------------------------------|-------------------------------------------------|
B|-------------------------------------------------|----------------------------3--3-----3--3-----2--|
G|----9--9--9-----8--8--8-----6--6--6-----6--6--6--|----4--4--4-----4--4--4-----4--4-----4--4-----3--|
D|----7--7--7-----7--7--7-----5--5--5-----5--5--5--|----4--4--4-----4--4--4--------------------------|
A|-------------------------------------------------|-------------------------------------------------|
E|-7-----------7-----------5-----------5-----------|-3-----------3-----------2--------2--------2-----|


E|-------------------------------------------------|-------------------------------------------------|
B|-2-----2--2--------------------------------------|----12-12----12-12----11-11----11-11-------------|
G|-3-----3--3-----4--4-----4--4-----3--3-----3--3--|----12-12----12-12----11-11----11-11----12-12----|
D|----------------5--5-----5--5-----4--4-----4--4--|----------------------------------------12-12----|
A|-------------------------------------------------|----------7-----------------7-----------------7--|
E|----2--------2--------2--------2--------2--------|-0-----------------0-----------------0-----------|


E|-------------------------------------------------|-------------------------------------------------|
B|----------------------------12-12----12-12----11-|-11----11-11-------------------------------------|
G|-12-12----11-11----11-11----12-12----12-12----11-|-11----11-11----12-12----12-12----11-11----11-11-|
D|-12-12----11-11----11-11-------------------------|----------------9--9-----9--9-----11-11----11-11-|
A|----------------7--------9--------9--------9-----|----9--------9--------9--------9--------9--------|
E|-------0-----------------------------------------|-------------------------------------------------|


E|-------------------------------------------------|-------------------------------------------------|
B|----12-12----12-12----11-11----11-11-------------|----------------------------12-12----12-12----11-|
G|----12-12----12-12----11-11----11-11----12-12----|-12-12----11-11----11-11----12-12----12-12----11-|
D|----------------------------------------12-12----|-12-12----11-11----11-11-------------------------|
A|----------7-----------------7-----------------7--|----------------7--------9--------9--------9-----|
E|-0-----------------0-----------------0-----------|-------0-----------------------------------------|


E|-----------------------------------------------|--------------------------------------------------|
B|-11----11-11----14-14----14-14----12-12----12--|--------------------------------------------------|
G|-11----11-11----14-14----14-14----12-12----12--|----------------4---4--------------------4--4--4--|
D|-----------------------------------------------|-4--4--4--------2---2--4--------4--------2--2--2--|
A|----9--------10-------10-------10-------10-----|-4--5--4--2--0---------4-5-4-2--4--2--0-----------|
E|-----------------------------------------------|--------------------------------------------------|


E|-----------------------------------------------------|----------------------------------------------------|
B|-----------------------------------------------------|----------------------------------------------------|
G|-----------------4------9----------------------------|----------------4--4--4--------------------4--4--4--|
D|-4--4--4-------2------7--------7------5------4-4-4---|-4--4--4--------2--2--2--4--------4--------2--2--2--|
A|-4--5--4--2--0------5--------5------2------4-4-4-4---|-4--5--4--2--0-----------4-5-4-2--4--2--0-----------|
E|---------------------------3------0------2-----------|----------------------------------------------------|


E|-----------------------------------------------------|----------------------------------|
B|-----------------------------------------------------|-----------------3----------------|
G|-----------------4------9----------------------------|-------------6-------6------------|
D|-4--4--4-------2------7--------7------5------4-4-4---|---------7---------------7--------|
A|-4--5--4--2--0------5--------5------2------4-4-4-4---|-----5-----------------------5----|
E|---------------------------3------0------2-----------|-3--------------------------------|


E|----------------------------------|---------------------7-----|
B|-----------------5----------------|-----------------7---------|
G|-------------8-------8------------|-------------9-------------|
D|---------9---------------9--------|---------11----------------|
A|-----7-----------------------7----|-----9---------------------|
E|-5--------------------------------|-7-------------------------|





Track 2: Untitled                                                                                                                                                                                       www.mikesguitarsite.co.uk

G|--------|--------|--------|--------|--------|--------|--------|--------|--------|
D|--------|--------|--------|--------|--------|--------|--------|--------|--------|
A|--------|--------|--------|--------|--------|--------|--------|--------|--------|
E|--------|--------|--------|--------|--------|--------|--------|--------|--------|


G|--------|--------|--------|--------|--------|--------|--------|--------|--------|
D|--------|--------|--------|--------|--------|--------|--------|--------|--------|
A|--------|--------|--------|--------|--------|--------|--------|--------|--------|
E|--------|--------|--------|--------|--------|--------|--------|--------|--------|


G|--------|--------|--------|--------|--------|--------|--------|--------|--------|
D|--------|--------|--------|--------|--------|--------|--------|--------|--------|
A|--------|--------|--------|--------|--------|--------|--------|--------|--------|
E|--------|--------|--------|--------|--------|--------|--------|--------|--------|


G|--------|--------|--------|
D|--------|--------|--------|
A|--------|--------|--------|
E|--------|--------|--------|