Menu:

 

Search:

 

joe satriani - attack:

 



Title: Attack
Artist: 
Album: Engines of creation
Author: Joe


Track 1: Backing riff

E|--------|--------|--------|--------|---------------------------------|---------------------------------|
B|--------|--------|--------|--------|---------------------------------|---------------------------------|
G|--------|--------|--------|--------|---------------------------------|---------------------------------|
D|--------|--------|--------|--------|---------------------------------|---------------------------------|
A|--------|--------|--------|--------|---------------------------------|---------------------------------|
E|--------|--------|--------|--------|-8---7---7---7---8---7---7-------|-5---7---7---7---5---7---7-------|


E|---------------------------------|---------------------------------|---------------------------------|
B|---------------------------------|---------------------------------|---------------------------------|
G|---------------------------------|---------------------------------|---------------------------------|
D|---------------------------------|---------------------------------|---------------------------------|
A|---------------------------------|---------------------------------|---------------------------------|
E|-8---7---7---8---7---7---7-------|-5---7---7---7---5---7---7-------|-8---7---7---7---8---7---7-------|


E|---------------------------------|---------------------------------|---------------------------------|
B|---------------------------------|---------------------------------|---------------------------------|
G|---------------------------------|---------------------------------|---------------------------------|
D|---------------------------------|---------------------------------|---------------------------------|
A|---------------------------------|---------------------------------|---------------------------------|
E|-5---7---7---7---5---7---7-------|-8---7---7---8---7---7---7-------|-5---7---7---7---5---7---7-------|


E|---------------------------------|---------------------------------|---------------------------------|
B|---------------------------------|---------------------------------|---------------------------------|
G|---------------------------------|---------------------------------|---------------------------------|
D|---------------------------------|---------------------------------|---------------------------------|
A|---------------------------------|---------------------------------|---------------------------------|
E|-8---7---7---7---8---7---7-------|-5---7---7---7---5---7---7-------|-8---7---7---8---7---7---7-------|


E|---------------------------------|---------------------------------|---------------------------------|
B|---------------------------------|---------------------------------|---------------------------------|
G|---------------------------------|---------------------------------|---------------------------------|
D|---------------------------------|---------------------------------|---------------------------------|
A|---------------------------------|---------------------------------|---------------------------------|
E|-8---7---7---8---7---7---7-------|-8---7---7---7---8---7---7-------|-5---7---7---7---5---7---7-------|


E|---------------------------------|--------------------|--------|--------|--------|
B|---------------------------------|--------------------|--------|--------|--------|
G|---------------------------------|--------------------|--------|--------|--------|
D|---------------------------------|--------------------|--------|--------|--------|
A|---------------------------------|--------------------|--------|--------|--------|
E|-8---7---7---8---7---7---7-------|-5---7--------------|--------|--------|--------|


E|--------|--------|--------|--------|--------|--------|--------|--------|--------|
B|--------|--------|--------|--------|--------|--------|--------|--------|--------|
G|--------|--------|--------|--------|--------|--------|--------|--------|--------|
D|--------|--------|--------|--------|--------|--------|--------|--------|--------|
A|--------|--------|--------|--------|--------|--------|--------|--------|--------|
E|--------|--------|--------|--------|--------|--------|--------|--------|--------|


E|--------|--------|--------|--------|--------|--------|--------|--------|--------|
B|--------|--------|--------|--------|--------|--------|--------|--------|--------|
G|--------|--------|--------|--------|--------|--------|--------|--------|--------|
D|--------|--------|--------|--------|--------|--------|--------|--------|--------|
A|--------|--------|--------|--------|--------|--------|--------|--------|--------|
E|--------|--------|--------|--------|--------|--------|--------|--------|--------|


E|--------|--------|--------|--------|--------|--------|--------|--------|--------|
B|--------|--------|--------|--------|--------|--------|--------|--------|--------|
G|--------|--------|--------|--------|--------|--------|--------|--------|--------|
D|--------|--------|--------|--------|--------|--------|--------|--------|--------|
A|--------|--------|--------|--------|--------|--------|--------|--------|--------|
E|--------|--------|--------|--------|--------|--------|--------|--------|--------|


E|--------|--------|--------|--------|--------|--------|--------|--------|--------|
B|--------|--------|--------|--------|--------|--------|--------|--------|--------|
G|--------|--------|--------|--------|--------|--------|--------|--------|--------|
D|--------|--------|--------|--------|--------|--------|--------|--------|--------|
A|--------|--------|--------|--------|--------|--------|--------|--------|--------|
E|--------|--------|--------|--------|--------|--------|--------|--------|--------|


E|--------|--------|--------|--------|--------|--------|--------|--------|--------|
B|--------|--------|--------|--------|--------|--------|--------|--------|--------|
G|--------|--------|--------|--------|--------|--------|--------|--------|--------|
D|--------|--------|--------|--------|--------|--------|--------|--------|--------|
A|--------|--------|--------|--------|--------|--------|--------|--------|--------|
E|--------|--------|--------|--------|--------|--------|--------|--------|--------|


E|--------|--------|--------|--------|--------|--------|--------|--------|--------|
B|--------|--------|--------|--------|--------|--------|--------|--------|--------|
G|--------|--------|--------|--------|--------|--------|--------|--------|--------|
D|--------|--------|--------|--------|--------|--------|--------|--------|--------|
A|--------|--------|--------|--------|--------|--------|--------|--------|--------|
E|--------|--------|--------|--------|--------|--------|--------|--------|--------|


E|--------|--------|--------|--------|--------|--------|--------|--------|--------|
B|--------|--------|--------|--------|--------|--------|--------|--------|--------|
G|--------|--------|--------|--------|--------|--------|--------|--------|--------|
D|--------|--------|--------|--------|--------|--------|--------|--------|--------|
A|--------|--------|--------|--------|--------|--------|--------|--------|--------|
E|--------|--------|--------|--------|--------|--------|--------|--------|--------|


E|--------|--------|--------|--------|--------|--------|--------|--------|--------|
B|--------|--------|--------|--------|--------|--------|--------|--------|--------|
G|--------|--------|--------|--------|--------|--------|--------|--------|--------|
D|--------|--------|--------|--------|--------|--------|--------|--------|--------|
A|--------|--------|--------|--------|--------|--------|--------|--------|--------|
E|--------|--------|--------|--------|--------|--------|--------|--------|--------|


E|--------|--------|--------|--------|--------|--------|--------|--------|--------|
B|--------|--------|--------|--------|--------|--------|--------|--------|--------|
G|--------|--------|--------|--------|--------|--------|--------|--------|--------|
D|--------|--------|--------|--------|--------|--------|--------|--------|--------|
A|--------|--------|--------|--------|--------|--------|--------|--------|--------|
E|--------|--------|--------|--------|--------|--------|--------|--------|--------|


E|--------|--------|--------|--------|--------|--------|--------|--------|--------|
B|--------|--------|--------|--------|--------|--------|--------|--------|--------|
G|--------|--------|--------|--------|--------|--------|--------|--------|--------|
D|--------|--------|--------|--------|--------|--------|--------|--------|--------|
A|--------|--------|--------|--------|--------|--------|--------|--------|--------|
E|--------|--------|--------|--------|--------|--------|--------|--------|--------|


E|--------|--------|--------|--------|--------|--------|--------|--------|--------|
B|--------|--------|--------|--------|--------|--------|--------|--------|--------|
G|--------|--------|--------|--------|--------|--------|--------|--------|--------|
D|--------|--------|--------|--------|--------|--------|--------|--------|--------|
A|--------|--------|--------|--------|--------|--------|--------|--------|--------|
E|--------|--------|--------|--------|--------|--------|--------|--------|--------|


E|--------|--------|--------|--------|--------|--------|--------|--------|--------|
B|--------|--------|--------|--------|--------|--------|--------|--------|--------|
G|--------|--------|--------|--------|--------|--------|--------|--------|--------|
D|--------|--------|--------|--------|--------|--------|--------|--------|--------|
A|--------|--------|--------|--------|--------|--------|--------|--------|--------|
E|--------|--------|--------|--------|--------|--------|--------|--------|--------|


E|--------|--------|--------|--------|--------|--------|--------|--------|--------|
B|--------|--------|--------|--------|--------|--------|--------|--------|--------|
G|--------|--------|--------|--------|--------|--------|--------|--------|--------|
D|--------|--------|--------|--------|--------|--------|--------|--------|--------|
A|--------|--------|--------|--------|--------|--------|--------|--------|--------|
E|--------|--------|--------|--------|--------|--------|--------|--------|--------|


E|--------|--------|--------|--------|--------|--------|--------|--------|--------|
B|--------|--------|--------|--------|--------|--------|--------|--------|--------|
G|--------|--------|--------|--------|--------|--------|--------|--------|--------|
D|--------|--------|--------|--------|--------|--------|--------|--------|--------|
A|--------|--------|--------|--------|--------|--------|--------|--------|--------|
E|--------|--------|--------|--------|--------|--------|--------|--------|--------|


E|--------|--------|--------|--------|--------|------------------------------------------|
B|--------|--------|--------|--------|--------|------20-0--20-0--19-0--0--0--16-16-16-16-|
G|--------|--------|--------|--------|--------|------------------------------------------|
D|--------|--------|--------|--------|--------|------------------------------------------|
A|--------|--------|--------|--------|--------|------------------------------------------|
E|--------|--------|--------|--------|--------|------------------------------------------|


E|---------------------------------------------|---------------------------------------------|
B|-16--0---20-0--20-0--19-0--0--0--16-16-16-16-|-16--0---20-0--20-0--19-0--0--0--16-16-16-16-|
G|---------------------------------------------|---------------------------------------------|
D|---------------------------------------------|---------------------------------------------|
A|---------------------------------------------|---------------------------------------------|
E|---------------------------------------------|---------------------------------------------|


E|---------------------------------------------|-----------------|--------|--------|
B|-16--0---20-0--20-0--19-0--0--0--16-16-16-16-|-16--------------|--------|--------|
G|---------------------------------------------|-----------------|--------|--------|
D|---------------------------------------------|-----------------|--------|--------|
A|---------------------------------------------|-----------------|--------|--------|
E|---------------------------------------------|-----------------|--------|--------|


E|--------|--------|--------|--------|
B|--------|--------|--------|--------|
G|--------|--------|--------|--------|
D|--------|--------|--------|--------|
A|--------|--------|--------|--------|
E|--------|--------|--------|--------|





Track 2: Lead w/filter

E|--------|--------|--------|--------|--------|--------|--------|--------|--------|
B|--------|--------|--------|--------|--------|--------|--------|--------|--------|
G|--------|--------|--------|--------|--------|--------|--------|--------|--------|
D|--------|--------|--------|--------|--------|--------|--------|--------|--------|
A|--------|--------|--------|--------|--------|--------|--------|--------|--------|
E|--------|--------|--------|--------|--------|--------|--------|--------|--------|


E|--------|--------|--------|--------|--------|--------|--------|--------|--------|
B|--------|--------|--------|--------|--------|--------|--------|--------|--------|
G|--------|--------|--------|--------|--------|--------|--------|--------|--------|
D|--------|--------|--------|--------|--------|--------|--------|--------|--------|
A|--------|--------|--------|--------|--------|--------|--------|--------|--------|
E|--------|--------|--------|--------|--------|--------|--------|--------|--------|


E|--------|--------|-----------------------------|---------------------------|---------------------------|
B|--------|--------|-5--0--5--0--4--0------------|-1--0--1--0--4-------------|-5--0--5--0--4-------------|
G|--------|--------|-----------------------------|---------------------------|---------------------------|
D|--------|--------|-----------------------------|---------------------------|---------------------------|
A|--------|--------|-----------------------------|---------------------------|---------------------------|
E|--------|--------|-----------------------------|---------------------------|---------------------------|


E|--------------------------------------|---------------------------|---------------------------|
B|-0--0--0--0--0--0--0--0--0------------|-5--0--5--0--4-------------|-1--0--1--0--4-------------|
G|--------------------------------------|---------------------------|---------------------------|
D|--------------------------------------|---------------------------|---------------------------|
A|--------------------------------------|---------------------------|---------------------------|
E|--------------------------------------|---------------------------|---------------------------|


E|---------------------------------|-------------------------------|------------------------------------|
B|-5--0--5--0--4-------------0--0--|-0--0--0--0--0--0--0--0--------|-8--0--8--0--7----------------5--0--|
G|---------------------------------|-------------------------------|------------------------------------|
D|---------------------------------|-------------------------------|------------------------------------|
A|---------------------------------|-------------------------------|------------------------------------|
E|---------------------------------|-------------------------------|------------------------------------|


E|---------------------------|------------------------------------|---------------------------|
B|-5--0--5--0--7-------------|-8--0--8--0--7----------------5--0--|-5--0--5--0--4-------------|
G|---------------------------|------------------------------------|---------------------------|
D|---------------------------|------------------------------------|---------------------------|
A|---------------------------|------------------------------------|---------------------------|
E|---------------------------|------------------------------------|---------------------------|


E|------------------------------------|------------------------------------|------------------------------------|
B|-8--0--8--0--7----------------5--0--|-5--0--5--0--7----------------8--0--|-8--0--8--0--7---5------------5--0--|
G|------------------------------------|------------------------------------|------------------------------------|
D|------------------------------------|------------------------------------|------------------------------------|
A|------------------------------------|------------------------------------|------------------------------------|
E|------------------------------------|------------------------------------|------------------------------------|


E|----------------------------------------|-----------------------------------------------|
B|-5--0--5--0--4---4--0--1--0--0--0--0----|-0--0--0--0--0--0--0--0------------0--0--0--0--|
G|----------------------------------------|--------------------------------0--------------|
D|----------------------------------------|-------------------------0---0-----------------|
A|----------------------------------------|-----------------------------------------------|
E|----------------------------------------|-----------------------------------------------|


E|---------------------------------------------|-------------------------------------------------|
B|-0--0--0--0--0--0--0---0--0--0---0--0--0--0--|-0--0--0--0--0--0--0--0--0--0--0--0--0--0--0--0--|
G|---------------------------------------------|-------------------------------------------------|
D|---------------------------------------------|-------------------------------------------------|
A|---------------------------------------------|-------------------------------------------------|
E|---------------------------------------------|-------------------------------------------------|


E|-------------------------------------------------|-------------------------------------------------|
B|-0--0--0--0--0--0--0--0--0--0--0--0--0--0--0--0--|-0--0--0--0--0--0--0--0--0--0--0--0--0--0--0--0--|
G|-------------------------------------------------|-------------------------------------------------|
D|-------------------------------------------------|-------------------------------------------------|
A|-------------------------------------------------|-------------------------------------------------|
E|-------------------------------------------------|-------------------------------------------------|


E|-------------------------------------------------|-------------------------------------------------|
B|-0--0--0--0--0--0--0--0--0--0--0--0--0--0--0--0--|-0--0--0--0--0--0--0--0--0--0--0--0--0--0--0--0--|
G|-------------------------------------------------|-------------------------------------------------|
D|-------------------------------------------------|-------------------------------------------------|
A|-------------------------------------------------|-------------------------------------------------|
E|-------------------------------------------------|-------------------------------------------------|


E|-------------------------------|------------------------------------|---------------------------------------------|
B|-0--0--0--0--1---1---7---------|-1--0--1--0--4----------------5--0--|-5--0--5--0--4--0--4--0--1--0--1--3--1--0----|
G|-------------------------------|------------------------------------|---------------------------------------------|
D|-------------------------------|------------------------------------|---------------------------------------------|
A|-------------------------------|------------------------------------|---------------------------------------------|
E|--------------------------19---|------------------------------------|---------------------------------------------|


E|------------------------------------|---------------------------------------------|
B|-1--0--1--0--4----------------5--0--|-5--0--5--0--4--0--4--0--1--0--1--3--1--0----|
G|------------------------------------|---------------------------------------------|
D|------------------------------------|---------------------------------------------|
A|------------------------------------|---------------------------------------------|
E|------------------------------------|---------------------------------------------|


E|------------------------------------|------------------------------------------------|
B|-5--0--5--0--4----------------5--0--|-5--0--5--0--4--0--4--0--1--0--1--3--1--0-------|
G|------------------------------------|---------------------------------------------0--|
D|------------------------------------|------------------------------------------------|
A|------------------------------------|------------------------------------------------|
E|------------------------------------|------------------------------------------------|


E|------------------------------------|---------------------------------------------|
B|-1--0--1--0--4----------------5--0--|-5--0--5--0--4--0--4--0--1--0--1--3--1--0----|
G|------------------------------------|---------------------------------------------|
D|------------------------------------|---------------------------------------------|
A|------------------------------------|---------------------------------------------|
E|------------------------------------|---------------------------------------------|


E|-------------------------------------------------|-------------------------------------------------|
B|-8--0--8--0--8--0--8--0--8--0--8--0--8--0--8--0--|-8--0--8--0--8--0--8--0--10-0--10-0--10-0--10-0--|
G|-------------------------------------------------|-------------------------------------------------|
D|-------------------------------------------------|-------------------------------------------------|
A|-------------------------------------------------|-------------------------------------------------|
E|-------------------------------------------------|-------------------------------------------------|


E|-------------------------------------------------|------------------------------------------|
B|-7--0--7--0--7--0--7--0--7--0--7--0--7--0--7--0--|-12-0--12-0--12-0--12-0--12-0--12-0--12---|
G|-------------------------------------------------|------------------------------------------|
D|-------------------------------------------------|------------------------------------------|
A|-------------------------------------------------|------------------------------------------|
E|-------------------------------------------------|------------------------------------------|


E|---------------------------------------------|---------------------------------------------|
B|-12--0---17-0--17-0--16-0--0--0--13-12-10-12-|-12--0---17-0--17-0--16-0--0--0--13-12-10-12-|
G|---------------------------------------------|---------------------------------------------|
D|---------------------------------------------|---------------------------------------------|
A|---------------------------------------------|---------------------------------------------|
E|---------------------------------------------|---------------------------------------------|


E|---------------------------------------------|---------------------------------------------|
B|-12--0---17-0--17-0--16-0--0--0--13-12-10-12-|-12--0---17-0--17-0--16-0--0--0--13-12-10-12-|
G|---------------------------------------------|---------------------------------------------|
D|---------------------------------------------|---------------------------------------------|
A|---------------------------------------------|---------------------------------------------|
E|---------------------------------------------|---------------------------------------------|


E|--------|--------|--------|-----------------|--------|--------|--------|--------|
B|-12-----|-12-----|-12-----|-12----12--12----|--------|--------|--------|--------|
G|--------|--------|--------|-----------------|--------|--------|--------|--------|
D|--------|--------|--------|-----------------|--------|--------|--------|--------|
A|--------|--------|--------|-----------------|--------|--------|--------|--------|
E|--------|--------|--------|-----------------|--------|--------|--------|--------|


E|--------|--------|----------------------|--------------------------|---------------------------|
B|--------|--------|----------------------|--------------------------|---------------------------|
G|--------|--------|------------4---------|-3------------------------|---------------------------|
D|--------|--------|-----------------6----|----------------4----6----|-6------------3------------|
A|--------|--------|----------------------|--------------------------|------------------6--------|
E|--------|--------|----------------------|--------------------------|---------------------------|


E|----------------------|-----------------|--------------------|-----------------|
B|----------------------|-----------------|--------------------|-----------------|
G|----------------------|-----------------|--------------------|-----------------|
D|----------------------|-----------------|--------------------|-2-----4---------|
A|------------4----3----|-5---------------|----------------5---|-----------------|
E|----------------------|-----------------|--------------------|-----------------|


E|--------------------|---------------------|----------------------|---------------------------|
B|--------------------|---------------------|----------------------|---------------------------|
G|------------3---4---|-3-------------------|----------------------|---------------------------|
D|--------------------|-------6---4---------|-----------------3----|-3---4---------------------|
A|--------------------|---------------------|-------4----6---------|----------6---6---4----2---|
E|--------------------|---------------------|----------------------|---------------------------|


E|-----------------|----------------|-------------|--------|------------------------|
B|-----------------|----------------|-------------|--------|------------------------|
G|-----------------|-9--9------9----|-9-----9-----|-9------|-9----9--9----9----8----|
D|-----------------|----------------|-------------|--------|------------------------|
A|-2---------------|----------------|-------------|--------|------------------------|
E|-----------------|----------------|-------------|--------|------------------------|


E|-------------|--------------------|-----------------|---------------------------|
B|-------------|--------------------|-----------------|---------------------------|
G|-8----11-----|-11---8-------------|-----------------|---------------------------|
D|-------------|------------9---8---|-8-----9----4----|-4-----4---5---4---2---4---|
A|-------------|--------------------|-----------------|---------------------------|
E|-------------|--------------------|-----------------|---------------------------|


E|-------------|--------|----------------------------|-----------------|--------|---------------------------|
B|-------------|--------|----------------------------|-----------------|--------|---------------------------|
G|-------------|--------|----------------------------|-----------------|--------|---------------------------|
D|-5------9----|-9------|-9---9----------------------|-----------------|--------|---------------9-------9---|
A|-------------|--------|-------------------9-9-9----|-10---12----9----|-9------|-9-----9-----------9-------|
E|-------------|--------|----------------------------|-----------------|--------|---------------------------|


E|--------------------|-------------------------------|----------------|--------------------------------|
B|--------------------|----------7-------7--------7---|-10-----12-8----|-8-----108-7----8--7--8--7--5---|
G|------------8-------|-8----8-------8--------8-------|----------------|--------------------------------|
D|-9------9-------9---|-------------------------------|----------------|--------------------------------|
A|--------------------|-------------------------------|----------------|--------------------------------|
E|--------------------|-------------------------------|----------------|--------------------------------|


E|-----------------------------|-----------------|--------------------|----------------|
B|-7----8----8---7---8--7------|-----------------|--------------------|----------------|
G|-------------------------11--|-11--------9-----|-8---9---11--11-----|-11-----11--16--|
D|-----------------------------|-----------------|--------------------|----------------|
A|-----------------------------|-----------------|--------------------|----------------|
E|-----------------------------|-----------------|--------------------|----------------|


E|-----------------------------------|-----------------------------|-----------------|
B|-19--18----18--16--14--16-14-------|-----------------------------|-----------------|
G|-----------------------------16-15-|-15---16---16---15-13--------|-----------------|
D|-----------------------------------|----------------------16-14--|-17---16---14----|
A|-----------------------------------|-----------------------------|-----------------|
E|-----------------------------------|-----------------------------|-----------------|


E|--------------------------|---------------------|---------------------------|--------|
B|--------------------------|---------------------|---------------------------|--------|
G|--------------------------|---------------------|---------------12--14--12--|-11-----|
D|-14----14--14-------------|-----------14---16---|-19----19--0---------------|--------|
A|----------------14-14-14--|-14---17-------------|---------------------------|--------|
E|--------------------------|---------------------|---------------------------|--------|


E|--------|-------------|--------|-----------------------------|---------------------------|
B|--------|-------------|--------|-5--0--5--0--4--0------------|-1--0--1--0--4-------------|
G|--------|-------------|--------|-----------------------------|---------------------------|
D|--------|-------------|--------|-----------------------------|---------------------------|
A|--------|-------------|--------|-----------------------------|---------------------------|
E|-7------|-7-----7-----|-7------|-----------------------------|---------------------------|


E|---------------------------|--------------------------------------|---------------------------|
B|-5--0--5--0--4-------------|-0--0--0--0--0--0--0--0--0------------|-5--0--5--0--4-------------|
G|---------------------------|--------------------------------------|---------------------------|
D|---------------------------|--------------------------------------|---------------------------|
A|---------------------------|--------------------------------------|---------------------------|
E|---------------------------|--------------------------------------|---------------------------|


E|---------------------------|---------------------------------|-------------------------------|
B|-1--0--1--0--4-------------|-5--0--5--0--4-------------0--0--|-0--0--0--0--0--0--0--0--------|
G|---------------------------|---------------------------------|-------------------------------|
D|---------------------------|---------------------------------|-------------------------------|
A|---------------------------|---------------------------------|-------------------------------|
E|---------------------------|---------------------------------|-------------------------------|


E|------------------------------------|---------------------------|------------------------------------|
B|-8--0--8--0--7----------------5--0--|-5--0--5--0--7-------------|-8--0--8--0--7----------------5--0--|
G|------------------------------------|---------------------------|------------------------------------|
D|------------------------------------|---------------------------|------------------------------------|
A|------------------------------------|---------------------------|------------------------------------|
E|------------------------------------|---------------------------|------------------------------------|


E|---------------------------|------------------------------------|------------------------------------|
B|-5--0--5--0--4-------------|-8--0--8--0--7----------------5--0--|-5--0--5--0--7----------------8--0--|
G|---------------------------|------------------------------------|------------------------------------|
D|---------------------------|------------------------------------|------------------------------------|
A|---------------------------|------------------------------------|------------------------------------|
E|---------------------------|------------------------------------|------------------------------------|


E|------------------------------------|----------------------------------------|-----------------------------------------------|
B|-8--0--8--0--7---5------------5--0--|-5--0--5--0--4---4--0--1--0--0--0--0----|-0--0--0--0--0--0--0--0------------0--0--0--0--|
G|------------------------------------|----------------------------------------|--------------------------------0--------------|
D|------------------------------------|----------------------------------------|-------------------------0---0-----------------|
A|------------------------------------|----------------------------------------|-----------------------------------------------|
E|------------------------------------|----------------------------------------|-----------------------------------------------|


E|---------------------------------------------|-------------------------------------------------|
B|-0--0--0--0--0--0--0---0--0--0---0--0--0--0--|-0--0--0--0--0--0--0--0--0--0--0--0--0--0--0--0--|
G|---------------------------------------------|-------------------------------------------------|
D|---------------------------------------------|-------------------------------------------------|
A|---------------------------------------------|-------------------------------------------------|
E|---------------------------------------------|-------------------------------------------------|


E|-------------------------------------------------|-------------------------------------------------|
B|-0--0--0--0--0--0--0--0--0--0--0--0--0--0--0--0--|-0--0--0--0--0--0--0--0--0--0--0--0--0--0--0--0--|
G|-------------------------------------------------|-------------------------------------------------|
D|-------------------------------------------------|-------------------------------------------------|
A|-------------------------------------------------|-------------------------------------------------|
E|-------------------------------------------------|-------------------------------------------------|


E|-------------------------------------------------|-------------------------------------------------|
B|-0--0--0--0--0--0--0--0--0--0--0--0--0--0--0--0--|-0--0--0--0--0--0--0--0--0--0--0--0--0--0--0--0--|
G|-------------------------------------------------|-------------------------------------------------|
D|-------------------------------------------------|-------------------------------------------------|
A|-------------------------------------------------|-------------------------------------------------|
E|-------------------------------------------------|-------------------------------------------------|


E|-------------------------------|------------------------------------|---------------------------------------------|
B|-0--0--0--0--1---1---7---------|-1--0--1--0--4----------------5--0--|-5--0--5--0--4--0--4--0--1--0--1--3--1--0----|
G|-------------------------------|------------------------------------|---------------------------------------------|
D|-------------------------------|------------------------------------|---------------------------------------------|
A|-------------------------------|------------------------------------|---------------------------------------------|
E|--------------------------19---|------------------------------------|---------------------------------------------|


E|------------------------------------|---------------------------------------------|
B|-1--0--1--0--4----------------5--0--|-5--0--5--0--4--0--4--0--1--0--1--3--1--0----|
G|------------------------------------|---------------------------------------------|
D|------------------------------------|---------------------------------------------|
A|------------------------------------|---------------------------------------------|
E|------------------------------------|---------------------------------------------|


E|------------------------------------|------------------------------------------------|
B|-5--0--5--0--4----------------5--0--|-5--0--5--0--4--0--4--0--1--0--1--3--1--0-------|
G|------------------------------------|---------------------------------------------0--|
D|------------------------------------|------------------------------------------------|
A|------------------------------------|------------------------------------------------|
E|------------------------------------|------------------------------------------------|


E|------------------------------------|---------------------------------------------|
B|-1--0--1--0--4----------------5--0--|-5--0--5--0--4--0--4--0--1--0--1--3--1--0----|
G|------------------------------------|---------------------------------------------|
D|------------------------------------|---------------------------------------------|
A|------------------------------------|---------------------------------------------|
E|------------------------------------|---------------------------------------------|


E|-------------------------------------------------|-------------------------------------------------|
B|-8--0--8--0--8--0--8--0--8--0--8--0--8--0--8--0--|-8--0--8--0--8--0--8--0--10-0--10-0--10-0--10-0--|
G|-------------------------------------------------|-------------------------------------------------|
D|-------------------------------------------------|-------------------------------------------------|
A|-------------------------------------------------|-------------------------------------------------|
E|-------------------------------------------------|-------------------------------------------------|


E|-------------------------------------------------|------------------------------------------|
B|-7--0--7--0--7--0--7--0--7--0--7--0--7--0--7--0--|-12-0--12-0--12-0--12-0--12-0--12-0--12---|
G|-------------------------------------------------|------------------------------------------|
D|-------------------------------------------------|------------------------------------------|
A|-------------------------------------------------|------------------------------------------|
E|-------------------------------------------------|------------------------------------------|


E|---------------------------------------------|---------------------------------------------|
B|-12--0---17-0--17-0--16-0--0--0--13-12-10-12-|-12--0---17-0--17-0--16-0--0--0--13-12-10-12-|
G|---------------------------------------------|---------------------------------------------|
D|---------------------------------------------|---------------------------------------------|
A|---------------------------------------------|---------------------------------------------|
E|---------------------------------------------|---------------------------------------------|


E|---------------------------------------------|---------------------------------------------|
B|-12--0---17-0--17-0--16-0--0--0--13-12-10-12-|-12--0---17-0--17-0--16-0--0--0--13-12-10-12-|
G|---------------------------------------------|---------------------------------------------|
D|---------------------------------------------|---------------------------------------------|
A|---------------------------------------------|---------------------------------------------|
E|---------------------------------------------|---------------------------------------------|


E|--------|--------|--------|--------|--------|--------|--------|--------|--------|
B|--------|--------|--------|--------|--------|--------|--------|--------|--------|
G|--------|--------|--------|--------|--------|--------|--------|--------|--------|
D|--------|--------|--------|--------|--------|--------|--------|--------|--------|
A|--------|--------|--------|--------|--------|--------|--------|--------|--------|
E|--------|--------|--------|--------|--------|--------|--------|--------|--------|


E|--------|--------|
B|--------|--------|
G|--------|--------|
D|--------|--------|
A|--------|--------|
E|--------|--------|





Track 3: Quiet dist

E|--------|--------|--------|--------|--------|--------|--------|--------|--------|
B|--------|--------|--------|--------|--------|--------|--------|--------|--------|
G|--------|--------|--------|--------|--------|--------|--------|--------|--------|
D|--------|--------|--------|--------|--------|--------|--------|--------|--------|
A|--------|--------|--------|--------|--------|--------|--------|--------|--------|
E|--------|--------|--------|--------|--------|--------|--------|--------|--------|


E|--------|--------|--------|--------|--------|--------|--------|--------|--------|
B|--------|--------|--------|--------|--------|--------|--------|--------|--------|
G|--------|--------|--------|--------|--------|--------|--------|--------|--------|
D|--------|--------|--------|--------|--------|--------|--------|--------|--------|
A|--------|--------|--------|--------|--------|--------|--------|--------|--------|
E|--------|--------|--------|--------|--------|--------|--------|--------|--------|


E|--------|--------|--------|--------|--------|--------|--------|--------|--------|
B|--------|--------|--------|--------|--------|--------|--------|--------|--------|
G|--------|--------|--------|--------|--------|--------|--------|--------|--------|
D|--------|--------|--------|--------|--------|--------|--------|--------|--------|
A|--------|--------|--------|--------|--------|--------|--------|--------|--------|
E|--------|--------|--------|--------|--------|--------|--------|--------|--------|


E|--------|--------|--------|--------|--------|--------|--------|--------|--------|
B|--------|--------|--------|--------|--------|--------|--------|--------|--------|
G|--------|--------|--------|--------|--------|--------|--------|--------|--------|
D|--------|--------|--------|--------|--------|--------|--------|--------|--------|
A|--------|--------|--------|--------|--------|--------|--------|--------|--------|
E|--------|--------|--------|--------|--------|--------|--------|--------|--------|


E|--------|--------|--------|--------|--------|--------|--------|--------|--------|
B|--------|--------|--------|--------|--------|--------|--------|--------|--------|
G|--------|--------|--------|--------|--------|--------|--------|--------|--------|
D|--------|--------|--------|--------|--------|--------|--------|--------|--------|
A|--------|--------|--------|--------|--------|--------|--------|--------|--------|
E|--------|--------|--------|--------|--------|--------|--------|--------|--------|


E|--------|--------|--------|--------|--------|--------|--------|--------|--------|
B|--------|--------|--------|--------|--------|--------|--------|--------|--------|
G|--------|--------|--------|--------|--------|--------|--------|--------|--------|
D|--------|--------|--------|--------|--------|--------|--------|--------|--------|
A|--------|--------|--------|--------|--------|--------|--------|--------|--------|
E|--------|--------|--------|--------|--------|--------|--------|--------|--------|


E|--------|--------|--------|--------|--------|--------|--------|--------|--------|
B|--------|--------|--------|--------|--------|--------|--------|--------|--------|
G|--------|--------|--------|--------|--------|--------|--------|--------|--------|
D|--------|--------|--------|--------|--------|--------|--------|--------|--------|
A|--------|--------|--------|--------|--------|--------|--------|--------|--------|
E|--------|--------|--------|--------|--------|--------|--------|--------|--------|


E|--------|--------|--------|--------|--------|--------|--------|--------|--------|
B|--------|--------|--------|--------|--------|--------|--------|--------|--------|
G|--------|--------|--------|--------|--------|--------|--------|--------|--------|
D|--------|--------|--------|--------|--------|--------|--------|--------|--------|
A|--------|--------|--------|--------|--------|--------|--------|--------|--------|
E|--------|--------|--------|--------|--------|--------|--------|--------|--------|


E|--------|--------|--------|--------|--------|--------|--------|--------|--------|
B|--------|--------|--------|--------|--------|--------|--------|--------|--------|
G|--------|--------|--------|--------|--------|--------|--------|--------|--------|
D|--------|--------|--------|--------|--------|--------|--------|--------|--------|
A|--------|--------|--------|--------|--------|--------|--------|--------|--------|
E|--------|--------|--------|--------|--------|--------|--------|--------|--------|


E|--------|--------|--------|--------|--------|--------|--------|--------|--------|
B|--------|--------|--------|--------|--------|--------|--------|--------|--------|
G|--------|--------|--------|--------|--------|--------|--------|--------|--------|
D|--------|--------|--------|--------|--------|--------|--------|--------|--------|
A|--------|--------|--------|--------|--------|--------|--------|--------|--------|
E|--------|--------|--------|--------|--------|--------|--------|--------|--------|


E|--------|--------|--------|--------|--------|--------|--------|--------|--------|
B|--------|--------|--------|--------|--------|--------|--------|--------|--------|
G|--------|--------|--------|--------|--------|--------|--------|--------|--------|
D|--------|--------|--------|--------|--------|--------|--------|--------|--------|
A|--------|--------|--------|--------|--------|--------|--------|--------|--------|
E|--------|--------|--------|--------|--------|--------|--------|--------|--------|


E|--------|--------|--------|--------|--------|--------|--------|--------|--------|
B|--------|--------|--------|--------|--------|--------|--------|--------|--------|
G|--------|--------|--------|--------|--------|--------|--------|--------|--------|
D|--------|--------|--------|--------|--------|--------|--------|--------|--------|
A|--------|--------|--------|--------|--------|--------|--------|--------|--------|
E|--------|--------|--------|--------|--------|--------|--------|--------|--------|


E|--------|--------|--------|--------|--------|--------|--------|--------|--------|
B|--------|--------|--------|--------|--------|--------|--------|--------|--------|
G|--------|--------|--------|--------|--------|--------|--------|--------|--------|
D|--------|--------|--------|--------|--------|--------|--------|--------|--------|
A|--------|--------|--------|--------|--------|--------|--------|--------|--------|
E|--------|--------|--------|--------|--------|--------|--------|--------|--------|


E|--------|--------|--------|--------|--------|--------|--------|--------|--------|
B|--------|--------|--------|--------|--------|--------|--------|--------|--------|
G|--------|--------|--------|--------|--------|--------|--------|--------|--------|
D|--------|--------|--------|--------|--------|--------|--------|--------|--------|
A|--------|--------|--------|--------|--------|--------|--------|--------|--------|
E|--------|--------|--------|--------|--------|--------|--------|--------|--------|


E|--------|--------|--------|--------|--------|--------|--------|--------|--------|
B|--------|--------|--------|--------|--------|--------|--------|--------|--------|
G|--------|--------|--------|--------|--------|--------|--------|--------|--------|
D|--------|--------|--------|--------|--------|--------|--------|--------|--------|
A|--------|--------|--------|--------|--------|--------|--------|--------|--------|
E|--------|--------|--------|--------|--------|--------|--------|--------|--------|


E|--------|--------|--------|--------|--------|--------|--------|--------|--------|
B|--------|--------|--------|--------|--------|--------|--------|--------|--------|
G|--------|--------|--------|--------|--------|--------|--------|--------|--------|
D|--------|--------|--------|--------|--------|--------|--------|--------|--------|
A|--------|--------|--------|--------|--------|--------|--------|--------|--------|
E|--------|--------|--------|--------|--------|--------|--------|--------|--------|


E|--------|--------|--------|--------|--------|--------|--------|--------|--------|
B|--------|--------|--------|--------|--------|--------|--------|--------|--------|
G|--------|--------|--------|--------|--------|--------|--------|--------|--------|
D|--------|--------|--------|--------|--------|--------|--------|--------|--------|
A|--------|--------|--------|--------|--------|--------|--------|--------|--------|
E|--------|--------|--------|--------|--------|--------|--------|--------|--------|


E|--------|--------|--------|--------|--------|------1-----2----|-2---5-----5----2----|
B|--------|--------|--------|--------|--------|-----------------|---------------------|
G|--------|--------|--------|--------|--------|-----------------|---------------------|
D|--------|--------|--------|--------|--------|-----------------|---------------------|
A|--------|--------|--------|--------|--------|-----------------|---------------------|
E|--------|--------|--------|--------|--------|-----------------|---------------------|


E|-2----1-----2----|-2---5-----5----2----|-2----1-----2----|-2---5-----5----2----|
B|-----------------|---------------------|-----------------|---------------------|
G|-----------------|---------------------|-----------------|---------------------|
D|-----------------|---------------------|-----------------|---------------------|
A|-----------------|---------------------|-----------------|---------------------|
E|-----------------|---------------------|-----------------|---------------------|


E|-2----1------|
B|-------------|
G|-------------|
D|-------------|
A|-------------|
E|-------------|





Track 4: Backing riff

E|--------|--------|--------|--------|--------|--------|--------|--------|--------|
B|--------|--------|--------|--------|--------|--------|--------|--------|--------|
G|--------|--------|--------|--------|--------|--------|--------|--------|--------|
D|--------|--------|--------|--------|--------|--------|--------|--------|--------|
A|--------|--------|--------|--------|--------|--------|--------|--------|--------|
E|--------|--------|--------|--------|--------|--------|--------|--------|--------|


E|--------|--------|--------|--------|--------|--------|--------|--------|--------|
B|--------|--------|--------|--------|--------|--------|--------|--------|--------|
G|--------|--------|--------|--------|--------|--------|--------|--------|--------|
D|--------|--------|--------|--------|--------|--------|--------|--------|--------|
A|--------|--------|--------|--------|--------|--------|--------|--------|--------|
E|--------|--------|--------|--------|--------|--------|--------|--------|--------|


E|--------|--------|--------|--------|--------|--------|--------|--------|--------|
B|--------|--------|--------|--------|--------|--------|--------|--------|--------|
G|--------|--------|--------|--------|--------|--------|--------|--------|--------|
D|--------|--------|--------|--------|--------|--------|--------|--------|--------|
A|--------|--------|--------|--------|--------|--------|--------|--------|--------|
E|--------|--------|--------|--------|--------|--------|--------|--------|--------|


E|--------|--------|--------|--------|--------|--------|--------|--------|--------|
B|--------|--------|--------|--------|--------|--------|--------|--------|--------|
G|--------|--------|--------|--------|--------|--------|--------|--------|--------|
D|--------|--------|--------|--------|--------|--------|--------|--------|--------|
A|--------|--------|--------|--------|--------|--------|--------|--------|--------|
E|--------|--------|--------|--------|--------|--------|--------|--------|--------|


E|--------|--------|--------|--------|--------|--------|--------|--------|--------|
B|--------|--------|--------|--------|--------|--------|--------|--------|--------|
G|--------|--------|--------|--------|--------|--------|--------|--------|--------|
D|--------|--------|--------|--------|--------|--------|--------|--------|--------|
A|--------|--------|--------|--------|--------|--------|--------|--------|--------|
E|--------|--------|--------|--------|--------|--------|--------|--------|--------|


E|--------|--------|--------|--------|--------|--------|--------|--------|--------|
B|--------|--------|--------|--------|--------|--------|--------|--------|--------|
G|--------|--------|--------|--------|--------|--------|--------|--------|--------|
D|--------|--------|--------|--------|--------|--------|--------|--------|--------|
A|--------|--------|--------|--------|--------|--------|--------|--------|--------|
E|--------|--------|--------|--------|--------|--------|--------|--------|--------|


E|--------|--------|--------|--------|--------|--------|--------|--------|--------|
B|--------|--------|--------|--------|--------|--------|--------|--------|--------|
G|--------|--------|--------|--------|--------|--------|--------|--------|--------|
D|--------|--------|--------|--------|--------|--------|--------|--------|--------|
A|--------|--------|--------|--------|--------|--------|--------|--------|--------|
E|--------|--------|--------|--------|--------|--------|--------|--------|--------|


E|--------|--------|--------|--------|--------|--------|--------|--------|--------|
B|--------|--------|--------|--------|--------|--------|--------|--------|--------|
G|--------|--------|--------|--------|--------|--------|--------|--------|--------|
D|--------|--------|--------|--------|--------|--------|--------|--------|--------|
A|--------|--------|--------|--------|--------|--------|--------|--------|--------|
E|--------|--------|--------|--------|--------|--------|--------|--------|--------|


E|--------|--------|--------|--------|--------|--------|--------|--------|--------|
B|--------|--------|--------|--------|--------|--------|--------|--------|--------|
G|--------|--------|--------|--------|--------|--------|--------|--------|--------|
D|--------|--------|--------|--------|--------|--------|--------|--------|--------|
A|--------|--------|--------|--------|--------|--------|--------|--------|--------|
E|--------|--------|--------|--------|--------|--------|--------|--------|--------|


E|--------|--------|--------|--------|--------|--------|--------|--------|--------|
B|--------|--------|--------|--------|--------|--------|--------|--------|--------|
G|--------|--------|--------|--------|--------|--------|--------|--------|--------|
D|--------|--------|--------|--------|--------|--------|--------|--------|--------|
A|--------|--------|--------|--------|--------|--------|--------|--------|--------|
E|--------|--------|--------|--------|--------|--------|--------|--------|--------|


E|--------|--------|--------|--------|--------|--------|--------|--------|--------|
B|--------|--------|--------|--------|--------|--------|--------|--------|--------|
G|--------|--------|--------|--------|--------|--------|--------|--------|--------|
D|--------|--------|--------|--------|--------|--------|--------|--------|--------|
A|--------|--------|--------|--------|--------|--------|--------|--------|--------|
E|--------|--------|--------|--------|--------|--------|--------|--------|--------|


E|--------|--------|--------|--------|--------|--------|--------|--------|--------|
B|--------|--------|--------|--------|--------|--------|--------|--------|--------|
G|--------|--------|--------|--------|--------|--------|--------|--------|--------|
D|--------|--------|--------|--------|--------|--------|--------|--------|--------|
A|--------|--------|--------|--------|--------|--------|--------|--------|--------|
E|--------|--------|--------|--------|--------|--------|--------|--------|--------|


E|--------|--------|--------|--------|--------|--------|--------|--------|--------|
B|--------|--------|--------|--------|--------|--------|--------|--------|--------|
G|--------|--------|--------|--------|--------|--------|--------|--------|--------|
D|--------|--------|--------|--------|--------|--------|--------|--------|--------|
A|--------|--------|--------|--------|--------|--------|--------|--------|--------|
E|--------|--------|--------|--------|--------|--------|--------|--------|--------|


E|--------|--------|--------|--------|--------|--------|--------|--------|--------|
B|--------|--------|--------|--------|--------|--------|--------|--------|--------|
G|--------|--------|--------|--------|--------|--------|--------|--------|--------|
D|--------|--------|--------|--------|--------|--------|--------|--------|--------|
A|--------|--------|--------|--------|--------|--------|--------|--------|--------|
E|--------|--------|--------|--------|--------|--------|--------|--------|--------|


E|--------|--------|--------|--------|--------|--------|--------|--------|--------|
B|--------|--------|--------|--------|--------|--------|--------|--------|--------|
G|--------|--------|--------|--------|--------|--------|--------|--------|--------|
D|--------|--------|--------|--------|--------|--------|--------|--------|--------|
A|--------|--------|--------|--------|--------|--------|--------|--------|--------|
E|--------|--------|--------|--------|--------|--------|--------|--------|--------|


E|--------|--------|--------|--------|--------|--------|--------|--------|--------|
B|--------|--------|--------|--------|--------|--------|--------|--------|--------|
G|--------|--------|--------|--------|--------|--------|--------|--------|--------|
D|--------|--------|--------|--------|--------|--------|--------|--------|--------|
A|--------|--------|--------|--------|--------|--------|--------|--------|--------|
E|--------|--------|--------|--------|--------|--------|--------|--------|--------|


E|--------|--------|--------|--------|--------|--------|--------|--------|--------|
B|--------|--------|--------|--------|--------|--------|--------|--------|--------|
G|--------|--------|--------|--------|--------|--------|--------|--------|--------|
D|--------|--------|--------|--------|--------|--------|--------|--------|--------|
A|--------|--------|--------|--------|--------|--------|--------|--------|--------|
E|--------|--------|--------|--------|--------|--------|--------|--------|--------|


E|--------|--------|--------|--------|--------|--------|--------|--------|--------|
B|--------|--------|--------|--------|--------|--------|--------|--------|--------|
G|--------|--------|--------|--------|--------|--------|--------|--------|--------|
D|--------|--------|--------|--------|--------|--------|--------|--------|--------|
A|--------|--------|--------|--------|--------|-2------|--------|-2------|--------|
E|--------|--------|--------|--------|--------|--------|-1------|--------|-1------|


E|--------|--------|--------|
B|--------|--------|--------|
G|--------|--------|--------|
D|--------|--------|--------|
A|-2------|--------|-2------|
E|--------|-1------|--------|





Track 5: Untitled

G|--------|--------|--------|--------|--------|--------|--------|--------|--------|
D|--------|--------|--------|--------|--------|--------|--------|--------|--------|
A|--------|--------|--------|--------|--------|--------|--------|--------|--------|
E|--------|--------|--------|--------|--------|--------|--------|--------|--------|


G|--------|--------|--------|--------|--------|--------|--------|--------|--------|
D|--------|--------|--------|--------|--------|--------|--------|--------|--------|
A|--------|--------|--------|--------|--------|--------|--------|--------|--------|
E|--------|--------|--------|--------|--------|--------|--------|--------|--------|


G|--------|--------|--------|--------|--------|--------|--------|--------|--------|
D|--------|--------|--------|--------|--------|--------|--------|--------|--------|
A|--------|--------|--------|--------|--------|--------|--------|--------|--------|
E|--------|--------|--------|--------|--------|--------|--------|--------|--------|


G|--------|--------|--------|--------|--------|--------|--------|--------|--------|
D|--------|--------|--------|--------|--------|--------|--------|--------|--------|
A|--------|--------|--------|--------|--------|--------|--------|--------|--------|
E|--------|--------|--------|--------|--------|--------|--------|--------|--------|


G|--------|--------|--------|--------|--------|--------|--------|--------|--------|
D|--------|--------|--------|--------|--------|--------|--------|--------|--------|
A|--------|--------|--------|--------|--------|--------|--------|--------|--------|
E|--------|--------|--------|--------|--------|--------|--------|--------|--------|


G|--------|--------|--------|--------|--------|--------|--------|--------|--------|
D|--------|--------|--------|--------|--------|--------|--------|--------|--------|
A|--------|--------|--------|--------|--------|--------|--------|--------|--------|
E|--------|--------|--------|--------|--------|--------|--------|--------|--------|


G|--------|--------|--------|--------|--------|--------|--------|--------|--------|
D|--------|--------|--------|--------|--------|--------|--------|--------|--------|
A|--------|--------|--------|--------|--------|--------|--------|--------|--------|
E|--------|--------|--------|--------|--------|--------|--------|--------|--------|


G|--------|--------|--------|--------|--------|--------|--------|--------|--------|
D|--------|--------|--------|--------|--------|--------|--------|--------|--------|
A|--------|--------|--------|--------|--------|--------|--------|--------|--------|
E|--------|--------|--------|--------|--------|--------|--------|--------|--------|


G|--------|--------|--------|--------|--------|--------|--------|--------|--------|
D|--------|--------|--------|--------|--------|--------|--------|--------|--------|
A|--------|--------|--------|--------|--------|--------|--------|--------|--------|
E|--------|--------|--------|--------|--------|--------|--------|--------|--------|


G|--------|--------|--------|--------|--------|--------|--------|--------|--------|
D|--------|--------|--------|--------|--------|--------|--------|--------|--------|
A|--------|--------|--------|--------|--------|--------|--------|--------|--------|
E|--------|--------|--------|--------|--------|--------|--------|--------|--------|


G|--------|--------|--------|--------|--------|--------|--------|--------|--------|
D|--------|--------|--------|--------|--------|--------|--------|--------|--------|
A|--------|--------|--------|--------|--------|--------|--------|--------|--------|
E|--------|--------|--------|--------|--------|--------|--------|--------|--------|


G|--------|--------|--------|--------|--------|--------|--------|--------|--------|
D|--------|--------|--------|--------|--------|--------|--------|--------|--------|
A|--------|--------|--------|--------|--------|--------|--------|--------|--------|
E|--------|--------|--------|--------|--------|--------|--------|--------|--------|


G|--------|--------|--------|--------|--------|--------|--------|--------|--------|
D|--------|--------|--------|--------|--------|--------|--------|--------|--------|
A|--------|--------|--------|--------|--------|--------|--------|--------|--------|
E|--------|--------|--------|--------|--------|--------|--------|--------|--------|


G|--------|--------|--------|--------|--------|--------|--------|--------|--------|
D|--------|--------|--------|--------|--------|--------|--------|--------|--------|
A|--------|--------|--------|--------|--------|--------|--------|--------|--------|
E|--------|--------|--------|--------|--------|--------|--------|--------|--------|


G|--------|--------|--------|--------|--------|--------|--------|--------|--------|
D|--------|--------|--------|--------|--------|--------|--------|--------|--------|
A|--------|--------|--------|--------|--------|--------|--------|--------|--------|
E|--------|--------|--------|--------|--------|--------|--------|--------|--------|


G|--------|--------|--------|--------|--------|--------|--------|--------|--------|
D|--------|--------|--------|--------|--------|--------|--------|--------|--------|
A|--------|--------|--------|--------|--------|--------|--------|--------|--------|
E|--------|--------|--------|--------|--------|--------|--------|--------|--------|


G|--------|--------|--------|--------|--------|--------|--------|--------|--------|
D|--------|--------|--------|--------|--------|--------|--------|--------|--------|
A|--------|--------|--------|--------|--------|--------|--------|--------|--------|
E|--------|--------|--------|--------|--------|--------|--------|--------|--------|


G|--------|--------|--------|--------|--------|--------|--------|--------|--------|
D|--------|--------|--------|--------|--------|--------|--------|--------|--------|
A|--------|--------|--------|--------|--------|--------|--------|--------|--------|
E|--------|--------|--------|--------|--------|--------|--------|--------|--------|


G|--------|--------|--------|
D|--------|--------|--------|
A|--------|--------|--------|
E|--------|--------|--------|