Menu:

 

Search:

 

joe satriani - a train of angels:

 



Title: A Train Of Angels
Artist: 
Album: Crystal Planet
Author: Joe Satriani


Track 1: Rhythm

E|--------|--------|--------|--------|--------|--------|--------|--------|--------------------|
B|--------|--------|--------|--------|--------|--------|--------|--------|--------------------|
G|--------|--------|--------|--------|--------|--------|--------|--------|--------------------|
D|--------|--------|--------|--------|--------|--------|--------|--------|------------0---0---|
A|--------|--------|--------|--------|--------|--------|--------|--------|--------------------|
D|--------|--------|--------|--------|--------|--------|--------|--------|--------------------|


E|-10--10----------10--10----------|------------------------------|---------------------------|
B|-7---8-----------8---7-----------|-13--10----------10-----------|-8------------8------------|
G|---------------------------------|-9---7-----------7------------|-4------------5------------|
D|---------0---0-----------0---0---|---------0---0--------0---0---|------0---0--------0---0---|
A|---------------------------------|------------------------------|---------------------------|
D|---------------------------------|------------------------------|---------------------------|


E|------------------------------|---------------------------------|------------------------------|
B|-8---10----------10-----------|-10--10----------10--10----------|------------------------------|
G|-5---7-----------7------------|-6---7-----------7---6-----------|-12--9-----------9------------|
D|---------0---0----------------|---------------------------------|-9---7-----------7------------|
A|----------------------0---0---|---------0---0-----------0---0---|---------0---0--------0---0---|
D|------------------------------|---------------------------------|------------------------------|


E|---------------------------|------------------------------|-15--15----------15--15----------|
B|---------------------------|------------------------------|-12--13----------13--12----------|
G|-7------------7------------|-7---9-----------9----0---0---|---------0---0-----------0---0---|
D|-4------------5------------|-5---7-----------7------------|---------------------------------|
A|------0---0--------0---0---|---------0---0----------------|---------------------------------|
D|---------------------------|------------------------------|---------------------------------|


E|-13--10----------10-----------|-8------------8------------|-8---10----------10-----------|
B|-10--8-----------8------------|-5------------6------------|-6---8-----------8------------|
G|---------0---0--------0---0---|------0---0--------0---0---|---------0---0----------------|
D|------------------------------|---------------------------|----------------------0---0---|
A|------------------------------|---------------------------|------------------------------|
D|------------------------------|---------------------------|------------------------------|


E|-10--10----------10--10----------|------------------------------|---------------------------------|
B|-7---8-----------8---7-----------|-13--10----------10-----------|---------------------------------|
G|---------------------------------|-9---7-----------7------------|-14--12----------12--9-----------|
D|---------0---0-----------0---0---|---------0---0----------------|-11--9-----------9---7-----------|
A|---------------------------------|----------------------0---0---|---------0---0-----------0---0---|
D|---------------------------------|------------------------------|---------------------------------|


E|----------------|---------------------------------|------------------------------|
B|----------------|---------------------------------|------------------------------|
G|-9--------------|-7---7-----------7---7-----------|------------------------------|
D|-7--------------|-4---5-----------5---4-----------|-10--7-----------7------------|
A|-0--------------|---------------------------------|-7---5-----------5------------|
D|--------0---0---|---------0---0-----------0---0---|---------0---0--------0---0---|


E|---------------------------|------------------------------|---------------------------------|
B|---------------------------|------------------------------|---------------------------------|
G|---------------------------|------------------------------|-7---7-----------7---7-----------|
D|-5------------5------------|-5---7-----------7------------|-4---5-----------5---4-----------|
A|-2------------3------------|-3---5-----------5------------|---------------------------------|
D|------0---0--------0---0---|---------0---0--------0---0---|---------0---0-----------0---0---|


E|------------------------------|---------------------------|------------------------------|
B|------------------------------|---------------------------|------------------------------|
G|------------------------------|---------------------------|------------------------------|
D|-10--7-----------7------------|-5------------5------------|-5---7-----------7------------|
A|-7---5-----------5------------|-2------------3------------|-3---5-----------5------------|
D|---------0---0--------0---0---|------0---0--------0---0---|---------0---0--------0---0---|


E|---------------------------------|------------------------------|---------------------------|
B|-10--10----------10--10----------|------------------------------|---------------------------|
G|-6---7-----------7---6-----------|-12--9-----------9------------|-7------------7------------|
D|---------------------------------|-9---7-----------7------------|-4------------5------------|
A|---------0---0-----------0---0---|---------0---0--------0---0---|------0---0--------0---0---|
D|---------------------------------|------------------------------|---------------------------|


E|------------------------------|---------------------------------|------------------------------|
B|------------------------------|---------------------------------|------------------------------|
G|-7---9-----------9------------|-7---7-----------7---7-----------|------------------------------|
D|-5---7-----------7------------|-4---5-----------5---4-----------|-10--7-----------7------------|
A|---------0---0----------------|---------------------------------|-7---5-----------5------------|
D|----------------------0---0---|---------0---0-----------0---0---|---------0---0--------0---0---|


E|---------------------------|-----------------------|----------------|---------------------------------|
B|---------------------------|-----------------------|----------------|---------------------------------|
G|---------------------------|-----------------------|----------------|---------------------------------|
D|-5------------5------------|-5---7-----------0-----|-0--------------|-----------------------------0---|
A|-2------------3------------|-3---5-----------0-----|-0--------------|-----------------------------0---|
D|------0---0--------0---0---|---------0---0---0-----|-0------7---7---|-5---5---4---4---2---2---0---0---|


E|---------------------|--------------------0---|-0----0-----0----|-0---0---0--------------------|
B|------3----3-----3---|-3----3---3---3-----1---|-1----1-----1----|-0---0---0--------------------|
G|------2----2-----2---|-2----2---2---2-----0---|-0----0-----0----|-0---0---0--------------------|
D|-0----0----0-----0---|-0----0---0---0-----2---|-2----2-----2----|-2---2---2----------------0---|
A|-0----0----0---------|--------------------0---|-0----0-----0----|-0---0---0----3---2---0---0---|
D|-0----0----0---------|------------------------|-----------------|--------------------------0---|


E|---------------------|--------------------0---|-0----0-----0----|-0---0---0--------------------|
B|------3----3-----3---|-3----3---3---3-----1---|-1----1-----1----|-0---0---0--------------------|
G|------2----2-----2---|-2----2---2---2-----0---|-0----0-----0----|-0---0---0--------------------|
D|-0----0----0-----0---|-0----0---0---0-----2---|-2----2-----2----|-2---2---2----------------0---|
A|-0----0----0---------|--------------------0---|-0----0-----0----|-0---0---0----3---2---0---0---|
D|-0----0----0---------|------------------------|-----------------|--------------------------0---|


E|---------------------|--------------------0---|-0----0-----0----|-0---0---0--------------------|
B|------3----3-----3---|-3----3---3---3-----1---|-1----1-----1----|-0---0---0--------------------|
G|------2----2-----2---|-2----2---2---2-----0---|-0----0-----0----|-0---0---0--------------------|
D|-0----0----0-----0---|-0----0---0---0-----2---|-2----2-----2----|-2---2---2----------------0---|
A|-0----0----0---------|--------------------0---|-0----0-----0----|-0---0---0----3---2---0---0---|
D|-0----0----0---------|------------------------|-----------------|--------------------------0---|


E|---------------------|--------------------0---|-0----0-----0----|--------|--------|
B|------3----3-----3---|-3----3---3---3-----1---|-1----1-----1----|--------|--------|
G|------2----2-----2---|-2----2---2---2-----0---|-0----0-----0----|--------|--------|
D|-0----0----0-----0---|-0----0---0---0-----2---|-2----2-----2----|--------|--------|
A|-0----0----0---------|--------------------0---|-0----0-----0----|--------|--------|
D|-0----0----0---------|------------------------|-----------------|--------|--------|


E|--------|--------|--------|--------|--------|--------|--------|--------|--------|
B|--------|--------|--------|--------|--------|--------|--------|--------|--------|
G|--------|--------|--------|--------|--------|--------|--------|--------|--------|
D|--------|--------|--------|--------|--------|--------|--------|--------|--------|
A|--------|--------|--------|--------|--------|--------|--------|--------|--------|
D|--------|--------|--------|--------|--------|--------|--------|--------|--------|


E|--------|--------|--------|--------|--------|--------|--------|--------|--------|
B|--------|--------|--------|--------|--------|--------|--------|--------|--------|
G|--------|--------|--------|--------|--------|--------|--------|--------|--------|
D|--------|--------|--------|--------|--------|--------|--------|--------|--------|
A|--------|--------|--------|--------|--------|--------|--------|--------|--------|
D|--------|--------|--------|--------|--------|--------|--------|--------|--------|


E|--------|--------|--------|--------|--------|--------|--------|--------|--------|
B|--------|--------|--------|--------|--------|--------|--------|--------|--------|
G|--------|--------|--------|--------|--------|--------|--------|--------|--------|
D|--------|--------|--------|--------|--------|--------|--------|--------|--------|
A|--------|--------|--------|--------|--------|--------|--------|--------|--------|
D|--------|--------|--------|--------|--------|--------|--------|--------|--------|


E|--------|--------|--------|--------|--------|--------|---------------------|--------------------0---|
B|--------|--------|--------|--------|--------|--------|------3----3-----3---|-3----3---3---3-----1---|
G|--------|--------|--------|--------|--------|--------|------2----2-----2---|-2----2---2---2-----0---|
D|--------|--------|--------|--------|--------|--------|-0----0----0-----0---|-0----0---0---0-----2---|
A|--------|--------|--------|--------|--------|--------|-0----0----0---------|--------------------0---|
D|--------|--------|--------|--------|--------|--------|-0----0----0---------|------------------------|


E|-0----0-----0----|-0---0---0--------------------|---------------------|--------------------0---|
B|-1----1-----1----|-0---0---0--------------------|------3----3-----3---|-3----3---3---3-----1---|
G|-0----0-----0----|-0---0---0--------------------|------2----2-----2---|-2----2---2---2-----0---|
D|-2----2-----2----|-2---2---2----------------0---|-0----0----0-----0---|-0----0---0---0-----2---|
A|-0----0-----0----|-0---0---0----3---2---0---0---|-0----0----0---------|--------------------0---|
D|-----------------|--------------------------0---|-0----0----0---------|------------------------|


E|-0----0-----0----|-0---0---0--------------------|---------------------|--------------------0---|
B|-1----1-----1----|-0---0---0--------------------|------3----3-----3---|-3----3---3---3-----1---|
G|-0----0-----0----|-0---0---0--------------------|------2----2-----2---|-2----2---2---2-----0---|
D|-2----2-----2----|-2---2---2----------------0---|-0----0----0-----0---|-0----0---0---0-----2---|
A|-0----0-----0----|-0---0---0----3---2---0---0---|-0----0----0---------|--------------------0---|
D|-----------------|--------------------------0---|-0----0----0---------|------------------------|


E|-0----0-----0----|-0---0---0--------------------|---------------------|--------------------0---|
B|-1----1-----1----|-0---0---0--------------------|------3----3-----3---|-3----3---3---3-----1---|
G|-0----0-----0----|-0---0---0--------------------|------2----2-----2---|-2----2---2---2-----0---|
D|-2----2-----2----|-2---2---2----------------0---|-0----0----0-----0---|-0----0---0---0-----2---|
A|-0----0-----0----|-0---0---0----3---2---0---0---|-0----0----0---------|--------------------0---|
D|-----------------|--------------------------0---|-0----0----0---------|------------------------|


E|-0----0-----0----|--------|--------|--------|--------|--------|--------|--------|
B|-1----1-----1----|--------|--------|--------|--------|--------|--------|--------|
G|-0----0-----0----|--------|--------|--------|--------|--------|--------|--------|
D|-2----2-----2----|--------|--------|--------|--------|--------|--------|--------|
A|-0----0-----0----|--------|--------|--------|--------|--------|--------|--------|
D|-----------------|--------|--------|--------|--------|--------|--------|--------|


E|--------|--------|--------|--------|--------|--------|--------|--------|--------|
B|--------|--------|--------|--------|--------|--------|--------|--------|--------|
G|--------|--------|--------|--------|--------|--------|--------|--------|--------|
D|--------|--------|--------|--------|--------|--------|--------|--------|--------|
A|--------|--------|--------|--------|--------|--------|--------|--------|--------|
D|--------|--------|--------|--------|--------|--------|--------|--------|--------|


E|--------|--------|--------|--------|--------|--------|--------|--------|--------|
B|--------|--------|--------|--------|--------|--------|--------|--------|--------|
G|--------|--------|--------|--------|--------|--------|--------|--------|--------|
D|--------|--------|--------|--------|--------|--------|--------|--------|--------|
A|--------|--------|--------|--------|--------|--------|--------|--------|--------|
D|--------|--------|--------|--------|--------|--------|--------|--------|--------|


E|--------|--------|--------|--------|--------|--------|--------|--------|--------|
B|--------|--------|--------|--------|--------|--------|--------|--------|--------|
G|--------|--------|--------|--------|--------|--------|--------|--------|--------|
D|--------|--------|--------|--------|--------|--------|--------|--------|--------|
A|--------|--------|--------|--------|--------|--------|--------|--------|--------|
D|--------|--------|--------|--------|--------|--------|--------|--------|--------|


E|--------|--------|--------|--------|--------|--------|--------|--------|--------|
B|--------|--------|--------|--------|--------|--------|--------|--------|--------|
G|--------|--------|--------|--------|--------|--------|--------|--------|--------|
D|--------|--------|--------|--------|--------|--------|--------|--------|--------|
A|--------|--------|--------|--------|--------|--------|--------|--------|--------|
D|--------|--------|--------|--------|--------|--------|--------|--------|--------|





Track 2: Solo

E|--------|--------|--------|--------|--------|--------|--------|--------|--------|
B|--------|--------|--------|--------|--------|--------|--------|--------|--------|
G|--------|--------|--------|--------|--------|--------|--------|--------|--------|
D|--------|--------|--------|--------|--------|--------|--------|--------|--------|
A|--------|--------|--------|--------|--------|--------|--------|--------|--------|
E|--------|--------|--------|--------|--------|--------|--------|--------|--------|


E|--------|--------|--------|--------|--------|--------|--------|--------|--------|
B|--------|--------|--------|--------|--------|--------|--------|--------|--------|
G|--------|--------|--------|--------|--------|--------|--------|--------|--------|
D|--------|--------|--------|--------|--------|--------|--------|--------|--------|
A|--------|--------|--------|--------|--------|--------|--------|--------|--------|
E|--------|--------|--------|--------|--------|--------|--------|--------|--------|


E|--------|--------|--------|--------|--------|--------|--------|--------|--------|
B|--------|--------|--------|--------|--------|--------|--------|--------|--------|
G|--------|--------|--------|--------|--------|--------|--------|--------|--------|
D|--------|--------|--------|--------|--------|--------|--------|--------|--------|
A|--------|--------|--------|--------|--------|--------|--------|--------|--------|
E|--------|--------|--------|--------|--------|--------|--------|--------|--------|


E|--------|--------|--------|--------|--------|--------|--------|--------|--------|
B|--------|--------|--------|--------|--------|--------|--------|--------|--------|
G|--------|--------|--------|--------|--------|--------|--------|--------|--------|
D|--------|--------|--------|--------|--------|--------|--------|--------|--------|
A|--------|--------|--------|--------|--------|--------|--------|--------|--------|
E|--------|--------|--------|--------|--------|--------|--------|--------|--------|


E|--------|--------|--------|--------|--------|--------|--------|-----------------------|
B|--------|--------|--------|--------|--------|--------|--------|---------------7---8---|
G|--------|--------|--------|--------|--------|--------|--------|-------7---9-----------|
D|--------|--------|--------|--------|--------|--------|--------|-----------------------|
A|--------|--------|--------|--------|--------|--------|--------|-----------------------|
E|--------|--------|--------|--------|--------|--------|--------|-----------------------|


E|---------------------------------|-------------|------------|-----------------------|
B|-8---7---------------------------|-------------|------------|---------------7---8---|
G|-------------9---9---7-------9---|-9----9------|-9------9---|-------7---9-----------|
D|---------------------------------|-------------|------------|-----------------------|
A|---------------------------------|-------------|------------|-----------------------|
E|---------------------------------|-------------|------------|-----------------------|


E|---------------------------------|------------------------|--------|---------------------------|
B|-8---7-----------------------12--|-12----12--12---12--12--|-12-----|-12------------------------|
G|-------------9---9---7-----------|------------------------|--------|-----------7---9-------9---|
D|---------------------------------|------------------------|--------|---------------------------|
A|---------------------------------|------------------------|--------|---------------------------|
E|---------------------------------|------------------------|--------|---------------------------|


E|---------------------------------|------------------------|-------------|---------------------------|
B|---------------------------------|------------------------|-------------|---------------------------|
G|-9---11------9---9---7-------5---|-5-----7---4----7---2---|-2----2------|-2-------------------------|
D|---------------------------------|------------------------|-------------|-----------4---4---5---7---|
A|---------------------------------|------------------------|-------------|---------------------------|
E|---------------------------------|------------------------|-------------|---------------------------|


E|------------------------------|-----------------|--------|-----------14--14--17------|
B|------------------------------|-----------------|--------|-----------------------17--|
G|------------------------------|-----------------|--------|---------------------------|
D|-7---5-------4---4------------|-----------------|--------|---------------------------|
A|---------------------7----5---|-7-----9---7-----|-7------|-7-------------------------|
E|------------------------------|-----------------|--------|---------------------------|


E|------17-----------17------|-------------|--------|-----------17--17--17--17--|-17------------------------|
B|-17-------15--15-----------|-------------|--------|---------------------------|-----15---19--19--19---17--|
G|-----------------------16--|-16---16-----|-16-----|-16------------------------|---------------------------|
D|---------------------------|-------------|--------|---------------------------|---------------------------|
A|---------------------------|-------------|--------|---------------------------|---------------------------|
E|---------------------------|-------------|--------|---------------------------|---------------------------|


E|----------------------|--------|-----------14--14--17------|------17-----------17------|
B|-17---17--------------|--------|-----------------------17--|-17-------15--15-----------|
G|----------------------|--------|---------------------------|-----------------------16--|
D|----------------19-17-|-19-----|-19------------------------|---------------------------|
A|----------------------|--------|---------------------------|---------------------------|
E|----------------------|--------|---------------------------|---------------------------|


E|-------------|-----------------------|---------------------------|------------------------------|
B|-------------|-----15----------------|-------------------14--15--|-15--17------19--19---17------|
G|-16---16-----|-16------14--16--16----|-16--------14--16----------|--------------------------19--|
D|-------------|-----------------------|---------------------------|------------------------------|
A|-------------|-----------------------|---------------------------|------------------------------|
E|-------------|-----------------------|---------------------------|------------------------------|


E|----------------17--|-17---17---------|------19---19---19---19--19--|-19-----19--|
B|-17---17------------|-----------------|-----------------------------|------------|
G|--------------------|-----------------|-----------------------------|------------|
D|--------------------|-----------------|-----------------------------|------------|
A|--------------------|-----------------|-----------------------------|------------|
E|--------------------|-----------------|-----------------------------|------------|


E|--------------9-----------------------|-----------------------------------|------------------9-------12--|
B|----------9-------12--9---------------|-----------------------------------|--------------9-------9-------|
G|-----11-------------------11-11-9-----|-11------9-------------------------|----------11------------------|
D|-----------------------------------11-|-----11------11-9------------------|------------------------------|
A|--------------------------------------|-------------------11-9--7-----7---|------------------------------|
E|--------------------------------------|-----------------------------------|------------------------------|


E|-12----12------9-------9----|-9------------9-------11--11--11--|-9-------9---9-------9---------|
B|-------------------12-------|----------9-------9---------------|-----12----------12------------|
G|----------------------------|----------------------------------|-------------------------11----|
D|----------------------------|----------------------------------|-------------------------------|
A|----------------------------|----------------------------------|-------------------------------|
E|----------------------------|----------------------------------|-------------------------------|


E|-----9----------------9-------------------------|---------------------------|----------------12----------|
B|---------12--9-----9-----12---------------------|---------------------------|-----15----15-------15--12--|
G|-11-------------11-----------11--11-9-----11----|-9-------------------------|----------------------------|
D|---------------------------------------11----11-|-----11--11---11--11---14--|----------------------------|
A|------------------------------------------------|---------------------------|----------------------------|
E|------------------------------------------------|---------------------------|----------------------------|


E|-----------------------------------------|---------------------------|---------------------------|
B|-----------------------------------------|---------------------------|---------------------------|
G|-14--14--12--11--12-11-12-11-9---11------|---------------------------|---------------------------|
D|-------------------------------------12--|-14----12--12--------------|----------------------9----|
A|-----------------------------------------|---------------12--12--10--|-10---10--10--10--10-------|
E|-----------------------------------------|---------------------------|---------------------------|


E|-------------|---------------------------|------------------------|-----------------|
B|------20-----|-----19--19--17------------|------------------------|-----------------|
G|-------------|-----------------19--18----|------------------------|-----------------|
D|-------------|---------------------------|-16----14--14--12--14---|-14----14--14----|
A|-0-----------|---------------------------|------------------------|-----------------|
E|-------------|---------------------------|------------------------|-----------------|


E|-----------------------|---------------------------------|-------------|------------|
B|---------------7---8---|-8---7---------------------------|-------------|------------|
G|-------7---9-----------|-------------9---9---7-------9---|-9----9------|-9------9---|
D|-----------------------|---------------------------------|-------------|------------|
A|-----------------------|---------------------------------|-------------|------------|
E|-----------------------|---------------------------------|-------------|------------|


E|-----------------------|---------------------------------|------------------------|
B|---------------7---8---|-8---7-----------------------12--|-12----12--12---12--12--|
G|-------7---9-----------|-------------9---9---7-----------|------------------------|
D|-----------------------|---------------------------------|------------------------|
A|-----------------------|---------------------------------|------------------------|
E|-----------------------|---------------------------------|------------------------|


E|--------|---------------------------|---------------------------------|------------------------|
B|-12-----|-12------------------------|---------------------------------|------------------------|
G|--------|-----------7---9-------9---|-9---11------9---9---7-------5---|-5-----7---4----7---2---|
D|--------|---------------------------|---------------------------------|------------------------|
A|--------|---------------------------|---------------------------------|------------------------|
E|--------|---------------------------|---------------------------------|------------------------|


E|-------------|---------------------------|------------------------------|-----------------|
B|-------------|---------------------------|------------------------------|-----------------|
G|-2----2------|-2-------------------------|------------------------------|-----------------|
D|-------------|-----------4---4---5---7---|-7---5-------4---4------------|-----------------|
A|-------------|---------------------------|---------------------7----5---|-7-----9---7-----|
E|-------------|---------------------------|------------------------------|-----------------|


E|--------|-----------14--14--17------|------17-----------17------|-------------|--------|
B|--------|-----------------------17--|-17-------15--15-----------|-------------|--------|
G|--------|---------------------------|-----------------------16--|-16---16-----|-16-----|
D|--------|---------------------------|---------------------------|-------------|--------|
A|-7------|-7-------------------------|---------------------------|-------------|--------|
E|--------|---------------------------|---------------------------|-------------|--------|


E|-----------17--17--17--17--|-17------------------------|----------------------|--------|
B|---------------------------|-----15---19--19--19---17--|-17---17--------------|--------|
G|-16------------------------|---------------------------|----------------------|--------|
D|---------------------------|---------------------------|----------------19-17-|-19-----|
A|---------------------------|---------------------------|----------------------|--------|
E|---------------------------|---------------------------|----------------------|--------|


E|-----------14--14--17------|------17-----------17------|-------------|-----------------------|
B|-----------------------17--|-17-------15--15-----------|-------------|-----15----------------|
G|---------------------------|-----------------------16--|-16---16-----|-16------14--16--16----|
D|-19------------------------|---------------------------|-------------|-----------------------|
A|---------------------------|---------------------------|-------------|-----------------------|
E|---------------------------|---------------------------|-------------|-----------------------|


E|---------------------------|------------------------------|----------------17--|
B|-------------------14--15--|-15--17------19--19---17------|-17---17------------|
G|-16--------14--16----------|--------------------------19--|--------------------|
D|---------------------------|------------------------------|--------------------|
A|---------------------------|------------------------------|--------------------|
E|---------------------------|------------------------------|--------------------|


E|-17---17----17---|-19--19--17----------------------|---------------------------------|
B|-----------------|-------------19--19--17----------|---------------------------------|
G|-----------------|-------------------------19--19--|-16------------------------------|
D|-----------------|---------------------------------|-----19--19--16------------------|
A|-----------------|---------------------------------|-----------------19--19--17--14--|
E|-----------------|---------------------------------|---------------------------------|


E|---------------------------------|------------------------------|-----------------------|
B|---------------------------------|------------------------------|-----------------------|
G|---------------------------------|------------------------------|-----------------------|
D|---------------------------------|------------------------------|---------------7---9---|
A|-14--17--14--12--12--14--12--9---|-9---12--9---7---7---5----5---|-5-----7---9-----------|
E|---------------------------------|------------------------------|-----------------------|


E|---------------------------|-----------------------------------|-------------|-----------14--14--17------|
B|---------------------------|-----------------------------------|-------------|-----------------------17--|
G|---------------------------|-----------------------------------|-------------|---------------------------|
D|-9---7----7---7---9----9---|-9---11---12--12--11-12-11-9---7---|-7----7------|-7-------------------------|
A|---------------------------|-----------------------------------|-------------|---------------------------|
E|---------------------------|-----------------------------------|-------------|---------------------------|


E|------17-----------17------|-------------|-----------------------|---------------------------|
B|-17-------15--15-----------|-------------|-----15----------------|-------------------14--15--|
G|-----------------------16--|-16---16-----|-16------14--16--16----|-16--------14--16----------|
D|---------------------------|-------------|-----------------------|---------------------------|
A|---------------------------|-------------|-----------------------|---------------------------|
E|---------------------------|-------------|-----------------------|---------------------------|


E|------------------------------|----------------17--|-17---17---------|-----21--21--19--19---21---22---|
B|-15--17------19--19---17------|-17---17------------|-----------------|--------------------------------|
G|--------------------------19--|--------------------|-----------------|--------------------------------|
D|------------------------------|--------------------|-----------------|--------------------------------|
A|------------------------------|--------------------|-----------------|--------------------------------|
E|------------------------------|--------------------|-----------------|--------------------------------|


E|-22-----22---|-10--10----------10--10----------|------------------------------|-15--15----------15--15----------|
B|-------------|-7---8-----------8---7-----------|-13--10----------10-----------|-12--13----------13--12----------|
G|-------------|---------------------------------|-9---7-----------7----0---0---|---------0---0-----------0---0---|
D|-------------|---------0---0-----------0---0---|---------0---0----------------|---------------------------------|
A|-------------|---------------------------------|------------------------------|---------------------------------|
E|-------------|---------------------------------|------------------------------|---------------------------------|


E|-13--10----------10-----------|-10--10----------10--10----------|---------------------------------|
B|-10--8-----------8------------|-7---8-----------8---7-----------|---------------------------------|
G|---------0---0----------------|---------------------------------|-14--12----------12--9-----------|
D|----------------------0---0---|---------0---0-----------0-------|-11--9-----------9---7-----------|
A|------------------------------|-----------------------------0---|---------0---0-------------------|
E|------------------------------|---------------------------------|-------------------------0---0---|


E|---------------------------------|-----------------------|
B|---------------------------------|-----------------3-----|
G|-7---7-----------7---7-----------|-----------------2-----|
D|-4---5-----------5---4-----------|-10--7-----------0-----|
A|---------------------------------|-7---5-----------0-----|
E|---------0---0-----------0---0---|---------0---0---0-----|





Track 3: Solo (2)

E|--------|--------|--------|--------|--------|--------|--------|--------|--------|
B|--------|--------|--------|--------|--------|--------|--------|--------|--------|
G|--------|--------|--------|--------|--------|--------|--------|--------|--------|
D|--------|--------|--------|--------|--------|--------|--------|--------|--------|
A|--------|--------|--------|--------|--------|--------|--------|--------|--------|
E|--------|--------|--------|--------|--------|--------|--------|--------|--------|


E|--------|--------|--------|--------|--------|--------|--------|--------|--------|
B|--------|--------|--------|--------|--------|--------|--------|--------|--------|
G|--------|--------|--------|--------|--------|--------|--------|--------|--------|
D|--------|--------|--------|--------|--------|--------|--------|--------|--------|
A|--------|--------|--------|--------|--------|--------|--------|--------|--------|
E|--------|--------|--------|--------|--------|--------|--------|--------|--------|


E|--------|--------|--------|--------|--------|--------|--------|--------|--------|
B|--------|--------|--------|--------|--------|--------|--------|--------|--------|
G|--------|--------|--------|--------|--------|--------|--------|--------|--------|
D|--------|--------|--------|--------|--------|--------|--------|--------|--------|
A|--------|--------|--------|--------|--------|--------|--------|--------|--------|
E|--------|--------|--------|--------|--------|--------|--------|--------|--------|


E|--------|--------|--------|--------|--------|--------|--------|--------|--------|
B|--------|--------|--------|--------|--------|--------|--------|--------|--------|
G|--------|--------|--------|--------|--------|--------|--------|--------|--------|
D|--------|--------|--------|--------|--------|--------|--------|--------|--------|
A|--------|--------|--------|--------|--------|--------|--------|--------|--------|
E|--------|--------|--------|--------|--------|--------|--------|--------|--------|


E|--------|--------|--------|--------|--------|--------|--------|--------|--------|
B|--------|--------|--------|--------|--------|--------|--------|--------|--------|
G|--------|--------|--------|--------|--------|--------|--------|--------|--------|
D|--------|--------|--------|--------|--------|--------|--------|--------|--------|
A|--------|--------|--------|--------|--------|--------|--------|--------|--------|
E|--------|--------|--------|--------|--------|--------|--------|--------|--------|


E|--------|--------|--------|--------|--------|--------|--------|--------|--------|
B|--------|--------|--------|--------|--------|--------|--------|--------|--------|
G|--------|--------|--------|--------|--------|--------|--------|--------|--------|
D|--------|--------|--------|--------|--------|--------|--------|--------|--------|
A|--------|--------|--------|--------|--------|--------|--------|--------|--------|
E|--------|--------|--------|--------|--------|--------|--------|--------|--------|


E|--------|--------|--------|--------|--------|--------|--------|--------|--------|
B|--------|--------|--------|--------|--------|--------|--------|--------|--------|
G|--------|--------|--------|--------|--------|--------|--------|--------|--------|
D|--------|--------|--------|--------|--------|--------|--------|--------|--------|
A|--------|--------|--------|--------|--------|--------|--------|--------|--------|
E|--------|--------|--------|--------|--------|--------|--------|--------|--------|


E|-------21--21--21--21--|-21------------------------|-----------------|--------|--------|
B|-----------------------|-----22---22--22--22---22--|-22---22---------|--------|--------|
G|-----------------------|---------------------------|-----------------|--------|--------|
D|-----------------------|---------------------------|-----------------|--------|--------|
A|-----------------------|---------------------------|-----------------|--------|--------|
E|-----------------------|---------------------------|-----------------|--------|--------|


E|--------|--------|--------|-------------------14--|-14--17------19--19---17------|
B|--------|--------|--------|-------14--15--17------|--------------------------19--|
G|--------|--------|--------|-----------------------|------------------------------|
D|--------|--------|--------|-----------------------|------------------------------|
A|--------|--------|--------|-----------------------|------------------------------|
E|--------|--------|--------|-----------------------|------------------------------|


E|-17---17---------|--------|--------|--------|--------|--------|--------|--------|
B|-----------------|--------|--------|--------|--------|--------|--------|--------|
G|-----------------|--------|--------|--------|--------|--------|--------|--------|
D|-----------------|--------|--------|--------|--------|--------|--------|--------|
A|-----------------|--------|--------|--------|--------|--------|--------|--------|
E|-----------------|--------|--------|--------|--------|--------|--------|--------|


E|--------|--------|--------|--------|--------|--------|--------|--------|--------|
B|--------|--------|--------|--------|--------|--------|--------|--------|--------|
G|--------|--------|--------|--------|--------|--------|--------|--------|--------|
D|--------|--------|--------|--------|--------|--------|--------|--------|--------|
A|--------|--------|--------|--------|--------|--------|--------|--------|--------|
E|--------|--------|--------|--------|--------|--------|--------|--------|--------|


E|--------|--------|--------|--------|--------|--------|--------|--------|--------|
B|--------|--------|--------|--------|--------|--------|--------|--------|--------|
G|--------|--------|--------|--------|--------|--------|--------|--------|--------|
D|--------|--------|--------|--------|--------|--------|--------|--------|--------|
A|--------|--------|--------|--------|--------|--------|--------|--------|--------|
E|--------|--------|--------|--------|--------|--------|--------|--------|--------|


E|--------|--------|--------|--------|--------|--------|--------|--------|--------|
B|--------|--------|--------|--------|--------|--------|--------|--------|--------|
G|--------|--------|--------|--------|--------|--------|--------|--------|--------|
D|--------|--------|--------|--------|--------|--------|--------|--------|--------|
A|--------|--------|--------|--------|--------|--------|--------|--------|--------|
E|--------|--------|--------|--------|--------|--------|--------|--------|--------|


E|--------|--------|--------|--------|--------|-------21--21--21--21--|-21------------------------|
B|--------|--------|--------|--------|--------|-----------------------|-----22---22--22--22---22--|
G|--------|--------|--------|--------|--------|-----------------------|---------------------------|
D|--------|--------|--------|--------|--------|-----------------------|---------------------------|
A|--------|--------|--------|--------|--------|-----------------------|---------------------------|
E|--------|--------|--------|--------|--------|-----------------------|---------------------------|


E|-----------------|--------|--------|--------|--------|--------|-------------------14--|
B|-22---22---------|--------|--------|--------|--------|--------|-------14--15--17------|
G|-----------------|--------|--------|--------|--------|--------|-----------------------|
D|-----------------|--------|--------|--------|--------|--------|-----------------------|
A|-----------------|--------|--------|--------|--------|--------|-----------------------|
E|-----------------|--------|--------|--------|--------|--------|-----------------------|


E|-14--17------19--19---17------|-17---17---------|--------|--------|--------|--------|
B|--------------------------19--|-----------------|--------|--------|--------|--------|
G|------------------------------|-----------------|--------|--------|--------|--------|
D|------------------------------|-----------------|--------|--------|--------|--------|
A|------------------------------|-----------------|--------|--------|--------|--------|
E|------------------------------|-----------------|--------|--------|--------|--------|


E|--------|--------|--------|--------|--------|--------|--------|--------|--------|
B|--------|--------|--------|--------|--------|--------|--------|--------|--------|
G|--------|--------|--------|--------|--------|--------|--------|--------|--------|
D|--------|--------|--------|--------|--------|--------|--------|--------|--------|
A|--------|--------|--------|--------|--------|--------|--------|--------|--------|
E|--------|--------|--------|--------|--------|--------|--------|--------|--------|


E|-------------------14--|-14--17------19--19---17------|-17---17---------|--------|
B|-------14--15--17------|--------------------------19--|-----------------|--------|
G|-----------------------|------------------------------|-----------------|--------|
D|-----------------------|------------------------------|-----------------|--------|
A|-----------------------|------------------------------|-----------------|--------|
E|-----------------------|------------------------------|-----------------|--------|


E|--------|--------|--------|--------|--------|--------|--------|--------|--------|
B|--------|--------|--------|--------|--------|--------|--------|--------|--------|
G|--------|--------|--------|--------|--------|--------|--------|--------|--------|
D|--------|--------|--------|--------|--------|--------|--------|--------|--------|
A|--------|--------|--------|--------|--------|--------|--------|--------|--------|
E|--------|--------|--------|--------|--------|--------|--------|--------|--------|


E|--------|
B|--------|
G|--------|
D|--------|
A|--------|
E|--------|





Track 4: Untitled

G|--------|--------|--------|--------|--------|--------|--------|--------|--------|
D|--------|--------|--------|--------|--------|--------|--------|--------|--------|
A|--------|--------|--------|--------|--------|--------|--------|--------|--------|
E|--------|--------|--------|--------|--------|--------|--------|--------|--------|


G|--------|--------|--------|--------|--------|--------|--------|--------|--------|
D|--------|--------|--------|--------|--------|--------|--------|--------|--------|
A|--------|--------|--------|--------|--------|--------|--------|--------|--------|
E|--------|--------|--------|--------|--------|--------|--------|--------|--------|


G|--------|--------|--------|--------|--------|--------|--------|--------|--------|
D|--------|--------|--------|--------|--------|--------|--------|--------|--------|
A|--------|--------|--------|--------|--------|--------|--------|--------|--------|
E|--------|--------|--------|--------|--------|--------|--------|--------|--------|


G|--------|--------|--------|--------|--------|--------|--------|--------|--------|
D|--------|--------|--------|--------|--------|--------|--------|--------|--------|
A|--------|--------|--------|--------|--------|--------|--------|--------|--------|
E|--------|--------|--------|--------|--------|--------|--------|--------|--------|


G|--------|--------|--------|--------|--------|--------|--------|--------|--------|
D|--------|--------|--------|--------|--------|--------|--------|--------|--------|
A|--------|--------|--------|--------|--------|--------|--------|--------|--------|
E|--------|--------|--------|--------|--------|--------|--------|--------|--------|


G|--------|--------|--------|--------|--------|--------|--------|--------|--------|
D|--------|--------|--------|--------|--------|--------|--------|--------|--------|
A|--------|--------|--------|--------|--------|--------|--------|--------|--------|
E|--------|--------|--------|--------|--------|--------|--------|--------|--------|


G|--------|--------|--------|--------|--------|--------|--------|--------|--------|
D|--------|--------|--------|--------|--------|--------|--------|--------|--------|
A|--------|--------|--------|--------|--------|--------|--------|--------|--------|
E|--------|--------|--------|--------|--------|--------|--------|--------|--------|


G|--------|--------|--------|--------|--------|--------|--------|--------|--------|
D|--------|--------|--------|--------|--------|--------|--------|--------|--------|
A|--------|--------|--------|--------|--------|--------|--------|--------|--------|
E|--------|--------|--------|--------|--------|--------|--------|--------|--------|


G|--------|--------|--------|--------|--------|--------|--------|--------|--------|
D|--------|--------|--------|--------|--------|--------|--------|--------|--------|
A|--------|--------|--------|--------|--------|--------|--------|--------|--------|
E|--------|--------|--------|--------|--------|--------|--------|--------|--------|


G|--------|--------|--------|--------|--------|--------|--------|--------|--------|
D|--------|--------|--------|--------|--------|--------|--------|--------|--------|
A|--------|--------|--------|--------|--------|--------|--------|--------|--------|
E|--------|--------|--------|--------|--------|--------|--------|--------|--------|


G|--------|--------|--------|--------|--------|--------|--------|--------|--------|
D|--------|--------|--------|--------|--------|--------|--------|--------|--------|
A|--------|--------|--------|--------|--------|--------|--------|--------|--------|
E|--------|--------|--------|--------|--------|--------|--------|--------|--------|


G|--------|--------|--------|--------|--------|--------|--------|--------|--------|
D|--------|--------|--------|--------|--------|--------|--------|--------|--------|
A|--------|--------|--------|--------|--------|--------|--------|--------|--------|
E|--------|--------|--------|--------|--------|--------|--------|--------|--------|


G|--------|--------|--------|--------|--------|--------|--------|--------|--------|
D|--------|--------|--------|--------|--------|--------|--------|--------|--------|
A|--------|--------|--------|--------|--------|--------|--------|--------|--------|
E|--------|--------|--------|--------|--------|--------|--------|--------|--------|


G|--------|--------|--------|--------|--------|--------|--------|--------|--------|
D|--------|--------|--------|--------|--------|--------|--------|--------|--------|
A|--------|--------|--------|--------|--------|--------|--------|--------|--------|
E|--------|--------|--------|--------|--------|--------|--------|--------|--------|


G|--------|--------|--------|--------|--------|--------|--------|--------|--------|
D|--------|--------|--------|--------|--------|--------|--------|--------|--------|
A|--------|--------|--------|--------|--------|--------|--------|--------|--------|
E|--------|--------|--------|--------|--------|--------|--------|--------|--------|


G|--------|--------|--------|--------|--------|--------|--------|--------|--------|
D|--------|--------|--------|--------|--------|--------|--------|--------|--------|
A|--------|--------|--------|--------|--------|--------|--------|--------|--------|
E|--------|--------|--------|--------|--------|--------|--------|--------|--------|


G|--------|--------|--------|--------|--------|--------|--------|
D|--------|--------|--------|--------|--------|--------|--------|
A|--------|--------|--------|--------|--------|--------|--------|
E|--------|--------|--------|--------|--------|--------|--------|