Menu:

 

Search:

 

joe miller - limerock:

 



Title: Limerock
Artist: 
Album: West Coast Music For Guitar
Author: Traditional


Track 1: Steel String Acoustic Guitar

E|--------------12---9--12-9-----------------|----9-------------------------------7--|
B|-----------10---------------10----------10-|-12-----12-----------------------5-----|
G|--------9----------------------9-----9-----|-----------9------------------6--------|
D|-----11---------------------------11-------|--------------11-----------7-----------|
A|-0-----------------------------------------|-----------------------0---------------|
E|-------------------------------------------|------------------0--------------------|


E|------5--7--5--------------------5---------|-----------------------5---5----|-4---2--4--2--------------------2------------|
B|---------------5-----------5--7------7-----|--------------------3-----------|--------------3-----------3--5------5--------|
G|------------------6-----6---------------6--|-----------------4--------------|-----------------4-----4---------------4-----|
D|---------------------7---------------------|-7------------2-----------------|--------------------2---------------------2--|
A|-------------------------------------------|--------------------------------|---------------------------------------------|
E|-------------------------------------------|-----0----0---------------------|---------------------------------------------|


E|---------------------2--------------|-------------------------------------|----------------------0---------------------------|
B|------------------5-------3---2--3--|-2-----2---3---2--3--2---------------|-------------------0------0-----------------------|
G|---------------2--------------------|----4-------------------2--------2---|-1--2--1-----1--2-------------2---1--2--1-----1---|
D|--------0---0-----------------------|-------------------------------------|----------2--------------------------------2------|
A|----0-------------------------------|-------------------------------------|--------------------------------------------------|
E|------------------------------------|-----------------------------0-------|--------------------------------------------------|


E|------------------------------------------------|--------------------------0---|
B|------------------------------------------------|----------------------0---0---|
G|-2---1--2--1------------------------------------|------------------1---1---1---|
D|--------------2---0--2--0------0---2---0--2--0--|--------------2---2---2---2---|
A|---------------------------2--------------------|-2--------2---2---2---2---2---|
E|------------------------------------------------|-----0----0---0---0---0---0---|


E|-----------0-----|-----0-------12---0-------12--|-----0-------12---0-------12--|
B|-----------0-----|-------------10-----------10--|-------------10-----------10--|
G|-----------1-----|----------9-----------9-------|---------9------------9-------|
D|-----------2-----|------------------------------|------------------------------|
A|-----------2-----|-------------0----------------|-------------0----------------|
E|-----------0-----|-----0--------------------0---|--------------------------0---|


E|-----0-------12---0---10--9---10-|----9---0---7---5---7---5---0---0---0---|-----0---5---4---5---4---0---0-------|
B|-------------10------------------|--------0---0---------------------------|---------------------------------0---|
G|---------9-----------------------|----------------------------6---6-------|-6---6-----------------------7-------|
D|------------------11-------------|------------------------------------7---|-------------------------6-----------|
A|-------------0-------------------|----------------0-----------------------|-------------------------------------|
E|--------------------------0------|----------------------------------------|-------------0-------------------4---|


E|-----0----2---4---2---0-----------|-----0---0---12---0---10--9---10-|----9---0---7---5---7---5---0---0---0---|
B|--------------------------2-------|-2-----------10------------------|--------0---0---------------------------|
G|-7---7------------------------2---|---------9-----------------------|----------------------------6---6-------|
D|-----6------------------------2---|------------------11-------------|------------------------------------7---|
A|----------0-----------------------|-------------0-------------------|----------------0-----------------------|
E|----------------------------------|-----0--------------------0------|----------------------------------------|


E|-----0---5---4---5---4---0---0-------|-----0---0---5-------------------|-----0---0---12---0---10--9---10-|
B|---------------------------------0---|-----------------5-------5---5---|-------------10------------------|
G|-6---6-----------------------7-------|-7-------6-----------6-----------|---------9-----------------------|
D|-------------------------6-----------|-----6-----------------------7---|------------------11-------------|
A|-------------------------------------|-------------0-------------------|-------------0-------------------|
E|-------------0-------------------4---|---------------------------------|--------------------------0------|


E|----9---0---7---5---7---5---0---0---0---|-----0---5---4---5---4---0---0-------|-----0----2---4---2---0-----------|
B|--------0---0---------------------------|---------------------------------0---|--------------------------2-------|
G|----------------------------6---6-------|-6---6-----------------------7-------|-7---7------------------------2---|
D|------------------------------------7---|-------------------------6-----------|-----6------------------------2---|
A|----------------0-----------------------|-------------------------------------|----------0-----------------------|
E|----------------------------------------|-------------0-------------------4---|----------------------------------|


E|-----0---0---12---0---10--9---10-|----9---0---7---5---7---5---0---0---0---|-----0---5---4---5---4---0---0-------|
B|-2-----------10------------------|--------0---0---------------------------|---------------------------------0---|
G|---------9-----------------------|----------------------------6---6-------|-6---6-----------------------7-------|
D|------------------11-------------|------------------------------------7---|-------------------------6-----------|
A|-------------0-------------------|----------------0-----------------------|-------------------------------------|
E|-----0--------------------0------|----------------------------------------|-------------0-------------------4---|


E|-----0---0---5-------------------|---------------------------|------------------------|
B|-----------------5-------5---5---|---------------------------|------------------------|
G|-7-------6-----------6-----------|--------------2--------2---|----------4---------3---|
D|-----6-----------------------7---|-----7----4--------4-------|-----4----5---------5---|
A|-------------0-------------------|----------5------------0---|---------------5--------|
E|---------------------------------|---------------------------|------------------------|


E|---------------------------|---------0---2------------5---|-----5---7---5------------3---|
B|--------------3------------|-----3-----------3--------7---|-----------------7--------5---|
G|----------2------------2---|------------------------------|------------------------------|
D|----------4------------0---|-------------0------------0---|-------------0----------------|
A|-----5------------0--------|---------------------0--------|---------------------0----4---|
E|---------------------------|------------------------------|------------------------------|


E|-----3---5---3------------2---|---------------------------------|----------------------------------|
B|-----------------5--------3---|-----0-------3-------3-------0---|------------------0--------2---3--|
G|------------------------------|---------2-------2-------0-------|-----2----0---2-------2-----------|
D|--------------------------0---|---------------------------------|----------------------------------|
A|-------------4-------4--------|---------------------0-----------|---------------------------0------|
E|------------------------------|-------------2---------------3---|-----2----0-----------2-----------|


E|----0-------------------------|---------------------------|---------------------------|
B|--------3---------------------|---------------------------|--------------3------------|
G|-----------------2--------2---|----------4--------4---4---|-4--------2------------2---|
D|--------0----4--------4-------|-----4----5------------5---|----------4------------0---|
A|-------------5------------0---|---------------5-----------|-----5------------0--------|
E|------------------------------|---------------------------|---------------------------|


E|---------0---2------------5---|-----5---7---5------------3---|-----------------5-----------5---|
B|-----3-----------3--------7---|-----------------7--------5---|-----0---1---2---------------2---|
G|------------------------------|------------------------------|---------------------2---2-------|
D|-------------0------------0---|-------------0----------------|-----0---1---2-------------------|
A|---------------------0--------|---------------------0----4---|-----------------------------0---|
E|------------------------------|------------------------------|---------------------------------|


E|-----3----2-----3---|-------4-------------|-----0---0---12---0---10--9---10-|----9---0---7---5---7---5---0---0---0---|
B|-----2----3-----2---|-------3-------------|-------------10------------------|--------0---0---------------------------|
G|-2--------2-----3---|-------4-------------|---------9-----------------------|----------------------------6---6-------|
D|-----2----0-----1---|-------2-------------|------------------11-------------|------------------------------------7---|
A|--------------------|------------2--------|-------------0-------------------|----------------0-----------------------|
E|--------------------|-----------------0---|--------------------------0------|----------------------------------------|


E|-----0---5---4---5---4---0---0-------|-----0----2---4---2---0-----------|-----0---0---12---0---10--9---10-|
B|---------------------------------0---|--------------------------2-------|-2-----------10------------------|
G|-6---6-----------------------7-------|-7---7------------------------2---|---------9-----------------------|
D|-------------------------6-----------|-----6------------------------2---|------------------11-------------|
A|-------------------------------------|----------0-----------------------|-------------0-------------------|
E|-------------0-------------------4---|----------------------------------|-----0--------------------0------|


E|----9---0---7---5---7---5---0---0---0---|-----0---5---4---5---4---0---0-------|-----0---0---5-------------------|
B|--------0---0---------------------------|---------------------------------0---|-----------------5-------5---5---|
G|----------------------------6---6-------|-6---6-----------------------7-------|-7-------6-----------6-----------|
D|------------------------------------7---|-------------------------6-----------|-----6-----------------------7---|
A|----------------0-----------------------|-------------------------------------|-------------0-------------------|
E|----------------------------------------|-------------0-------------------4---|---------------------------------|


E|----------0----------------|-------------0----2----4---|----------7--------7-------|
B|-0---0----0----------------|-0---2---0---0----0----0---|----------7--------7---9---|
G|-0---0----1--------0---1---|-1-------1---1----2----4---|----------8--------8-------|
D|----------2--------2---2---|-------------2-------------|----------9----9-------9---|
A|---------------------------|---------------------------|-----2---------------------|
E|---------------0-------0---|-------------0---------0---|---------------------------|


E|-7---7----0----------------|---------0---0-----0---0---|-------------0----2----4---|
B|-7---7----0----------------|-0---2---0---0-----0---0---|-0---2---0---0----0----4---|
G|-8---8----1--------0---1---|-1-------1---1-----0---1---|-1-------1---1----2----4---|
D|----------2--------2---2---|---------2---2-----2---2---|-------------2-------------|
A|---------------------------|---------------------------|---------------------------|
E|---------------0-------0---|-------------0---------0---|---------------------------|


E|----------7--------7-------|-7---7----0----0----0---|-0---0---------------------|
B|----------7--------7---9---|-7---7----0----0----0---|-0---0---------------------|
G|----------8--------8-------|-8---8----1----1----1---|-1---1-------------0---1---|
D|----------9----9-------9---|----------2----2--------|----------2----------------|
A|-----2---------------------|------------------------|-----------------------2---|
E|---------------------------|--------------------0---|----------0----0-----------|


E|-------------0-------4----7---|----------7---4---5---4-------4---|---------------------4-------4---|
B|-0---2---0-------0------------|--------------------------7-------|-4-------0-------5-------5-------|
G|------------------------------|------------------4---------------|---------------------4-----------|
D|---------------------2----6---|-----5----4-------------------4---|-----5-------6-------------------|
A|-----0------------------------|----------------------------------|---------------------------------|
E|-------------4----------------|----------------------------------|-----------------------------0---|


E|-7---------------7-----------4---|-7-------4---7---4-------4---7---7---|-7-----------4-------4-------7---|
B|---------5---5---5-------5-------|---------5-----------5---------------|-5-------4-------4-------4-------|
G|-----4---------------4-----------|-----4-------------------4-----------|-----4---------------4-----------|
D|-------------6-------------------|-------------6-----------------------|-------------4-------------------|
A|---------------------------------|-------------------------------------|-----------------------------6---|
E|-----------------------------0---|---------------------------------0---|---------------------------------|


E|-----4-------0-------------------|----------0-------9-------12--|-----0-------9-------0-------5---|
B|-4-------0-------0-------0---0---|--------------10------10------|-10------10------10------2-------|
G|-----4---------------1-----------|------------------9-----------|---------------------------------|
D|-------------2---------------2---|------------------------------|-----11--------------11----------|
A|---------------------------------|----------0-------------------|-------------0---------------0---|
E|---------------------------------|-----0--------------------0---|---------------------------------|


E|-----0-------------------0---0---|----------0---0-----------0---|----------0-------9-------12--|
B|-2-------0---0-------0-----------|-0---0----0---0-----------0---|--------------10------10------|
G|-----------------1---------------|-----1----2---2-------2-------|------------------9-----------|
D|-------------2-------0-----------|------------------0-------2---|------------------------------|
A|-----4-----------------------2---|----------4-------------------|----------0-------------------|
E|---------------------------------|-----0------------------------|-----0--------------------0---|


E|-----0-------9-------0-------5---|-----0-----------------------0---0---|------------------------------|
B|-10------10------10------2-------|-2-------0-----------0---2-----------|-0----------------------------|
G|---------------------------------|-----------------1-------------------|-----1----2---2---------------|
D|-----11--------------11----------|-------------2-------0---------------|--------------2-------2---2---|
A|-------------0---------------0---|-----4---------------------------4---|-----2----0-------4-------0---|
E|---------------------------------|-------------------------------------|------------------------------|


E|----------0-------9-------12--9--|--------0-------9-------0-------5---0--|--------0-----------------------0---0---|
B|--------------10------10---------|----10------10------10------2----------|----2-------0---0-------0---2-----------|
G|------------------9--------------|---------------------------------------|--------------------1-------------------|
D|---------------------------------|--------11--------------11-------------|----------------2-------0---------------|
A|----------0----------------------|----------------0---------------0------|--------4---------------------------4---|
E|-----0--------------------0------|---------------------------------------|----------------------------------------|


E|----------0---0-----------0---|----------0-------9-------12--9--|--------0-------9-------0-------5---0--|
B|-0---0----0---0-----------0---|--------------10------10---------|----10------10------10------2----------|
G|-----1----2---2-------2-------|------------------9--------------|---------------------------------------|
D|------------------0-------2---|---------------------------------|--------11--------------11-------------|
A|-----2----4-------------------|----------0----------------------|----------------0---------------0------|
E|------------------------------|-----0--------------------0------|---------------------------------------|


E|--------0-----------------------0---0---|------------------------------|-------------------------2-------2---|
B|----2-------0---0-------0---2-----------|-0---0------------------------|---------------------3-------3-------|
G|--------------------1-------------------|-----1----2---2---------------|-------------------------2-----------|
D|----------------2-------0---------------|--------------2-------2---2---|-----------------0-------------------|
A|--------4---------------------------4---|-----2----0-------4-------0---|-----0---2---4-------------------0---|
E|----------------------------------------|------------------------------|-------------------------------------|


E|-5-----------3-------------------|-0----------------------------|-0-----------2---0-------0---2---0---|
B|---------0-------0-------0---3---|---------0---2--------2---3---|---------0-----------3---------------|
G|-----2---------------0-----------|-----0------------2-----------|-----2-------------------2-----------|
D|---------------------------------|--------------------------2---|-------------0-----------------------|
A|-----------------------------2---|-------------0----------------|---------------------------------0---|
E|-------------3-------------------|------------------------------|-------------------------------------|


E|------------------0---0-------0---5------|----0---0------------0---0-------0---7------|
B|-3------------7-----------7-----------7--|-----------------8-----------8-----------8--|
G|-----2----------------7------------------|--------7----------------7-----------0------|
D|----------0------------------------------|-------------0------------------------------|
A|----------------------------------0------|--------------------------------------------|
E|-----------------------------------------|--------------------------------------------|


E|----0---0------------0---0---5---5---|--------------------------5---|-----5------------2-------2---|
B|-----------------8-------------------|-8------------7-------7-------|-----7--------3-------3-------|
G|--------7----------------6-----------|-----6------------7-----------|-----7------------2-----------|
D|-------------7-----------------------|----------0-------------------|-----0----0-------------------|
A|---------------------------------0---|--------------------------0---|--------------------------0---|
E|-------------------------------------|------------------------------|------------------------------|


E|-5--------3-----------3---7---|-7-------------------5-------3---|---------------------2-------2---|
B|--------------0---------------|---------0-------2-------2-------|-2-------0-------3-------3-------|
G|-----2------------0-----------|-----0---------------2-------2---|---------------------2-----------|
D|--------------------------0---|---------------------------------|-------------0-------------------|
A|------------------------------|-------------0-------------------|-----4-----------------------0---|
E|----------3-------------------|---------------------------------|---------------------------------|


E|-5---2-----------5-----------2---|-5-----------3-----------3---7---|-7---------------9-----------7---|
B|---------3---3-----------3-------|---------0-------0---------------|---------0---------------8-------|
G|-----2---------------2-----------|-----2---------------0-----------|-----0---------------9-----------|
D|-------------0-------------------|-----------------------------0---|-----------------------------7---|
A|-----------------------------0---|---------------------------------|-------------0-------------------|
E|---------------------------------|-------------3-------------------|---------------------------------|


E|-9--------10--------11--|-------------12---0---10--9---10-|----9---0---7---5---7---5---0---0---0---|
B|----------7---------10--|-------------10------------------|--------0---0---------------------------|
G|-----9----7---------11--|---------9-----------------------|----------------------------6---6-------|
D|----------0---------10--|------------------11-------------|------------------------------------7---|
A|------------------------|-------------0-------------------|----------------0-----------------------|
E|------------------------|--------------------------0------|----------------------------------------|


E|-----0---5---4---5---4---0---0-------|-----0----2---4---2---0-----------|-----0---0---12---0---10--9---10-|
B|---------------------------------0---|--------------------------2-------|-2-----------10------------------|
G|-6---6-----------------------7-------|-7---7------------------------2---|---------9-----------------------|
D|-------------------------6-----------|-----6------------------------2---|------------------11-------------|
A|-------------------------------------|----------0-----------------------|-------------0-------------------|
E|-------------0-------------------4---|----------------------------------|-----0--------------------0------|


E|----9---0---7---5---7---5---0---0---0---|-----0---5---4---5---4---0---0-------|-----0---0---5---5---------------|
B|--------0---0---------------------------|---------------------------------0---|-----------------5-------5---5---|
G|----------------------------6---6-------|-6---6-----------------------7-------|-7-------6-----------6---6-------|
D|------------------------------------7---|-------------------------6-----------|-----6-----------------------7---|
A|----------------0-----------------------|-------------------------------------|-------------0-------------------|
E|----------------------------------------|-------------0-------------------4---|---------------------------------|


E|---------0-------12--12---9---|-----0---0-------5---5----0---|-----0---0-------2---2----0---|
B|-----------------10--10---10--|-----0---0-------4---4----5---|-----0---0-------3---3----2---|
G|-6---------------9---9----9---|---------------------5----6---|--------------------------2---|
D|---------------------11---11--|-------------4------------7---|-------------0------------2---|
A|-------------0----------------|------------------------------|--------------------------0---|
E|-----0------------------------|------------------------------|------------------------------|


E|-----0---0---0---0---0---0-------|-0---0---0-------12--12---9---|-----0---0---5---0---5---0---0---|
B|-----0---0---0---3---3---0---2---|-2---2---0-------10--10---10--|-----0---0---4---0---4---0---5---|
G|---------1---1-------1---0---2---|-2---2-----------9---9----9---|-------------5---0---5---0---6---|
D|---------2---2-------2-----------|-----2---------------11---11--|-------------4-------4-------7---|
A|-----------------------------0---|-------------0----------------|---------------------------------|
E|-------------0-------------------|------------------------------|---------------------------------|


E|-----------------0---2---0---0-----------|-------------------------0---5---|-----5----5------|
B|-----0---2---3---------------3---2---0---|-0-------0---0---0---2---2-------|-----2----2------|
G|-----------------------------------------|-2---1---1---2-------------------|-----2----2------|
D|-----------------------------------------|---------------------------------|-----2----2------|
A|-----------------------------------------|---------------------------------|-----0----0------|
E|-----------------0-----------------------|---------------------------------|-----------------|





Track 2: Untitled

G|--------|--------|--------|--------|--------|--------|--------|--------|--------|
D|--------|--------|--------|--------|--------|--------|--------|--------|--------|
A|--------|--------|--------|--------|--------|--------|--------|--------|--------|
E|--------|--------|--------|--------|--------|--------|--------|--------|--------|


G|--------|--------|--------|--------|--------|--------|--------|--------|--------|
D|--------|--------|--------|--------|--------|--------|--------|--------|--------|
A|--------|--------|--------|--------|--------|--------|--------|--------|--------|
E|--------|--------|--------|--------|--------|--------|--------|--------|--------|


G|--------|--------|--------|--------|--------|--------|--------|--------|--------|
D|--------|--------|--------|--------|--------|--------|--------|--------|--------|
A|--------|--------|--------|--------|--------|--------|--------|--------|--------|
E|--------|--------|--------|--------|--------|--------|--------|--------|--------|


G|--------|--------|--------|--------|--------|--------|--------|--------|--------|
D|--------|--------|--------|--------|--------|--------|--------|--------|--------|
A|--------|--------|--------|--------|--------|--------|--------|--------|--------|
E|--------|--------|--------|--------|--------|--------|--------|--------|--------|


G|--------|--------|--------|--------|--------|--------|--------|--------|--------|
D|--------|--------|--------|--------|--------|--------|--------|--------|--------|
A|--------|--------|--------|--------|--------|--------|--------|--------|--------|
E|--------|--------|--------|--------|--------|--------|--------|--------|--------|


G|--------|--------|--------|--------|--------|--------|--------|--------|--------|
D|--------|--------|--------|--------|--------|--------|--------|--------|--------|
A|--------|--------|--------|--------|--------|--------|--------|--------|--------|
E|--------|--------|--------|--------|--------|--------|--------|--------|--------|


G|--------|--------|--------|--------|--------|--------|--------|--------|--------|
D|--------|--------|--------|--------|--------|--------|--------|--------|--------|
A|--------|--------|--------|--------|--------|--------|--------|--------|--------|
E|--------|--------|--------|--------|--------|--------|--------|--------|--------|


G|--------|--------|--------|--------|--------|--------|--------|--------|--------|
D|--------|--------|--------|--------|--------|--------|--------|--------|--------|
A|--------|--------|--------|--------|--------|--------|--------|--------|--------|
E|--------|--------|--------|--------|--------|--------|--------|--------|--------|


G|--------|--------|--------|--------|--------|--------|--------|--------|--------|
D|--------|--------|--------|--------|--------|--------|--------|--------|--------|
A|--------|--------|--------|--------|--------|--------|--------|--------|--------|
E|--------|--------|--------|--------|--------|--------|--------|--------|--------|


G|--------|--------|--------|--------|--------|--------|--------|--------|--------|
D|--------|--------|--------|--------|--------|--------|--------|--------|--------|
A|--------|--------|--------|--------|--------|--------|--------|--------|--------|
E|--------|--------|--------|--------|--------|--------|--------|--------|--------|


G|--------|--------|--------|--------|--------|--------|--------|--------|--------|
D|--------|--------|--------|--------|--------|--------|--------|--------|--------|
A|--------|--------|--------|--------|--------|--------|--------|--------|--------|
E|--------|--------|--------|--------|--------|--------|--------|--------|--------|


G|--------|--------|--------|--------|--------|--------|--------|--------|--------|
D|--------|--------|--------|--------|--------|--------|--------|--------|--------|
A|--------|--------|--------|--------|--------|--------|--------|--------|--------|
E|--------|--------|--------|--------|--------|--------|--------|--------|--------|


G|--------|--------|--------|--------|--------|--------|--------|--------|--------|
D|--------|--------|--------|--------|--------|--------|--------|--------|--------|
A|--------|--------|--------|--------|--------|--------|--------|--------|--------|
E|--------|--------|--------|--------|--------|--------|--------|--------|--------|


G|--------|
D|--------|
A|--------|
E|--------|