Menu:

 

Search:

 

jimi hendrix - mannish boy:

 



Title: Mannish Boy
Artist: 
Album: Blues
Author: McKinley Morganfield, M.R. London and Elias McDaniel


Track 1: Jimi Hendrix (Rhythm)

E|-------2------2-----2------------------------|----------------------|-0-----------|
B|----2------5-----5------------------2--------|----------------------|-2-----------|
G|-4---------------------4---4--2--4-----2-----|----------------------|-3-----3-----|
D|------------------------------------------4--|-4--2-----------------|-4-----4-----|
A|---------------------------------------------|----------------------|-0-----0-----|
E|---------------------------------------------|----------------------|-2-----2-----|


E|--------|------------------------------------|--------|--------------------|--------|
B|--------|-5---5--2--5------------------------|--------|--------------------|--------|
G|-3------|---------------4--4--4--2-----------|--------|-4---4----2---------|--------|
D|-4------|---------------------------4---2----|-4------|--------------2-----|-2------|
A|--------|------------------------------------|--------|--------------------|--------|
E|-2------|------------------------------------|--------|--------------------|--------|


E|-------------------------------|--------------------------------------|-------------------------------------|
B|---------------5---------------|---------0--------9---7------0--0-----|-----------------9---7------9--9--9--|
G|------4----4-------4---4---2---|---------0-----0--9---7------0--0-----|-----------------9---7------9--9--9--|
D|-2-----------------------------|-2-------0-----0----------9--0--0-----|-----9-------------------9--9--9--9--|
A|-------------------------------|--------------------------9--------0--|-------------------------------------|
E|-------------------------------|------------7-------------7-----------|-10------7---7-----------------------|


E|-----------------------------------------|-------------------------------------|
B|------------9--9--9--9---7------9--9--9--|-----------------9---7------9--9--9--|
G|------------9--9--9--9---7------9--9--9--|-----------------9---7------9--9--9--|
D|-----9------9--9--9----------9--9--9--9--|-----9-------------------9--9--9--9--|
A|-----------------------------------------|-------------------------------------|
E|-10------7-------------------------------|-10------7---7-----------------------|


E|-------------------------------------|-------------------------------|-------------------------------------------|
B|-------------------------------------|-------------------------------|-------------------------------------------|
G|-----------------------7-------------|-------------------------------|-------------------------------------------|
D|-----7---9---9--9--7-------7---9--9--|-9---9--9--7----9---9--9--7----|-9---9--9--7---7--7--9---9--9--------------|
A|---------9---9--9--9-----------------|-------------------------------|-------------------------------8--7-----0--|
E|-10------7---7--7--7-----------------|-------------------------------|-------------------------------------10----|


E|-----------------------------------------|---------------------------------------|
B|-----------------------------------------|-7-------------------------------------|
G|-----------------------------------------|-9---9--7--------------------8---------|
D|---------------------7-------------------|-----------9---9--7--9---9---9---------|
A|-----9--8--7-------------9--8--7---------|-----------------------------9---------|
E|-7------------10-7----------------10-7---|-----------------------------7---5--7--|


E|-----------------------------------|-----------------------------------|---------------------------------------|
B|-------------------9---7-----------|-----------------9---7-------------|-------------------9---7---------------|
G|-------------------9---7-----------|-----------------9---7-------------|-------------------9---7---------------|
D|-9------0--9---9-----------9-------|-9-------9---------------9--7------|-9------0--9---------------9--7--7--9--|
A|-9---0-----9---9---------------0---|-9---0---9-------------------------|-----0---------------------0-----0-----|
E|-7---------10--7-------------------|-7-------7---7-----------------7---|---------------7-----------------------|


E|-----------------------------------|-------------------9-----------------|-----------------------------------|
B|-----------------9---7-------------|-------------------9---7-------------|-----------------9---7-------------|
G|-----------------9---7-------------|-------------------9---7-------------|-----------------9---7-------------|
D|-9-------9-------------------------|-9---7--9--9---------------7--9--9---|-9-------9---------------9--9--7---|
A|-----------------------------------|-------------------------------------|-----------------------------------|
E|-----7-------7-----------5--5--7---|---------------7---------------------|-----10------7---------------------|


E|-----------------------------------|--------------------------------|-------------|
B|-------------------9---7-----------|-------------------9---7---10---|--------10---|
G|-----9--9--7-------9---7-----------|-------------------9---7---11---|--------11---|
D|-9-------------9-----------9-------|-9---------9--------------------|-------------|
A|-----------------------------------|--------------------------------|-------------|
E|-------------------------------7---|-----7--7------7----------------|-------------|


E|-------------|-------------|-------------|-------------|-------------|-------------|
B|--------10---|--------10---|--------10---|--------10---|--------10---|--------10---|
G|--------11---|--------11---|--------11---|--------11---|--------11---|--------11---|
D|-------------|-------------|-------------|-------------|-------------|-------------|
A|-------------|-------------|-------------|-------------|-------------|-------------|
E|-------------|-------------|-------------|-------------|-------------|-------------|


E|-------------------10--|-10---7--10--7----------------|---------------------------------10--|
B|-------10--------------|-------------7---10--10--10---|-10--10--10-10-------9---------------|
G|-------11--------------|------------------------------|---------------10-10-9---7---7-------|
D|-----------------------|------------------------------|-------------------------------------|
A|-----------------------|------------------------------|-------------------------------------|
E|-----------10--7-------|------------------------------|-------------------------------------|


E|-10---7--10--7-------------------|-------------------------------------------|-----------------------------------------|
B|-----------------10--10--10---10-|-10-10-10-10-10--10-10-7-------------------|---------------------9---7---------------|
G|---------------------------------|-----------------------------------8-------|---------------------9---7---------------|
D|---------------------------------|--------------------------9--------9-------|----------------------------9--7--9------|
A|---------------------------------|-----------------------------7--7--9-------|-----------------------------------------|
E|---------------------------------|-----------------------------------7---7---|-5--5--7--7--7---7-------------------7---|


E|-----------------------------------------|-----------------------------------------|
B|-9--9------9-------9---7--------9--9--9--|-----------------------9---7-------------|
G|-9--9------9-------9---7--------9--9--9--|-----------------------9---7-------------|
D|-9--9------9--------------9--7--9--9--9--|----7--7--7--9--7--------------9--9--7---|
A|-----------------------------------------|-----------------------------------------|
E|-------7-------7-------------------------|-------------------7---------------------|


E|-----------------------7-----------|-----------------------------------------|-----------------------------------|
B|-----------------9--9--7-----------|---------------------9---7---------------|-------------------9---7-----------|
G|-----------------9--9--7-----------|-9-------------------9---7---------------|-------------------9---7-----------|
D|-9-------9-----------------7-------|-9--------------------------9--7--9------|-9---9--7------7-----------7-------|
A|-----------------------------------|-----------------------------------------|-----------------------------------|
E|-----7-------7-----------------7---|-----5--5--7--7--7-------------------7---|-----------10------------------7---|


E|---------------------------------------|-------------------------------------|-------------------9---7-----------|
B|-----------9--9------9---7-------------|-------------------9---7-------------|-------------------9---7-----------|
G|-----------9--9------9---7-------------|-------------------9---7-------------|-------------------9---7-----------|
D|-9---9--9--9--9--------------7--9------|-9---9--7------9-----------9--7------|-9-------9--9--------------7-------|
A|-9---9--9------------------------------|-9---9---------------------9---------|---------------------------7-------|
E|-7---7--7--------7-----------------7---|-7---7-----10--------------7-----7---|-----7---------7-----------5---7---|


E|---------------------------------------|-------------------------------------|---------------------------10---|
B|-------------------9---7---------------|-----------------9---7---------------|-------------------9---7---10---|
G|-------------------9---7---------------|-----------------9---7---------------|-------------------9---7---11---|
D|-9------7--9---------------9--7--------|-9---9---7--------------9------------|-9---7--9--9--------------------|
A|---------------------------------------|-9---9---7---------------------------|--------------------------------|
E|-----5---------7-----------------7--7--|-7---7---5---7-------------5--7--7---|---------------7----------------|


E|--------10---|-10---10-10---10---10-10---|--------10---|---------------10---|------10----10-12-10---|
B|--------10---|-10---10-10---10---10-10---|--------10---|-------9---7---10---|------10----10-12-10---|
G|--------11---|-11---11-11---11---11-11---|--------11---|-------9---7---11---|------11----11-13-11---|
D|-------------|---------------------------|-------------|--------------------|-----------------------|
A|-------------|---------------------------|-------------|--------------------|-----------------------|
E|-------------|---------------------------|-------------|--------------------|-----------------------|


E|------10----10-12-10---|--------10---|------10----10------10--|-10---7--10--7---------------------|
B|------10----10-12-10---|--------10---|------10----10----------|-----------------10--10--10-10--10-|
G|------11----11-13-11---|--------11---|------11----11----------|-----------------------------------|
D|-----------------------|-------------|------------------------|-----------------------------------|
A|-----------------------|-------------|------------------------|-----------------------------------|
E|-----------------------|-------------|------------------------|-----------------------------------|


E|-------------------------------10--|-10--10-7--10--7-------------------|-------------------------10---|
B|-10--10--10------------------------|-------------------10--10--10--10--|-10--10--10--10--10------10---|
G|-------------10-10-9---7---7-------|-----------------------------------|-------------------------11---|
D|-----------------------------------|-----------------------------------|------------------------------|
A|-----------------------------------|-----------------------------------|------------------------------|
E|-----------------------------------|-----------------------------------|------------------------------|


E|------10--9-----------------------|-----10-10-10--9---7-------10-10-10-10-|-10-10-10--------------------10-10-10-10-|
B|------10--9---7-------------------|-----10-10-10--9---7-------10-10-10-10-|-10-10-10--9---9--9----------10-10-10-10-|
G|------11--9---7--8----------------|-11--11-11-11--9---7-------11-11-11-11-|-11-11-11--9---9--9--8-------11-11-11-11-|
D|-----------------------9--9---9---|---------------------------------------|-----------------------------------------|
A|--------------------0-----9---9---|---------------------------------------|-----------------------------------------|
E|--------------------------7---7---|-----------------------7---------------|-------------------------7---------------|


E|-----9--9--9-------------------------|-------------------------------------------|
B|-----9--9--9---7---------------------|-------------------------------------------|
G|-11--9--9--9---7-----------------7---|-------------------------------------------|
D|-------------------9---9--9--9-------|-9--9--9--9--7--7--7---9--9--9--9------7---|
A|-----------------------------9-------|-------------------------------------------|
E|-----------------------------7-------|-----------------------------------7-------|


E|-----------------------------------------|---------------------------------------|
B|-----------------------------------------|---------------------------------------|
G|-----------------------------------------|---------------------------------------|
D|-9----7--9---7--7--------------------9---|-9----7--9--9--7-------------------9---|
A|-------------------8--9-----------0------|-------------------8--7----------------|
E|-------------------------10-7--7---------|-------------------------10-7--7-------|


E|-------------------------------------|-------------------------------------|---------------------------------------|
B|-------------------------------------|-------------------------------------|---------------------------------------|
G|------7------------------------7--7--|-7---------7---------------------7---|-7-------7-----------------------------|
D|-9-------9---7-----------------------|--------9------9---7-----------------|------9------9--9------------------9---|
A|-----------------8--7----------------|-----------------------8--7----------|-------------------9--7----------------|
E|-----------------------10--7---------|-----10----------------------7-------|-------------------------10-7--7-------|


E|-----------------------------------------|-------------------------------------|
B|----------------------------------10-10--|-10--10-10-10--10--10--10--10-10-10--|
G|-----------------------------------------|-------------------------------------|
D|-9---9--7--9---7--7----------------------|-------------------------------------|
A|---------------------7-------------------|-------------------------------------|
E|------------------------10-7---7---------|-------------------------------------|


E|-------------------------10------------|----------------------------------------------|
B|-10--10--10-10-10--10-10-----10--10-10-|-10--10--7------------------------------------|
G|---------------------------------------|-------------9---9--7--9--9--7----------------|
D|---------------------------------------|--------------------------------9--7--9---9---|
A|---------------------------------------|--------------------------------------9---9---|
E|---------------------------------------|--------------------------------------7---7---|


E|---------------------------------------|-------------------9--9----------------|
B|-7--7----------------9---7-------------|-------------------9--9--7-------------|
G|-7--7----------------9---7-------------|-------------------9--9--7-------------|
D|-9---------------------------9---------|-9---9--7------9-------------9--7--9---|
A|-9-------------------------------------|-----9-----------------------------9---|
E|-7-----7---10-10-10-------------7--7---|-----7-----10----------------------7---|


E|-------------------9--9------7---7--7--|-7--7--7--7--7--7--7---7---------------|
B|-------------------9--9--7---7---7--7--|-7--7--7--7--7--7--7---7---------------|
G|--------7----------9--9--7---8---8--8--|-8--8--8--8--8--8--8---8---------------|
D|-9---9--7------9-------------9---9--9--|-9--9--9--9--9--9--9---9---9---6---6---|
A|-9---------------------------9---9--9--|-9--9--9--9--9--9--9---9---------------|
E|-7---------10----------------7---7--7--|-7--7--7--7--7--7--7---7---------------|


E|-------------------------------------|-------------------------------0--0--0---|
B|-----------------------------4-------|-3---3---3--3--3--3--3--3------3--3--3---|
G|-----------------------------4---2---|-2---2---2--2--2--2--2--2------1--1--1---|
D|-9--9--6-------4---7--7--4---4---2---|-------------------------------2--2--2---|
A|-----------5-----------------2---2---|---------------------------2---2--2--2---|
E|-------------------------------------|-------------------------------0--0--0---|


E|-0--0--0---5--5--5---5--5--5---2---2---|-2------12--12--|-12--12--12--12--12----------------|
B|-3--3--3---5--5--5---5--5--5---2---2---|-2------12--12--|-12--12--10--10--10----------------|
G|-1--1--1---5--5--5---5--5--5---2---2---|-3------13--13--|-13--13--11--11--11------------16--|
D|-2--2--2---4--4--4---4--4--4---1---1---|-4------14--14--|-14--14--12--12--12--------16--16--|
A|-2--2--2---5--5--5---5--5--5---2---2---|-2--------------|---------------------10-11-14--14--|
E|-0--0--0-------------------------------|-2--------------|-----------------------------------|


E|---------------------------------------|-14--14--12--12--12------------------|-----------------------------------------|
B|-16--16--14-16-16-16-----------12--12--|-12--12--10--10--10------------------|-----------------------------------------|
G|-16--16--14-16-16-16-------16--13--13--|-13--13--11--11--11--0---14-16-16-16-|-16--16-16-16-16-16-16-16--------8-------|
D|-16--16--14-16-16-16-14-16-16----------|-14--14--12--12--12------14-16-16-16-|-16--16-16-16-16-16-16-16--------9-------|
A|-14--14--12-14-14-14-12-14-14----------|-------------------------12-14-14-14-|-14--14-14-14-14-14-14-14--------9-------|
E|---------------------------------------|-------------------------------------|---------------------------5--7--7-------|


E|------------------------|---------------------------------------------|--------------------|
B|------------------------|---------------------------------------------|------------10--10--|
G|------------7--9--------|---------------------------------------------|------------9---9---|
D|------------------7--9--|-------------------------7--9--9--7----------|------------9---9---|
A|------------------------|-7--9--5--7--------7--9----------------------|------------9---9---|
E|------------------------|-------------5--7--------------------7-------|------------7---7---|


E|------------10---------|--------------------------------------|-------------------------------------|
B|-10---------10---------|--------------------------------------|-----------------9---7---------------|
G|-9---------------------|-9---------------9---7----------------|-----------------9---7---------------|
D|-9-------------------9-|---------9---------------9--7--9------|-9-------9---------------7--9-----9--|
A|-9-----------------9---|----------------------------0---------|-------------------------7-----------|
E|-7--------------7------|-----7-------7--------------------7---|-----7-------7-----------7-----10----|


E|-------------------9-----------------|-------------------------------------|-----------------------------------|
B|-------------------9---7-------------|-----10-10-10--------9---7-----------|-----------------9---7-------------|
G|-------------------9---7-------------|-----11-11-11-9------9---7-----------|-----------------9---7-------------|
D|-9-------9--7--------------9--7------|-9---------------------------9-------|-9---7---9---------------7--9------|
A|-------------------------------------|-9-----------------------------------|-----------------------------------|
E|-----10--------7-----------------7---|-7---------------7---------------7---|-------------7-----------------7---|


E|------------10----------------------------|-------------------------------------|
B|---------10-10-------9--------------------|-----------------9---7---------------|
G|---------11----9--7--9---7----------------|-----------------9---7---------------|
D|-9---9-----------------------9--7--9------|-9-------9---------------9--7--9--7--|
A|-----9------------------------------------|-------------------------------------|
E|-----7--------------------------------7---|-----7-------7-----------------------|


E|---------------------------------|-----------------------------------|-----------------------------------|
B|-----------------9---7-----------|-----------------9---7-------------|-----------------9---7-------------|
G|-----------------9---7-----------|-----------------9---7-------------|-----------------9---7-------------|
D|-9-------9---------------9-------|-9-------9---------------9--7--9---|-9-------9---------------7--9------|
A|---------------------------------|-------------------------------9---|-----------------------------------|
E|-----7-------7---------------7---|-----7-------7-----------------7---|-----7-------7-----------------7---|


E|-----------------------------------|-------------------------------------|-------------------------------------|
B|-----------------9---7-------------|-------------------9---7-------------|-------------------9---7-------------|
G|-----------------9---7-------------|-------------------9---7-------------|-------------------9---7-------------|
D|-9---7---9---------------9--7------|-9------7--9---------------9--7--9---|-7---9---9--7--9-----------9--7--9---|
A|-----------------------------------|---------------------------------9---|-----9---------9-----------------9---|
E|-------------7-----------------7---|-----7---------7-----------------7---|-----7---------7-----------------7---|


E|-----------------------------------|-----------------------------10-10-10-10-|-10-10-10--10-10-10------------------|
B|-----------------9---7-------------|---------------------9---7---10-10-10-10-|-10-10-10--10-10-10------------------|
G|-----------------9---7-------------|---------------------9---7---9--9--9--9--|-9--9--9---9--9--9-----------9-------|
D|-9-------9---------------9--7------|-7--9--9--7--9---7-----------9--9--9--9--|-9--9--9---9--9--9---9---9---9---9---|
A|-----------------------------------|-----------------7-----------9--9--9--9--|-9--9--9---9--9--9---9---9---7---7---|
E|-----7-------7-----------------7---|-----------------7-----------7--7--7--7--|-7--7--7---7--7--7---7---7-----------|


E|-----------------------------------|--------------------------------|--------|--------|
B|-----------------------------------|--------------------------------|--------|--------|
G|-----------------7-----------------|--------------------------------|--------|--------|
D|-9---9-------7---7-----------------|-----9---9-----------7--7-------|--------|--------|
A|-7---7---5---5---5-------7---------|-9---9---9-------9---7--7-------|--------|--------|
E|---------------------5---5---5--7--|-7---7---7---7---7---7--7-------|--------|--------|


E|--------|--------|--------|--------|--------|--------|--------|--------|--------|
B|--------|--------|--------|--------|--------|--------|--------|--------|--------|
G|--------|--------|--------|--------|--------|--------|--------|--------|--------|
D|--------|--------|--------|--------|--------|--------|--------|--------|--------|
A|--------|--------|--------|--------|--------|--------|--------|--------|--------|
E|--------|--------|--------|--------|--------|--------|--------|--------|--------|


E|--------|--------|--------|--------|--------|--------|--------|--------|--------|
B|--------|--------|--------|--------|--------|--------|--------|--------|--------|
G|--------|--------|--------|--------|--------|--------|--------|--------|--------|
D|--------|--------|--------|--------|--------|--------|--------|--------|--------|
A|--------|--------|--------|--------|--------|--------|--------|--------|--------|
E|--------|--------|--------|--------|--------|--------|--------|--------|--------|


E|--------|--------|--------|--------|--------|--------|--------|--------|--------|
B|--------|--------|--------|--------|--------|--------|--------|--------|--------|
G|--------|--------|--------|--------|--------|--------|--------|--------|--------|
D|--------|--------|--------|--------|--------|--------|--------|--------|--------|
A|--------|--------|--------|--------|--------|--------|--------|--------|--------|
E|--------|--------|--------|--------|--------|--------|--------|--------|--------|


E|--------|--------|--------|--------|
B|--------|--------|--------|--------|
G|--------|--------|--------|--------|
D|--------|--------|--------|--------|
A|--------|--------|--------|--------|
E|--------|--------|--------|--------|





Track 2: Jimi Hendrix (Solo)

E|--------|--------|--------|--------|--------|--------|--------|--------|--------|
B|--------|--------|--------|--------|--------|--------|--------|--------|--------|
G|--------|--------|--------|--------|--------|--------|--------|--------|--------|
D|--------|--------|--------|--------|--------|--------|--------|--------|--------|
A|--------|--------|--------|--------|--------|--------|--------|--------|--------|
E|--------|--------|--------|--------|--------|--------|--------|--------|--------|


E|--------|--------|--------|--------|--------|--------|--------|--------|--------|
B|--------|--------|--------|--------|--------|--------|--------|--------|--------|
G|--------|--------|--------|--------|--------|--------|--------|--------|--------|
D|--------|--------|--------|--------|--------|--------|--------|--------|--------|
A|--------|--------|--------|--------|--------|--------|--------|--------|--------|
E|--------|--------|--------|--------|--------|--------|--------|--------|--------|


E|--------|--------|--------|--------|--------|--------|--------|--------|--------|
B|--------|--------|--------|--------|--------|--------|--------|--------|--------|
G|--------|--------|--------|--------|--------|--------|--------|--------|--------|
D|--------|--------|--------|--------|--------|--------|--------|--------|--------|
A|--------|--------|--------|--------|--------|--------|--------|--------|--------|
E|--------|--------|--------|--------|--------|--------|--------|--------|--------|


E|--------|--------|--------|--------|--------|--------|--------|--------|--------|
B|--------|--------|--------|--------|--------|--------|--------|--------|--------|
G|--------|--------|--------|--------|--------|--------|--------|--------|--------|
D|--------|--------|--------|--------|--------|--------|--------|--------|--------|
A|--------|--------|--------|--------|--------|--------|--------|--------|--------|
E|--------|--------|--------|--------|--------|--------|--------|--------|--------|


E|--------|--------|--------|--------|--------|--------|--------|--------|--------|
B|--------|--------|--------|--------|--------|--------|--------|--------|--------|
G|--------|--------|--------|--------|--------|--------|--------|--------|--------|
D|--------|--------|--------|--------|--------|--------|--------|--------|--------|
A|--------|--------|--------|--------|--------|--------|--------|--------|--------|
E|--------|--------|--------|--------|--------|--------|--------|--------|--------|


E|--------|--------|--------|--------|--------|--------|--------|--------|--------|
B|--------|--------|--------|--------|--------|--------|--------|--------|--------|
G|--------|--------|--------|--------|--------|--------|--------|--------|--------|
D|--------|--------|--------|--------|--------|--------|--------|--------|--------|
A|--------|--------|--------|--------|--------|--------|--------|--------|--------|
E|--------|--------|--------|--------|--------|--------|--------|--------|--------|


E|--------|--------|--------|--------|--------|--------|--------|--------|--------|
B|--------|--------|--------|--------|--------|--------|--------|--------|--------|
G|--------|--------|--------|--------|--------|--------|--------|--------|--------|
D|--------|--------|--------|--------|--------|--------|--------|--------|--------|
A|--------|--------|--------|--------|--------|--------|--------|--------|--------|
E|--------|--------|--------|--------|--------|--------|--------|--------|--------|


E|--------|--------|--------|--------|--------|--------|--------|--------|--------|
B|--------|--------|--------|--------|--------|--------|--------|--------|--------|
G|--------|--------|--------|--------|--------|--------|--------|--------|--------|
D|--------|--------|--------|--------|--------|--------|--------|--------|--------|
A|--------|--------|--------|--------|--------|--------|--------|--------|--------|
E|--------|--------|--------|--------|--------|--------|--------|--------|--------|


E|--------|--------|--------|--------|--------|--------|--------|--------|--------|
B|--------|--------|--------|--------|--------|--------|--------|--------|--------|
G|--------|--------|--------|--------|--------|--------|--------|--------|--------|
D|--------|--------|--------|--------|--------|--------|--------|--------|--------|
A|--------|--------|--------|--------|--------|--------|--------|--------|--------|
E|--------|--------|--------|--------|--------|--------|--------|--------|--------|


E|--------|--------|--------|--------|--------|--------|--------|--------|--------|
B|--------|--------|--------|--------|--------|--------|--------|--------|--------|
G|--------|--------|--------|--------|--------|--------|--------|--------|--------|
D|--------|--------|--------|--------|--------|--------|--------|--------|--------|
A|--------|--------|--------|--------|--------|--------|--------|--------|--------|
E|--------|--------|--------|--------|--------|--------|--------|--------|--------|


E|--------|--------|--------|--------|--------|--------|--------|-------------|---------------------------|
B|--------|--------|--------|--------|--------|--------|--------|-------------|---------------------------|
G|--------|--------|--------|--------|--------|--------|--------|-------------|----------------------7----|
D|--------|--------|--------|--------|--------|--------|--------|-------------|----------9---9---9--------|
A|--------|--------|--------|--------|--------|--------|--------|-------------|---------------------------|
E|--------|--------|--------|--------|--------|--------|--------|-------------|---------------------------|


E|---------------------7---7----|-7---7-------------7--------------7--|--------------------------------------------|
B|------10-10---7--10-----------|-------------10-10----7--10--10------|----10-10-10-10--7--10-7--------------------|
G|-7----------------------------|-------------------------------------|--------------------------9--9--7---9---7---|
D|------------------------------|-------------------------------------|--------------------------------------------|
A|------------------------------|-------------------------------------|--------------------------------------------|
E|------------------------------|-------------------------------------|--------------------------------------------|


E|---------------------7--7---------|-------------------------------------------|---------7------7--7--------------------|
B|---------------------------10-----|---------------------10-7--10-7--10-7------|-10--10-----10--------10--7--10---10-10-|
G|-7----7-------7---8------------9--|-9--7---9--9------7------------------------|----------------------------------------|
D|----------9-----------------------|--------------9------------------------9---|----------------------------------------|
A|----------------------------------|-------------------------------------------|----------------------------------------|
E|----------------------------------|-------------------------------------------|----------------------------------------|


E|-7--------------------------------------|-----------------------------------|-------------------------------|
B|-----10--7---7--------------------------|-----------------9---7-------------|-------------------------------|
G|----------------9---9-7-----------------|------7----------9---7-------------|-------------------------------|
D|------------------------9----7--9---7---|-9-------9---------------9--7--9---|-----9--9--9--9----------------|
A|----------------------------------------|-----------------------------------|-------------------------------|
E|----------------------------------------|-------------7---------------------|-------------------------------|


E|-------------|----------------|-------------------------------------|-----------------------------------|
B|-------------|----------------|-------------------------------------|-----------------------------------|
G|-------------|--------9---9---|-9---9---7---7-----------------------|---------------------------9---9---|
D|-------------|--------9---9---|-9---9---7---7-----------------------|------------------------0--9---9---|
A|-------------|--------7---7---|-7---7---5---5---5--0--5--0--7---9---|-9---9---9---9---9---9-----7---7---|
E|-------------|----------------|-----------------------------5---7---|-7---7---7---7---7---7-------------|


E|-------------------------------------|---------------------------------|---------------------------------|
B|-------------------------------------|---------------------------------|---------------------------------|
G|-9---9--9--7---7---7---7--7----------|-------------------------9---9---|-9---9---7---7---7---7-----------|
D|-9---9--9--7---7---7---7--7----------|---------------------0---9---9---|-9---9---7---7---7---7-----------|
A|-7---7--7--5---5---5---5--5--7---9---|-9---9---9---9---9-------7---7---|-7---7---5---5---5---5---7---9---|
E|-----------------------------5---7---|-7---7---7---7---7---------------|-------------------------5---7---|


E|---------------------------------|---------------------------------------------|
B|---------------------------------|---------------------------------------------|
G|---------------------------------|---------7--9--------------------------------|
D|---------------------------------|-7---9---------7--9--------7--9--------------|
A|-9---9---9---9---9---9---7---9---|-5---7---------------7--9--------7--9--5--7--|
E|-7---7---7---7---7---7---5---7---|---------------------------------------------|


E|-------------------------------------10-10-----|-------------------------------------|
B|-------------------------------------10-10-----|-------------------9---7-------------|
G|-------------------------7--------0--9--9------|-------------------9---7-------------|
D|-------------7-----7--9--7--9--7-----9--9------|-9---7--9--9---9-----------9--7------|
A|-------5--7--7--9------------------------------|-----------9---9---------------------|
E|-5--7--------------------------------------7---|-----------7---7-----------------7---|


E|------------------------------------10-|-10--9------------------------------10-10-|
B|-------------------9--9--7----------10-|-10--9---7-------------7------------10-10-|
G|-------------------9--9--7-------11-11-|-11--9---7-------------7------------11-11-|
D|-9---7--9--9-----------------9---------|------------9--9---9-------9--7--9--------|
A|-----------------------------9---------|---------------9---7----------7-----------|
E|---------------7-------------7---------|---------------7--------------7-----------|


E|-10--9-------------------------------|-----------------------------------------|
B|-10--9-------------------------------|---------------------9---7---------------|
G|-11--9---9-------9---7---------------|---------------------9---7---------------|
D|-----------------9------9--7---------|-9---7--9--9---9--9---------9--7--9------|
A|---------------------------7---------|-----------9---9--9------------7---------|
E|-------------7-------------5--7--7---|-----------7---7--7------------5--7--7---|


E|----------------------------------------|-----------------------------------------|
B|-------------------9---7----------------|---------------------9---7---------------|
G|-------------------9---7----------------|---------------------9---7---------------|
D|-9------9--9---9---9-------9--7--9--9---|-9---7--9--9---9-------------7--9--------|
A|--------9--9---9--------------7-----9---|-----7--9--9---9-------------7-----------|
E|-----10-7--7---7--------------5--7--7---|-----7--7--7---7--7----------7-----7--5--|


E|----------------------------------------|-----------------------------------------|
B|-------------------9---7----------------|-------------------9---------------------|
G|-------------------9---7----------------|-------------------9---7--7--------------|
D|-----------0---0-----------9--7--9--9---|-9---7--9--9-----------------7--9--9-----|
A|--------0--0---0--------------7-----9---|-9---7--9--9-----------------7-----9--0--|
E|-7---7-----7---7--------------5--7--7---|-7---5--7--7---7-------------7-----7-----|


E|--------------------------------------------|------------------------------------------|
B|-----------------------9---7----------------|-------------------9---7------------------|
G|-----------------------9---7----------------|--------7----------9---7------------------|
D|-9--9--------9--9--9-----------9--7--9--7---|-9---9--7--9--------------9--7--9--7--9---|
A|-------------9--9--9--------------7-----7---|-9---9-----------------------7--------0---|
E|-------5--7--7--7--7--------------5--7--5---|-7-------------7-------------7------------|


E|---------------------------------10--|-10------------------------------------|--------------------------------------------|
B|-------------------9---7---------10--|-10------9---9-----7-------------------|--------------------------------------------|
G|-------------------9---7---------11--|-11--11--9---9--7--7-------------------|----------------------------------------11--|
D|-9---9------9--9----------9--9-------|-----------------------9---9--7--------|-9---7--9--7--9--7-----9--9---9--9--9-------|
A|-9---9---------9-------------9-------|---------------------------------------|-----7--------9-----------9---9--9--9-------|
E|-7---7---7-----7-------------7-------|---------------------------------7--7--|-----7--------7-----7-----7---7--7--7-------|


E|-----------9-----------------------------|-10----------------------------------------|
B|-10--10----9-----------------------------|-10----------------------------------------|
G|-11--11-11-9---9--7----------------------|-9-----------------------------------------|
D|---------------------7--7--9--7--9-------|-9---9--9------9--7------------------9--7--|
A|---------------------------------9-------|---------------9-----9--7------------------|
E|---------------------------------7---7---|-----------7---7-----------10-7--7---------|


E|-----------------------------------------|-------------------------------------------|
B|-----------------------------------------|-------------------------------------------|
G|----------------7------------------7-----|-------------------------------------------|
D|-9--7------7--------------------------9--|-9--7------7-------------------------9--7--|
A|-------9-----------9--8--7---------------|-------9--------9--8--8--7-----------------|
E|----------------------------9--7---------|----------------------------10-7--10-------|


E|-----------------------------------------|---------------------------------------------|
B|-----------------------------------------|---------------------------------7-----------|
G|-----------------------------------------|------------------------7--9--7-----9--------|
D|-9--7------7----7-----------------7--9---|-9--7------7---7--7-----7--------------7-----|
A|-------9-----------9--7------------------|-------9---0---0-----9--0-----------------7--|
E|-------------------------10-7--7---------|---------------------------------------------|


E|-------------------------------------10-10-|-----------------------------------7---|
B|-------------------------------------10-10-|-9-------------------------------------|
G|-------------------------------------------|-9-------------------------------------|
D|-9--7------7---7---------------------------|-9-------9--7--9---9--9--------9-------|
A|-------9----------0--8--7------------------|---------------9------------0----------|
E|---------------------------10-7--7---------|-----10--------7---------9-------------|


E|-------------------------------------------|---------------------------------------|
B|-9--9--------------------------------------|-------------9--9------9-------9---10--|
G|-9--9--------------------------------------|-------------9--9------9-------9-------|
D|-9--9------9--9--9--9--9---9--9--9---9--9--|-9--9--------9--9--9---9---9---9-------|
A|-------------------------------------9--9--|-------------------9-------9-----------|
E|-------7-----------------------------7--7--|-------7--7--------7-------7-----------|


E|--------------------------------|
B|-10---7--10--7------------------|
G|-----------------9--9--7--------|
D|--------------------------------|
A|--------------------------------|
E|--------------------------------|





Track 3: Untitled

G|--------|--------|--------|--------|--------|--------|--------|--------|--------|
D|--------|--------|--------|--------|--------|--------|--------|--------|--------|
A|--------|--------|--------|--------|--------|--------|--------|--------|--------|
E|--------|--------|--------|--------|--------|--------|--------|--------|--------|


G|--------|--------|--------|--------|--------|--------|--------|--------|--------|
D|--------|--------|--------|--------|--------|--------|--------|--------|--------|
A|--------|--------|--------|--------|--------|--------|--------|--------|--------|
E|--------|--------|--------|--------|--------|--------|--------|--------|--------|


G|--------|--------|--------|--------|--------|--------|--------|--------|--------|
D|--------|--------|--------|--------|--------|--------|--------|--------|--------|
A|--------|--------|--------|--------|--------|--------|--------|--------|--------|
E|--------|--------|--------|--------|--------|--------|--------|--------|--------|


G|--------|--------|--------|--------|--------|--------|--------|--------|--------|
D|--------|--------|--------|--------|--------|--------|--------|--------|--------|
A|--------|--------|--------|--------|--------|--------|--------|--------|--------|
E|--------|--------|--------|--------|--------|--------|--------|--------|--------|


G|--------|--------|--------|--------|--------|--------|--------|--------|--------|
D|--------|--------|--------|--------|--------|--------|--------|--------|--------|
A|--------|--------|--------|--------|--------|--------|--------|--------|--------|
E|--------|--------|--------|--------|--------|--------|--------|--------|--------|


G|--------|--------|--------|--------|--------|--------|--------|--------|--------|
D|--------|--------|--------|--------|--------|--------|--------|--------|--------|
A|--------|--------|--------|--------|--------|--------|--------|--------|--------|
E|--------|--------|--------|--------|--------|--------|--------|--------|--------|


G|--------|--------|--------|--------|--------|--------|--------|--------|--------|
D|--------|--------|--------|--------|--------|--------|--------|--------|--------|
A|--------|--------|--------|--------|--------|--------|--------|--------|--------|
E|--------|--------|--------|--------|--------|--------|--------|--------|--------|


G|--------|--------|--------|--------|--------|--------|--------|--------|--------|
D|--------|--------|--------|--------|--------|--------|--------|--------|--------|
A|--------|--------|--------|--------|--------|--------|--------|--------|--------|
E|--------|--------|--------|--------|--------|--------|--------|--------|--------|


G|--------|--------|--------|--------|--------|--------|--------|--------|--------|
D|--------|--------|--------|--------|--------|--------|--------|--------|--------|
A|--------|--------|--------|--------|--------|--------|--------|--------|--------|
E|--------|--------|--------|--------|--------|--------|--------|--------|--------|


G|--------|--------|--------|--------|--------|--------|--------|--------|--------|
D|--------|--------|--------|--------|--------|--------|--------|--------|--------|
A|--------|--------|--------|--------|--------|--------|--------|--------|--------|
E|--------|--------|--------|--------|--------|--------|--------|--------|--------|


G|--------|--------|--------|--------|--------|--------|--------|--------|--------|
D|--------|--------|--------|--------|--------|--------|--------|--------|--------|
A|--------|--------|--------|--------|--------|--------|--------|--------|--------|
E|--------|--------|--------|--------|--------|--------|--------|--------|--------|


G|--------|--------|--------|--------|--------|--------|--------|--------|--------|
D|--------|--------|--------|--------|--------|--------|--------|--------|--------|
A|--------|--------|--------|--------|--------|--------|--------|--------|--------|
E|--------|--------|--------|--------|--------|--------|--------|--------|--------|


G|--------|--------|--------|--------|--------|--------|--------|--------|--------|
D|--------|--------|--------|--------|--------|--------|--------|--------|--------|
A|--------|--------|--------|--------|--------|--------|--------|--------|--------|
E|--------|--------|--------|--------|--------|--------|--------|--------|--------|


G|--------|--------|--------|--------|--------|--------|--------|--------|--------|
D|--------|--------|--------|--------|--------|--------|--------|--------|--------|
A|--------|--------|--------|--------|--------|--------|--------|--------|--------|
E|--------|--------|--------|--------|--------|--------|--------|--------|--------|


G|--------|--------|--------|--------|--------|--------|--------|--------|--------|
D|--------|--------|--------|--------|--------|--------|--------|--------|--------|
A|--------|--------|--------|--------|--------|--------|--------|--------|--------|
E|--------|--------|--------|--------|--------|--------|--------|--------|--------|


G|--------|--------|--------|--------|--------|--------|--------|--------|
D|--------|--------|--------|--------|--------|--------|--------|--------|
A|--------|--------|--------|--------|--------|--------|--------|--------|
E|--------|--------|--------|--------|--------|--------|--------|--------|