Menu:

 

Search:

 

jimi hendrix - freedom:

 



Title: Freedom
Artist: 
Album: The Cry of Love
Author: Jimi Hendrix


Track 1: Gtr 2 - Distorted electric guitar with reverb (detuned 1/2 a step)

D#|--------|--------|--------|-14----14--14---14---12-|-12----------------12--12--|
A#|--------|--------|--------|------------------------|-----14----14---12---------|
F#|--------|--------|--------|------------------------|---------------------------|
C#|--------|--------|--------|------------------------|---------------------------|
G#|--------|--------|--------|------------------------|---------------------------|
D#|--------|--------|--------|------------------------|---------------------------|


D#|---------14--14-12------14---|-14--12--------------------|---------------------------------------------|
A#|-----------------------------|--------14--14---12--------|-12------------------------------------------|
F#|-----------------------------|---------------------------|-----12--11--9-------------------------------|
C#|-----------------------------|---------------------------|-----------------11--9-----------------------|
G#|-----------------------------|---------------------------|-------------------------11--10--9-----------|
D#|-----------------------------|---------------------------|-------------------------------------12---12-|


D#|--------------------|---------------------------|-----------------------|------------------------------|
A#|--------------------|---------------------------|-----------------------|------------------------------|
F#|--------------------|---------------------------|-----------------------|------------------------------|
C#|--------------------|---------------------------|-----------------------|-----------------2------------|
G#|--------------------|----------7---7---7--------|-----------------------|------------------------------|
D#|-4------------------|---------------------------|------9--9-9-7---------|------0--2---4----------------|


D#|---------------------------|----------------------------------|-----------------------------|
A#|---------------------------|----------------------------------|-----12-12-12---11--11-------|
F#|------11---9---------------|-----11-11-9----9--9--9--8--------|-----------------------------|
C#|--------------11---11------|----------------------------------|-----------------------------|
G#|---------------------------|----------------------------------|-----------------------------|
D#|---------------------------|----------------------------------|-----------------------------|


D#|--------|------------------|--------------------|--------------------------|--------------------|
A#|--------|-----12-12-12-----|--------------------|-----12-12-12---12----12--|--------------------|
F#|--------|------------------|-1---1--------------|--------------------------|-1---1--------------|
C#|--------|------------------|-2---2--------------|--------------------------|-2---2--------------|
G#|--------|------------------|-2---2--------------|--------------------------|-2---2--------------|
D#|--------|------------------|-0---0--------------|--------------------------|-0---0---0----------|


D#|--------------------------|--------------------|---------------------------|--------------------|
A#|-----12-12-12---12----12--|--------------------|-----12-12-12-12-12--12----|--------------------|
F#|--------------------------|-1---1--------------|---------------------------|-1---1--------------|
C#|--------------------------|-2---2--------------|---------------------------|-2---2--------------|
G#|--------------------------|-2---2--------------|---------------------------|-2---2--------------|
D#|--------------------------|-0---0--------------|---------------------------|-0---0--------------|


D#|-------------------------------|--------------------------------9----------|----------------------------------9-------12--|
A#|-------------------------------|-4---------------------------9-----12------|-------------------------------9------14------|
F#|----------------------9--------|-4---------------9--11-11-11---------------|-----------------------9---11-----------------|
C#|----------------9--11----------|-----------9--11---------------------------|-----------------9--11------------------------|
G#|----------9--11----------------|-----9--11---------------------------------|-----------9--11------------------------------|
D#|-------------------------------|-------------------------------------------|-----9--12------------------------------------|


D#|-14--14--14--14--14--14--16--16--|---------------------------|-------------12-12-12---2-------|
A#|---------------------------------|---------------------------|---------4---12-12-12---4-------|
F#|---------------------------------|----------9---9------------|-9----0--4---9--9--9------------|
C#|---------------------------------|---------------------------|--------------------------------|
G#|---------------------------------|---------------------------|--------------------------------|
D#|---------------------------------|---------------------------|--------------------------------|


D#|------------------9--9------------|------------------------------------|---------------9---9---9-----------|
A#|-----7--7--7---9--9--9----9-------|-9---7--7--7---12-12-12---7---7--7--|-9---7--7------9---9---9---7---7---|
F#|-9---8--8--8---9--9--9----9---8---|-9---8--8--8---9--9--9----8---8--8--|-9---8--8------9---9---9---8---8---|
C#|------------------------------9---|------------------------------------|-----------------------------------|
G#|----------------------------------|------------------------------------|-----------------------------------|
D#|----------------------------------|------------------------------------|-----------9-----------------------|


D#|---------------12-12-12-----------|---------------9--9--9---------|-----------------------|
A#|-9---7--7--7---12-12-12---7---7---|-9---7--7--7---9--9--9---------|-----------------------|
F#|-9---8--8--8---9--9--9----8---8---|-9---8--8--8---9--9--9---------|-11-9----9---9---------|
C#|----------------------------------|-------------------------------|-13--------------------|
G#|----------------------------------|-------------------------------|-----------------------|
D#|----------------------------------|-------------------------------|-----------------------|


D#|------------------|-------------------------------|------------------------|--------------------|
A#|-----12-12-12-----|-------------------------------|-----12--12---12--------|--------------------|
F#|------------------|----------11-11-11--9----------|------------------------|--------------------|
C#|------------------|-11--------------------11-11---|------------------------|-11-----------------|
G#|------------------|-7-----------------------------|------------------------|-7------------------|
D#|------------------|-0---0-------------------------|------------------------|-0---0--------------|


D#|-----------------------|--------------------|-----------------------|---------------------------|
A#|-----12--12--12--12----|--------------------|-----12--12--12--12----|---------------------------|
F#|-----------------------|--------------------|-----------------------|---------------------------|
C#|-----------------------|-11-----------------|-----------------------|-11------------------------|
G#|-----------------------|-7------------------|-----------------------|-7-------------------------|
D#|-----------------------|-0---0--------------|-----------------------|-0---0----------------19---|


D#|------------------------------|--------------------------------|------------------------------|
A#|------------------------------|--------------------------------|------------------4---4---4---|
F#|------------------------------|----------------------------2---|------------------4---4---4---|
C#|------------------------------|----------2---2---4--4--4-------|------------------------------|
G#|--------------------------2---|-2---4--------------------------|-----4---4--------------------|
D#|-0---0---0---2---2---4--------|--------------------------------|-0---2---2--------------------|


D#|--------------------------------|--------------------------------|---------------------------|
A#|------------------4---4--4--2---|------------------4--4--4---4---|------------------2--------|
F#|------------------4---4--4--2---|------------------4--4--4---4---|------------------2---2----|
C#|--------------------------------|--------------------------------|---------------------------|
G#|-----4---4----------------------|-----4---4----------------------|-----4---4-----------------|
D#|-0---2---2----------------------|-0---2---2----------------------|-0---2---2-----------------|


D#|------------------------------|---------------------------|---------------------------|
A#|------------------4---4---4---|------------------2--------|------------------4---4----|
F#|------------------4---4---4---|------------------2---2----|------------------4---4----|
C#|------------------------------|---------------------------|---------------------------|
G#|-----4---4--------------------|-----4---------------------|-----4---------------------|
D#|-0---2---2--------------------|-0---2---------------------|-0---2---------------------|


D#|---------------------------|---------------------------|--------------------------------------|
A#|---------------------------|---------------------------|--------------------------------------|
F#|---------------------------|---------------------------|--------------------------------------|
C#|-----4---------------------|---------------------------|-------------0------------------------|
G#|-----4---------------------|-2----2--2---2---2----2----|-2--2--2--0--0------------------------|
D#|-0---2------------21-------|---------------------------|-----------------3--3--0----0---0--0--|


D#|-----------------------------------------------|-------------------------------|
A#|-----------------------------------------------|-------------------------------|
F#|-----------------------------------------------|-----------------14------------|
C#|-0--2-----0--2-----0--2-----0--2-----0--2------|-----------14-16-----16---16---|
G#|-----------------------------------------------|-----14-16---------------------|
D#|-------0--------0--------0--------0--------0---|-15----------------------------|


D#|------------------------------|---------------------------|--------------------------------|
A#|------------------------------|-----------------------17--|--------------------------------|
F#|-14---16--16--14------14--16--|-16--16--14------16--------|-16--16--16--14--16-----14-14---|
C#|-----------------16-----------|-------------16------------|--------------------16----------|
G#|------------------------------|---------------------------|--------------------------------|
D#|------------------------------|---------------------------|--------------------------------|


D#|-------14-17-14------------------|--------|--------|-----------------------------|
A#|----14----------17-14------------|--------|--------|-----------------------------|
F#|-16--------------------14--------|--------|--------|-3-----1--1----------4---4---|
C#|----------------------------16---|--------|--------|-------------4-------6---6---|
G#|---------------------------------|--------|--------|-----------------4---7---7---|
D#|---------------------------------|--------|--------|-----------------------------|


D#|-------------------------------------|--------|--------|--------|--------|-------------|
A#|-------------------------------------|--------|--------|--------|--------|-------------|
F#|-4------4--4---4--4--4---4---4---4---|--------|--------|--------|--------|-------------|
C#|-6------6--6---6--6--6---6---6---6---|--------|--------|--------|--------|-------------|
G#|-7------7--7---7--7--7---7---7---7---|--------|--------|--------|--------|-2-----2-----|
D#|-------------------------------------|--------|--------|--------|--------|-------------|


D#|-------------|--------------------|--------|--------------------------|-----------------------------|
A#|-------------|--------------------|--------|----------12-12-12--------|-----------------------------|
F#|-------------|--------------------|--------|----------9--9------------|---------8-------------------|
C#|-------------|--------------------|--------|----------9--9--9---------|-9-------9---9--11-11--------|
G#|-2-----2-----|-16-----------------|--------|--------------------------|-----------------------------|
D#|-------------|--------------------|--------|--------------------------|-----------------------------|


D#|------------------------------------|---------------------------------|-----------------------------------------|
A#|-4---4--4--4--4--14-14-14-----------|-14--4--4--4--4--14-14-----------|-----------------------------------------|
F#|-4---4--4--4--4--10-10--------------|-10--4--4--4--4--10-10-----------|-----------------9--9--9-------8---8--8--|
C#|-6---6--6--6--6--11-11-11-----------|-11--6--6--6--6--11-11-9---------|-11--9--9--9--9--9-------------9---9--9--|
G#|------------------------------------|---------------------------------|-----------11-11-------------------------|
D#|------------------------------------|---------------------------------|-----------------------------------------|


D#|----------------------------------|------------------------------------|--------------------------------------|
A#|----------------------------------|-9----------------------------------|-9------------------------------------|
F#|-9---8--8--8---9--9--9------------|-9---8--8--8--8--9--9--9------------|-9---8--8--8--8-----11-11---8---8--8--|
C#|-9---9--9--9------9--9------------|-11--9--9--9--9--9--9--9------------|-11--9--9--9--9--11-11-11---9---9--9--|
G#|----------------------------------|------------------------------------|--------------------------------------|
D#|----------------------------------|------------------------------------|--------------------------------------|


D#|----------------------------------|-------------------------------|-12--------------12-12-12---2----|
A#|----------------------------------|---------------14-14-14--------|-12--7--7--7--7--12-12-12---4----|
F#|-9---8--8--8---9--9--9----8---8---|-----8--8--8---10-10-----------|-----8--8--8--8--9--9--9---------|
C#|-9---9--9--9---9--9--9----9---9---|-11--9--9--9---11-11-11--------|---------------------------------|
G#|----------------------------------|-------------------------------|---------------------------------|
D#|----------------------------------|-------------------------------|---------------------------------|


D#|-12------------12-12-12--------------------|-----------------------------------------|
A#|-12--7--7--7---12-12-12-7--7--7--7--7--7---|-----------------------------------------|
F#|-9---8--8--8---9--9--9--8--8--8--8--8--8---|-6--6---4--4-----------------------------|
C#|-------------------------------------------|---------------6--6--6--4--4---2--2------|
G#|-------------------------------------------|--------------------------------------4--|
D#|-------------------------------------------|-----------------------------------------|


D#|-----------------------------------------|-------------------------------------|
A#|-----------------------------------------|-----------------------11--------7---|
F#|-----------------------------------------|-9-----------------11--11--------7---|
C#|-----------------------------------9--11-|-----11-9----------11------7--9------|
G#|-4---2--2--2-----------------------------|-----------10--9---------------------|
D#|--------------4--4---2--2---0--0---------|-------------------------------------|


D#|---------------------------------------|---------------------------------------|
A#|-------------------9-------------------|-------------7---------4---------------|
F#|-------------------9---------5---------|-------------7---------4---------------|
C#|-9--7----------9-------5--7------7--5--|---------7-------4--6------6--4--4-----|
G#|-------8---7---------------------------|-6---5---------------------------5--4--|
D#|---------------------------------------|---------------------------------------|


D#|-4--4---7--7---10-10-10-13---16---|-16-----16---|-16----------|
A#|-4--4---7--7---10-10-10-13---16---|-16-----16---|-16----------|
F#|-4--4---7--7---10-10-10-13---16---|-16-----16---|-16----------|
C#|-3--3---6--6---9--9--9--12---15---|-15-----15---|-15----------|
G#|-4--4---7--7---10-10-10-13---16---|-16-----16---|-16----------|
D#|----------------------------------|-------------|-------------|





Track 2: Gtr 1 - Distorted electric guitar (detuned 1/2 a step)

D#|---------------------------------|-----------------------------------|-----------------------------------|
A#|---------------------------------|-6--6------------------------------|-6--6------------------------------|
F#|-6-------------------6---6---4---|-6--6------------------6---6---4---|-6--6------------------6---6---4---|
C#|-6-------------------6---6---4---|-6--6------------------6---6---4---|-6--6------------------6---6---4---|
G#|-4---------------2---4---4---2---|-4--4--------------2---4---4---2---|-4--4--------------2---4---4---2---|
D#|-----0---2---4-------------------|-------0---2---4-------------------|-------0---2---4-------------------|


D#|-----------------------------------|---------------------------------------|-------------------------------6---6--6--|
A#|-6--6------------------------------|-----5---------------------------------|------------------0------------6---6--6--|
F#|-6--6------------------6---6---4---|-4-----------4--4--4--2--------6---6---|-4--4----------4--4--4---4--6--6---6--6--|
C#|-6--6------------------6---6---4---|---------6---6--6--6-------------------|-------6-------6-----6-------------------|
G#|-4--4--------------2---4---4---2---|-------------------------4--7----------|-----------------------------------------|
D#|-------0---2---4-------------------|---------------------------------------|-----------------------------------------|


D#|-----------------------------------------|----0--------6--6--6---0------6----|-----------------------------------------------|
A#|--------0------------------------0---0---|----0--------6--6--6------0---6----|-5--5---------5--5--5--5--5--5--5--5--5--5-----|
F#|-4--4---4--4---4--4--4--4--------6---6---|-4--4----0---6--6--6----------6----|-4--4-----4---4--4--4--4--4--4--4--4--4--4-----|
C#|-6--6------6---6--6--6-------------------|-6---------------------------------|-2--2---------------------------------------3--|
G#|---------------------------6--7----------|-----------------------------------|-4--4---------------------------------------4--|
D#|-----------------------------------------|-----------------------------------|-----------------------------------------------|


D#|---------------------------4--4--4--4--4-----|-------------------------------4---------|
A#|-5--5------------5--5------4--4--4--4--4-----|-5--5------5---5--5--5---------4---4-----|
F#|-4--4-----4------4--4------4--4--4--4--4--4--|-4--4------4---4--4--4---------4---4--4--|
C#|-------------3---2--2---------------------2--|-----------6---3--3--3-------------------|
G#|-------------4---4--4--4------------------4--|---------------4--4--4---4--4------------|
D#|---------------------------------------------|-----------------------------------------|


D#|-----------------------------------------|---------------------------------4-------|
A#|-5--5-----4--4------5--5---5--7--7-------|-5--5------5---5--5--5--0--------4---4---|
F#|-4--4-----4--4---4--4--4---4--6--6---6---|-4--4------4---4--4--4-----------4---4---|
C#|-3---------------------------------------|-----------6---3--3--3-------------------|
G#|-4---------------------------------------|---------------4--4--4-----4--4----------|
D#|-----------------------------------------|-----------------------------------------|


D#|-------------------------------------------|-----------------------------4--4--4---------|
A#|-5--5-----4--4--4--5--5--5------7--7---7---|----5-----4--4---5--5--------4--4------4--4--|
F#|-4--4-----4--4--4--4--4--4---4--6--6---6---|-4--4-----4--4---4--4--4--4--4--4---------4--|
C#|-3--3--------------3--3--3-----------------|-------------4---3---------------------------|
G#|-4--4--------------4--4--4-----------------|-----------------4---------------------------|
D#|-------------------------------------------|---------------------------------------------|


D#|---------------------------------------|-0---0---0---------------------------|-0---0---0-------------------------|
A#|-5--5------5------5--5--7--7---7---7---|-0---0---0---------------------------|-0---0-------11--11--11----11------|
F#|-4--4------4------4--4--6--6---6---6---|-1-----------6--5--4---6--4--6---6---|-1---1-------11--11--11-9--11------|
C#|---------------------------------------|-2-----------------------------------|-2---2-------------------------11--|
G#|---------------4-----------------------|-2-----------------------------------|-2---2-----------------------------|
D#|---------------------------------------|-0-----------------------------------|-0---0-----------------------------|


D#|-0---0--0--0--0------------------------|-0---0----------------------------0--|-0---0---0---------------------------|
A#|-0---0-----0--0----------7---7---------|-0---0---0---7------7------7------0--|-0---0---0---5---5--5------------0---|
F#|-1---------------6---6---6---6---6--4--|-1---1---1---6---6-----6-------6-----|-------------4---4-----6--4--6-------|
C#|-2-------------------------------------|-2---2---2---------------------------|-------------------------------------|
G#|-2-------------------------------------|-2---2-------------------------------|-------------------------------------|
D#|-0-------------------------------------|-0---0-------------------------------|-------------------------------------|


D#|-0--0-----------------------------|-0---0---0---------------------------|-0-------------------------------------------|
A#|-0-----0----11--11--11------------|-0---0---0---12--12------------------|-0---0---0--0--------------------------------|
F#|-1-----1----11--11--11-9--11------|-------------11--11--11-9------------|-1---1---------------------------------------|
C#|-2-----2----------------------11--|---------------------------11--------|-2---2---------------9--11-9-----------------|
G#|-2-----2--------------------------|-------------------------------11-11-|-2---2---------9--11----------10-9--9--------|
D#|-0-----0--------------------------|-------------------------------------|-0---0---------------------------------12-9--|


D#|---------------------------------------|-9--9---------------9--9-------------------|
A#|---------12-------9--9--9--------------|-9--9------------11-9--9-------------------|
F#|---------12-------9--9--9----------11--|-----------------11-------10--8--11-11-11--|
C#|------------0--11--------------9---11--|-----------11-9------------------11-11-11--|
G#|---------------------------------------|-------------------------------------------|
D#|-0---0---------------------12----------|-------12----------------------------------|


D#|-9--9----------------------------------|-9--9-------------9--9-----------------|
A#|-9--9-------------9--9--9--------------|-9--9-------------9--9---------11--11--|
F#|-10------------11-------9----------11--|---------------11-------10-----11--11--|
C#|-11--------9---11--------------9---11--|-----------9---11--------------11--11--|
G#|-----------9---------------------------|-----------9---------------------------|
D#|-9-----12------------------12----------|-------12------------------9-----------|


D#|-------------------------------------------|-----------------------------------------|
A#|---------------------------9---11-11-------|-----------------------------------------|
F#|-----10--10-10-10-10-10-10-10--11-11----11-|-10--10-10-10--11-11-11-11-11-9------11--|
C#|-9-------9-----9--9--9--9--9---11-11-11----|-9---9--9--9---11-11-11-11-11-9------11--|
G#|-------------------------------------------|---------------------------------13--13--|
D#|-------------------------------------------|-----------------------------------------|


D#|---------------------------------------------|-------------------------------------------|
A#|---------------------------------------------|-9-----------------------------------------|
F#|----10----10-9---10-10-10-10----10-10--------|-10--10-10-10--11-11-11-9--------11-----0--|
C#|-9-----9-----9---9--9--9-----9-----9---9--9--|-9---9--9--9---11-11-11-9--------11--------|
G#|---------------------------------------11-11-|---------------------------11-13-13--13----|
D#|---------------------------------------------|-------------------------------------------|


D#|-----------------------------------------|-----------9-------------------------------|
A#|------------------9--9-------------------|-------------------------------------------|
F#|-10-10--10-----10-10-10-10-10------------|-10-----10-----11-11-11-9--------11-11-----|
C#|-9------9------9--9--9-----9-----9---9---|-9------9------11-11-11-9--------11-11-----|
G#|------------------------------11-11--11--|---------------------------11-13-13-13-13--|
D#|-----------9-----------------------------|-----9-------------------------------------|


D#|---------------------------------------|---------------------------------------------|
A#|-12-12---------------------------------|-----------------11-11----11-11-11-11--------|
F#|-10-10-10--10--10-10-----11----10------|----10----10-11--11-11----11-11-11-11--------|
C#|-9--9--9---9---9--9--9---11----9-------|----9--9-----11------------------------------|
G#|-----------11---------------11-----11--|---------------------------------------------|
D#|---------------------------------------|-9-------------------------------------9--9--|


D#|-0------------------------------0--|-0---0--0--0------------------------|-0---0---0---------------------------|
A#|-0---0-------12--12--12--12-12--0--|-0---0--0--0------------------------|-0---0---0-------------------5---5---|
F#|-1-------1---11--11--11--11-11-----|-1------------------4-----4---6--6--|-4---4---4--6----------4-------------|
C#|-2-------2-------------------------|-2--------------6------6------------|---------------6---6------6----------|
G#|-2---------------------------------|-2----------------------------------|-------------------------------------|
D#|-0---------------------------------|-0----------------------------------|-------------------------------------|


D#|-0---0---0---------------------------|-0---0---0--0----------4---------------|-0---0---0---0-----------------------|
A#|-0---0---0---------------------------|-0---0---0--0----------5-----5---------|-0---0---0---0--11-11----------------|
F#|----------------4--------------------|-----------------------4--6------6--6--|-6---1----------11-11--11-9--11------|
C#|-------------6-----6--5--4-----------|---------------6---6-------------------|-----2---------------------------11--|
G#|-----------------------------7---4---|---------------------------------------|-----2-------------------------------|
D#|-------------------------------------|---------------------------------------|-----0-------------------------------|


D#|-0---0---0-------------|-0---0--------------------------------|------------------------------|
A#|-0---0---0---12--12----|-0---0--------------------------------|------------------------------|
F#|-------------11--11----|-1---1----11--11-9--11-9--------------|------------------------------|
C#|-----------------------|-2---2--------------------11-9--------|-----2--------------------4---|
G#|-----------------------|-2---2--------------------------11-0--|-----2--------------------2---|
D#|-----------------------|-0---0--------------------------------|-0---0---0---2---2---4--------|


D#|----------------------------------|-------------------------------------|--------------------------------|
A#|----------------------------------|-----------------------4--4--4-------|---------------------2----------|
F#|---------------4---4---6----1--1--|---------4---4--4--4---4--4--4----4--|-------------4---4---2----4--2--|
C#|-4--4--6---6---2---2---4----2--2--|---------6---6--6--6-----------------|-------------6---6--------------|
G#|-2--2--4---4----------------------|-----4---7---7--7--7-----------------|-----4-------7---7--------------|
D#|----------------------------------|-0---2-------------------------------|-0---2--------------------------|


D#|-------------------------------------|-------------------------------------|--------------------------------------|
A#|-------------------------------------|-----------------------4--4--4----4--|--------------------------------------|
F#|---------4---4---4---4---4--4--2-----|---------4---4--4--4---4--4--4----4--|---------4---4--4--4---4---4--4-2-----|
C#|---------6---6---6----------------4--|---------6---6--6--6-----------------|---------6---6--6--6--------------4---|
G#|-----4---7---7---7-------------------|-----4---7---7--7--7-----------------|-----4---7---7--7--7------------------|
D#|-0---2-------------------------------|-0---2-------------------------------|-0---2--------------------------------|


D#|-----------------------------------|-----------------------------|-------------------------------------------|
A#|---------------------4--4--4----4--|-----------------------------|-------------------------4--4--4-----------|
F#|---------4---4---4---4--4--4----4--|---------4--4--4---4---2-----|------------4---4--4--4--4--4--4--2--------|
C#|---------6---6---6-----------------|---------6--6--6---6---------|------------6---6--6--6--------------------|
G#|-----4---7---7---7-----------------|-----4---7--7--7---7---------|-----4------7---7--7--7--------------0--1--|
D#|-0---2-----------------------------|-0---2-----------------------|-0---2-------------------------------------|


D#|---------------------------------------|------------------------------|-----------------------------------|
A#|---------------------------------4--4--|-4---2---2---------------2----|-2---------------------2---2---4---|
F#|---------------------------------4--4--|-4---2---2--------------------|-----------1-----------2---2---4---|
C#|-4--4---4--4---2--1--------------------|-------------4-------2--------|-2------2------2-------------------|
G#|---------------------4-----------------|------------------------------|-----------------------------------|
D#|-------------------------2-------------|-----------------0------------|-----0-------------0---------------|


D#|-------------------------------------|-------------------------------------|---------------------------------------|
A#|-4---2---2--2------------------------|-4---4--4------------------------2---|-----------------------------2--2------|
F#|-4---2---2--2--------------3---------|-4---4--4--4---4--2--2-----------2---|-2--2--4---2-----------------------1---|
C#|---------------4-----------4---------|------------------2----------4-------|---------------4--4-----2--------------|
G#|-------------------------------------|-------------------------------------|---------------------------------------|
D#|-------------------2---2-------2--2--|-------------------------2-----------|---------------------0-----------------|


D#|--------------------------------|-----------------------------------|-----------------------------------------|
A#|---------4---------2---2----4---|-4---2--2--------------------------|-----------------------------------------|
F#|-2---2---4---4-----2---2----4---|-4---2--2--------------------------|-----------------------------------------|
C#|----------------0---------------|-----------4---2-------------------|-4--4--4--4--4---2--1--------------------|
G#|--------------------------------|-------------------------------4---|-----------------------4-------0--0--1---|
D#|--------------------------------|-------------------2---2---6-------|---------------------------2-------------|


D#|----------------------------------|---------------------------------------|-------------------------------------|
A#|----------------------------------|---------------------------------------|-------------------------------------|
F#|----------------------------------|---------------------------------------|-----------------------------4-------|
C#|---------------------6------------|-4---4--4--4---2--1--------------------|---------------------6-------6-------|
G#|-----2------2--3--4---------------|---------------------4-------0--0--1---|-----2------2--3--4----------7-------|
D#|-------------------------0----0---|-------------------------2-------------|-------------------------0-------0---|


D#|--------|--------|--------|--------|--------|--------|--------|--------|--------|
A#|--------|--------|--------|--------|--------|--------|--------|--------|--------|
F#|--------|--------|--------|--------|--------|--------|--------|--------|--------|
C#|--------|--------|--------|--------|--------|--------|--------|--------|--------|
G#|--------|--------|--------|--------|--------|--------|--------|--------|--------|
D#|--------|--------|--------|--------|--------|--------|--------|--------|--------|


D#|--------|--------|--------|--------|--------|--------|--------|--------|--------|
A#|--------|--------|--------|--------|--------|--------|--------|--------|--------|
F#|--------|--------|--------|--------|--------|--------|--------|--------|--------|
C#|--------|--------|--------|--------|--------|--------|--------|--------|--------|
G#|--------|--------|--------|--------|--------|--------|--------|--------|--------|
D#|--------|--------|--------|--------|--------|--------|--------|--------|--------|


D#|--------|--------|--------|--------|--------|--------|--------|--------|--------|
A#|--------|--------|--------|--------|--------|--------|--------|--------|--------|
F#|--------|--------|--------|--------|--------|--------|--------|--------|--------|
C#|--------|--------|--------|--------|--------|--------|--------|--------|--------|
G#|--------|--------|--------|--------|--------|--------|--------|--------|--------|
D#|--------|--------|--------|--------|--------|--------|--------|--------|--------|


D#|--------|
A#|--------|
F#|--------|
C#|--------|
G#|--------|
D#|--------|





Track 3: Gtr 3 - Clean electric guitar (detuned 1/2 a step)

D#|--------|--------|--------|--------|-------------12------12-12------|-----12-12-12--12--11--11-11-11--11--|
A#|--------|--------|--------|--------|----------12--------------------|-----12-12-12--12--12--12-12-12--12--|
F#|--------|--------|--------|--------|--------------------------------|-13--------13--13--11--11-11-11--11--|
C#|--------|--------|--------|--------|--------------------------------|-------------------------------------|
G#|--------|--------|--------|--------|--------------------------------|-------------------------------------|
D#|--------|--------|--------|--------|--------------------------------|-------------------------------------|


D#|--------12-12-----12----12--------12-----|----12-12-12-12-----12----12-----0---0--0--|
A#|-----12--------12----12----12--12----12--|-12--------------12----12----12--0---0--0--|
F#|-13--------------------------------------|---------------------------------0---0--0--|
C#|-----------------------------------------|-------------------------------------------|
G#|-----------------------------------------|-------------------------------------------|
D#|-----------------------------------------|-------------------------------------------|


D#|-0------------0--0----0--0----0--|-0------------0--0----0--0----0--|-0------------0--0----0--0----0--|
A#|-0------------0--0----0--0----0--|-0------------0--0----0--0----0--|-0------------0--0----0--0----0--|
F#|-0------------0--0----0--0----0--|-0------------0--0----0--0----0--|-0------------0--0----0--0----0--|
C#|---------------------------------|---------------------------------|---------------------------------|
G#|---------------------------------|---------------------------------|---------------------------------|
D#|---------------------------------|---------------------------------|---------------------------------|


D#|-0------------0--0----0--0----0--|-0------------0--0----0--0----0--|-0------------0--0----0--0----0--|
A#|-0------------0--0----0--0----0--|-0------------0--0----0--0----0--|-0------------0--0----0--0----0--|
F#|-0------------0--0----0--0----0--|-0------------0--0----0--0----0--|-0------------0--0----0--0----0--|
C#|---------------------------------|---------------------------------|---------------------------------|
G#|---------------------------------|---------------------------------|---------------------------------|
D#|---------------------------------|---------------------------------|---------------------------------|


D#|-0------------0--0----0--0----0--|-0------------0--0----0--0----0--|--------|--------|
A#|-0------------0--0----0--0----0--|-0------------0--0----0--0----0--|--------|--------|
F#|-0------------0--0----0--0----0--|-0------------0--0----0--0----0--|--------|--------|
C#|---------------------------------|---------------------------------|--------|--------|
G#|---------------------------------|---------------------------------|--------|--------|
D#|---------------------------------|---------------------------------|--------|--------|


D#|--------|--------|--------|--------|--------|--------|--------|--------|--------|
A#|--------|--------|--------|--------|--------|--------|--------|--------|--------|
F#|--------|--------|--------|--------|--------|--------|--------|--------|--------|
C#|--------|--------|--------|--------|--------|--------|--------|--------|--------|
G#|--------|--------|--------|--------|--------|--------|--------|--------|--------|
D#|--------|--------|--------|--------|--------|--------|--------|--------|--------|


D#|--------|-0-------0---9--9--9---------|-------------14-14--------|-------------12-12-----------|
A#|--------|-0-------0---9--9--9---------|---------14---------------|---------14------------------|
F#|--------|-0-------0-------------------|--------------------------|-----------------------------|
C#|--------|-----------------------------|--------------------------|-----------------------------|
G#|--------|-----------------------------|--------------------------|-----------------------------|
D#|--------|-----------------------------|--------------------------|-----------------------------|


D#|-------------------------------------|--------------------------------|-----------------------------|
A#|-14---14-14-14-14-14-14---14-14------|------14-14-14--14-14---14------|---------14--16-16---16------|
F#|-------------------------------------|--------------------------------|-----------------------------|
C#|-------------------------------------|--------------------------------|-----------------------------|
G#|-------------------------------------|--------------------------------|-----------------------------|
D#|-------------------------------------|--------------------------------|-----------------------------|


D#|------------------------|-----------------------------------------|--------|--------|
A#|---------14---14--------|----16--16-16--16-16-16--14-14-14-14-----|--------|--------|
F#|------------------------|-----------------------------------------|--------|--------|
C#|------------------------|-----------------------------------------|--------|--------|
G#|------------------------|-----------------------------------------|--------|--------|
D#|------------------------|-----------------------------------------|--------|--------|


D#|--------|--------|--------|--------|--------|--------|--------|--------|--------|
A#|--------|--------|--------|--------|--------|--------|--------|--------|--------|
F#|--------|--------|--------|--------|--------|--------|--------|--------|--------|
C#|--------|--------|--------|--------|--------|--------|--------|--------|--------|
G#|--------|--------|--------|--------|--------|--------|--------|--------|--------|
D#|--------|--------|--------|--------|--------|--------|--------|--------|--------|


D#|--------|--------|--------|--------|--------|--------|--------|--------|--------|
A#|--------|--------|--------|--------|--------|--------|--------|--------|--------|
F#|--------|--------|--------|--------|--------|--------|--------|--------|--------|
C#|--------|--------|--------|--------|--------|--------|--------|--------|--------|
G#|--------|--------|--------|--------|--------|--------|--------|--------|--------|
D#|--------|--------|--------|--------|--------|--------|--------|--------|--------|


D#|--------|--------|--------|--------|--------|--------|--------|--------|--------|
A#|--------|--------|--------|--------|--------|--------|--------|--------|--------|
F#|--------|--------|--------|--------|--------|--------|--------|--------|--------|
C#|--------|--------|--------|--------|--------|--------|--------|--------|--------|
G#|--------|--------|--------|--------|--------|--------|--------|--------|--------|
D#|--------|--------|--------|--------|--------|--------|--------|--------|--------|


D#|--------|---------14------------14----------|-------------------------------------------------|
A#|--------|-----14------17--17-17-----14--17--|-14-17-14----14----------------------------------|
F#|--------|-16--------------------------------|----------16----16-14----16----14----------------|
C#|--------|-----------------------------------|----------------------16-16-16----16-14----14----|
G#|--------|-----------------------------------|----------------------------------------16---16--|
D#|--------|-----------------------------------|-------------------------------------------------|


D#|--------------------------------------|-------------------------------|--------|
A#|----------------17---14----14---------|-------------------------------|--------|
F#|-------------14---------16----14------|-14-16--16-16--14----14---14---|--------|
C#|-------14-16---------------------16---|------------------16-----------|--------|
G#|-14-16--------------------------------|-------------------------------|--------|
D#|--------------------------------------|-------------------------------|--------|


D#|--------|--------|--------|--------|--------|--------|--------|--------|--------|
A#|--------|--------|--------|--------|--------|--------|--------|--------|--------|
F#|--------|--------|--------|--------|--------|--------|--------|--------|--------|
C#|--------|--------|--------|--------|--------|--------|--------|--------|--------|
G#|--------|--------|--------|--------|--------|--------|--------|--------|--------|
D#|--------|--------|--------|--------|--------|--------|--------|--------|--------|


D#|--------|--------|--------|--------|--------|--------|--------|--------|--------|
A#|--------|--------|--------|--------|--------|--------|--------|--------|--------|
F#|--------|--------|--------|--------|--------|--------|--------|--------|--------|
C#|--------|--------|--------|--------|--------|--------|--------|--------|--------|
G#|--------|--------|--------|--------|--------|--------|--------|--------|--------|
D#|--------|--------|--------|--------|--------|--------|--------|--------|--------|


D#|--------|--------|--------|--------|--------|
A#|--------|--------|--------|--------|--------|
F#|--------|--------|--------|--------|--------|
C#|--------|--------|--------|--------|--------|
G#|--------|--------|--------|--------|--------|
D#|--------|--------|--------|--------|--------|





Track 4: Feedback

D#|--------|--------|--------|--------|--------|--------|--------|--------|--------|
A#|--------|--------|--------|--------|--------|--------|--------|--------|--------|
F#|--------|--------|--------|--------|--------|--------|--------|--------|--------|
C#|--------|--------|--------|--------|--------|--------|--------|--------|--------|
G#|--------|--------|--------|--------|--------|--------|--------|--------|--------|
D#|--------|--------|--------|--------|--------|--------|--------|--------|--------|


D#|--------|--------|--------|--------|--------|--------|--------|--------|--------|
A#|--------|--------|--------|--------|--------|--------|--------|--------|--------|
F#|--------|--------|--------|--------|--------|--------|--------|--------|--------|
C#|--------|--------|--------|--------|--------|--------|--------|--------|--------|
G#|--------|--------|--------|--------|--------|--------|--------|--------|--------|
D#|--------|--------|--------|--------|--------|--------|--------|--------|--------|


D#|--------|--------|--------|--------|--------|--------|--------|--------|--------|
A#|--------|--------|--------|--------|--------|--------|--------|--------|--------|
F#|--------|--------|--------|--------|--------|--------|--------|--------|--------|
C#|--------|--------|--------|--------|--------|--------|--------|--------|--------|
G#|--------|--------|--------|--------|--------|--------|--------|--------|--------|
D#|--------|--------|--------|--------|--------|--------|--------|--------|--------|


D#|--------|--------|--------|--------|--------|--------|--------|--------|--------|
A#|--------|--------|--------|--------|--------|--------|--------|--------|--------|
F#|--------|--------|--------|--------|--------|--------|--------|--------|--------|
C#|--------|--------|--------|--------|--------|--------|--------|--------|--------|
G#|--------|--------|--------|--------|--------|--------|--------|--------|--------|
D#|--------|--------|--------|--------|--------|--------|--------|--------|--------|


D#|--------|--------|--------|--------|--------|--------|--------|--------|--------|
A#|--------|--------|--------|--------|--------|--------|--------|--------|--------|
F#|--------|--------|--------|--------|--------|--------|--------|--------|--------|
C#|--------|--------|--------|--------|--------|--------|--------|--------|--------|
G#|--------|--------|--------|--------|--------|--------|--------|--------|--------|
D#|--------|--------|--------|--------|--------|--------|--------|--------|--------|


D#|--------|--------|--------|--------|------14-----|------14-----|-------------|------14-----|
A#|--------|--------|--------|--------|-------------|------14-----|------14-----|------14-----|
F#|--------|--------|--------|--------|------11-----|-------------|-------------|-------------|
C#|--------|--------|--------|--------|-------------|-------------|-------------|-------------|
G#|--------|--------|--------|--------|-------------|-------------|-------------|-------------|
D#|--------|--------|--------|--------|-------------|-------------|-------------|-------------|


D#|----------------|--------|--------|--------|--------|--------|--------|--------|
A#|-----14--14-----|--------|--------|--------|--------|--------|--------|--------|
F#|----------------|--------|--------|--------|--------|--------|--------|--------|
C#|----------------|--------|--------|--------|--------|--------|--------|--------|
G#|----------------|--------|--------|--------|--------|--------|--------|--------|
D#|----------------|--------|--------|--------|--------|--------|--------|--------|


D#|--------|--------|--------|--------|--------|--------|--------|--------|--------|
A#|--------|--------|--------|--------|--------|--------|--------|--------|--------|
F#|--------|--------|--------|--------|--------|--------|--------|--------|--------|
C#|--------|--------|--------|--------|--------|--------|--------|--------|--------|
G#|--------|--------|--------|--------|--------|--------|--------|--------|--------|
D#|--------|--------|--------|--------|--------|--------|--------|--------|--------|


D#|--------|--------|--------|--------|--------|--------|--------|--------|--------|
A#|--------|--------|--------|--------|--------|--------|--------|--------|--------|
F#|--------|--------|--------|--------|--------|--------|--------|--------|--------|
C#|--------|--------|--------|--------|--------|--------|--------|--------|--------|
G#|--------|--------|--------|--------|--------|--------|--------|--------|--------|
D#|--------|--------|--------|--------|--------|--------|--------|--------|--------|


D#|--------|--------|--------|--------|--------|--------|--------|--------|--------|
A#|--------|--------|--------|--------|--------|--------|--------|--------|--------|
F#|--------|--------|--------|--------|--------|--------|--------|--------|--------|
C#|--------|--------|--------|--------|--------|--------|--------|--------|--------|
G#|--------|--------|--------|--------|--------|--------|--------|--------|--------|
D#|--------|--------|--------|--------|--------|--------|--------|--------|--------|


D#|--------|--------|--------|--------|--------|--------|
A#|--------|--------|--------|--------|--------|--------|
F#|--------|--------|--------|--------|--------|--------|
C#|--------|--------|--------|--------|--------|--------|
G#|--------|--------|--------|--------|--------|--------|
D#|--------|--------|--------|--------|--------|--------|





Track 5: Gtr 1 - Distorted electric guitar (detuned 1/2 a step)

D#|--------|--------|--------|--------|--------|--------|--------|--------|--------|
A#|--------|--------|--------|--------|--------|--------|--------|--------|--------|
F#|--------|--------|--------|--------|--------|--------|--------|--------|--------|
C#|--------|--------|--------|--------|--------|--------|--------|--------|--------|
G#|--------|--------|--------|--------|--------|--------|--------|--------|--------|
D#|--------|--------|--------|--------|--------|--------|--------|--------|--------|


D#|--------|--------|--------|--------|--------|--------|--------|--------|--------|
A#|--------|--------|--------|--------|--------|--------|--------|--------|--------|
F#|--------|--------|--------|--------|--------|--------|--------|--------|--------|
C#|--------|--------|--------|--------|--------|--------|--------|--------|--------|
G#|--------|--------|--------|--------|--------|--------|--------|--------|--------|
D#|--------|--------|--------|--------|--------|--------|--------|--------|--------|


D#|--------|--------|--------|--------|--------|--------|--------|--------|--------|
A#|--------|--------|--------|--------|--------|--------|--------|--------|--------|
F#|--------|--------|--------|--------|--------|--------|--------|--------|--------|
C#|--------|--------|--------|--------|--------|--------|--------|--------|--------|
G#|--------|--------|--------|--------|--------|--------|--------|--------|--------|
D#|--------|--------|--------|--------|--------|--------|--------|--------|--------|


D#|--------|--------|--------|--------|--------|--------|--------|--------|--------|
A#|--------|--------|--------|--------|--------|--------|--------|--------|--------|
F#|--------|--------|--------|--------|--------|--------|--------|--------|--------|
C#|--------|--------|--------|--------|--------|--------|--------|--------|--------|
G#|--------|--------|--------|--------|--------|--------|--------|--------|--------|
D#|--------|--------|--------|--------|--------|--------|--------|--------|--------|


D#|--------|--------|--------|--------|--------|--------|--------|--------|--------|
A#|--------|--------|--------|--------|--------|--------|--------|--------|--------|
F#|--------|--------|--------|--------|--------|--------|--------|--------|--------|
C#|--------|--------|--------|--------|--------|--------|--------|--------|--------|
G#|--------|--------|--------|--------|--------|--------|--------|--------|--------|
D#|--------|--------|--------|--------|--------|--------|--------|--------|--------|


D#|--------|--------|--------|--------|--------|--------|--------|--------|--------|
A#|--------|--------|--------|--------|--------|--------|--------|--------|--------|
F#|--------|--------|--------|--------|--------|--------|--------|--------|--------|
C#|--------|--------|--------|--------|--------|--------|--------|--------|--------|
G#|--------|--------|--------|--------|--------|--------|--------|--------|--------|
D#|--------|--------|--------|--------|--------|--------|--------|--------|--------|


D#|--------|--------|--------|--------|--------|--------|--------|--------|--------|
A#|--------|--------|--------|--------|--------|--------|--------|--------|--------|
F#|--------|--------|--------|--------|--------|--------|--------|--------|--------|
C#|--------|--------|--------|--------|--------|--------|--------|--------|--------|
G#|--------|--------|--------|--------|--------|--------|--------|--------|--------|
D#|--------|--------|--------|--------|--------|--------|--------|--------|--------|


D#|--------|--------|--------|---------------------------------------|-------------------------------------|
A#|--------|--------|--------|---------------------------------------|-------------------------------------|
F#|--------|--------|--------|---------------------------------------|-------------------------------------|
C#|--------|--------|--------|-4---4--4--4---2--1--------------------|---------------------6---------------|
G#|--------|--------|--------|---------------------4-------0--0--1---|-----2------2--3--4------------------|
D#|--------|--------|--------|-------------------------2-------------|-------------------------0---0---0---|


D#|---------------------------------------|-----------------------------------------|
A#|---------------------------------------|-----------------------------------------|
F#|---------------------------------------|-----------------------------4--4--4--4--|
C#|-4--4--4--4--4---2--1------------------|---------------------6-------6--6--6--6--|
G#|-----------------------4-----------1---|-----2------2--3--4----------7--7--7--7--|
D#|---------------------------2-----------|-------------------------0---------------|


D#|--------|--------|--------|--------|--------|--------|--------|--------|--------|
A#|--------|--------|--------|--------|--------|--------|--------|--------|--------|
F#|--------|--------|--------|--------|--------|--------|--------|--------|--------|
C#|--------|--------|--------|--------|--------|--------|--------|--------|--------|
G#|--------|--------|--------|--------|--------|--------|--------|--------|--------|
D#|--------|--------|--------|--------|--------|--------|--------|--------|--------|


D#|--------|--------|--------|--------|--------|--------|--------|--------|--------|
A#|--------|--------|--------|--------|--------|--------|--------|--------|--------|
F#|--------|--------|--------|--------|--------|--------|--------|--------|--------|
C#|--------|--------|--------|--------|--------|--------|--------|--------|--------|
G#|--------|--------|--------|--------|--------|--------|--------|--------|--------|
D#|--------|--------|--------|--------|--------|--------|--------|--------|--------|


D#|--------|--------|--------|--------|--------|--------|
A#|--------|--------|--------|--------|--------|--------|
F#|--------|--------|--------|--------|--------|--------|
C#|--------|--------|--------|--------|--------|--------|
G#|--------|--------|--------|--------|--------|--------|
D#|--------|--------|--------|--------|--------|--------|





Track 6: Gtr 1 - Distorted electric guitar (detuned 1/2 a step)

D#|--------|--------|--------|--------|--------|--------|--------|--------|--------|
A#|--------|--------|--------|--------|--------|--------|--------|--------|--------|
F#|--------|--------|--------|--------|--------|--------|--------|--------|--------|
C#|--------|--------|--------|--------|--------|--------|--------|--------|--------|
G#|--------|--------|--------|--------|--------|--------|--------|--------|--------|
D#|--------|--------|--------|--------|--------|--------|--------|--------|--------|


D#|--------|--------|--------|--------|--------|--------|--------|--------|--------|
A#|--------|--------|--------|--------|--------|--------|--------|--------|--------|
F#|--------|--------|--------|--------|--------|--------|--------|--------|--------|
C#|--------|--------|--------|--------|--------|--------|--------|--------|--------|
G#|--------|--------|--------|--------|--------|--------|--------|--------|--------|
D#|--------|--------|--------|--------|--------|--------|--------|--------|--------|


D#|--------|--------|--------|--------|--------|--------|--------|--------|--------|
A#|--------|--------|--------|--------|--------|--------|--------|--------|--------|
F#|--------|--------|--------|--------|--------|--------|--------|--------|--------|
C#|--------|--------|--------|--------|--------|--------|--------|--------|--------|
G#|--------|--------|--------|--------|--------|--------|--------|--------|--------|
D#|--------|--------|--------|--------|--------|--------|--------|--------|--------|


D#|--------|--------|--------|--------|--------|--------|--------|--------|--------|
A#|--------|--------|--------|--------|--------|--------|--------|--------|--------|
F#|--------|--------|--------|--------|--------|--------|--------|--------|--------|
C#|--------|--------|--------|--------|--------|--------|--------|--------|--------|
G#|--------|--------|--------|--------|--------|--------|--------|--------|--------|
D#|--------|--------|--------|--------|--------|--------|--------|--------|--------|


D#|--------|--------|--------|--------|--------|--------|--------|--------|--------|
A#|--------|--------|--------|--------|--------|--------|--------|--------|--------|
F#|--------|--------|--------|--------|--------|--------|--------|--------|--------|
C#|--------|--------|--------|--------|--------|--------|--------|--------|--------|
G#|--------|--------|--------|--------|--------|--------|--------|--------|--------|
D#|--------|--------|--------|--------|--------|--------|--------|--------|--------|


D#|--------|--------|--------|--------|--------|--------|--------|--------|--------|
A#|--------|--------|--------|--------|--------|--------|--------|--------|--------|
F#|--------|--------|--------|--------|--------|--------|--------|--------|--------|
C#|--------|--------|--------|--------|--------|--------|--------|--------|--------|
G#|--------|--------|--------|--------|--------|--------|--------|--------|--------|
D#|--------|--------|--------|--------|--------|--------|--------|--------|--------|


D#|--------|--------|--------|--------|--------|--------|--------|--------|--------|
A#|--------|--------|--------|--------|--------|--------|--------|--------|--------|
F#|--------|--------|--------|--------|--------|--------|--------|--------|--------|
C#|--------|--------|--------|--------|--------|--------|--------|--------|--------|
G#|--------|--------|--------|--------|--------|--------|--------|--------|--------|
D#|--------|--------|--------|--------|--------|--------|--------|--------|--------|


D#|--------|--------|--------|--------|--------|--------|--------|---------------------|
A#|--------|--------|--------|--------|--------|--------|--------|-11----11--11----11--|
F#|--------|--------|--------|--------|--------|--------|--------|-11----11--11----11--|
C#|--------|--------|--------|--------|--------|--------|--------|---------------------|
G#|--------|--------|--------|--------|--------|--------|--------|---------------------|
D#|--------|--------|--------|--------|--------|--------|--------|---------------------|


D#|-----------------------------------------|----9-------------------9--------------|
A#|-11-11---11-11-11-9--11-9----------------|-9--9-------------9--9--9--------------|
F#|-11-11---11-11-11-9--11-9----------------|-10------------11------------------11--|
C#|---------------------------11--11-9------|-----------9---11--------------9---11--|
G#|-------------------------------------11--|-----------9---------------------------|
D#|-----------------------------------------|-------12------------------12----------|


D#|-9--------------9--9--9--------------|-9--9-------------9--9--9--------------|-9--9-------------9--9--9--------------|
A#|-9--------------9--9--9--------------|-9--9-------------9--9--9--------------|-9--9-------------9--9--9------11--11--|
F#|-10----------11------------------11--|-10------------11------------------11--|-10------------11--------------11--11--|
C#|---------9---11--------------9---11--|-----------9---11--------------9---11--|-----------9---11--------------11--11--|
G#|---------9-------------------9-------|-----------9---------------------------|---------------------------------------|
D#|-----12------------------12----------|-------12------------------12----------|-------12------------------9-----------|


D#|-9--------------9--9-----------------|-9--------------9--9--9-----9--14-9--12--|
A#|-9--------------9--9--9--------------|-9--------------9--9--9-----9--14-9--12--|
F#|----------------------9----------11--|-------------11-10-10-10-----------------|
C#|---------9---11--------------9---11--|---------9---11--------------------------|
G#|-------------------------------------|-----------------------------------------|
D#|-----12------------------12----------|-----12----------------------------------|


D#|-9--------------9--9--9-----9--14-9--12--|-9--9-------------------9-----9--14-9--12--|
A#|-9--------------9--9--9-----9--14-9--12--|-9--9-------------9--9--9-----9--14-9--12--|
F#|-------------11----------10--------------|-10-10---------11-9--9---------------------|
C#|---------9---11--------------------------|-----------9---11--------------------------|
G#|-----------------------------------------|-------------------------------------------|
D#|-----12----------------------------------|-------12------------------12--------------|


D#|-9--9---------------9--9--9-----9--14--12--|-12---------------9--9--9-----9--14-9--12-12-|
A#|-9--9---------------9--9--9-----9--14--12--|-12-9-------------9--9--9-----9--14-9--12-12-|
F#|-10-10--------------9--9--10-10------------|-11-9-------------10-10-10-------------------|
C#|-----------9--9--11------------------------|-----------9---11----------------------------|
G#|-----------9-------------------------------|---------------------------------------------|
D#|-------12----------------------------------|-------12------------------12----------------|


D#|-9--9-------------9--9--9-----9--14-9--12--|-9----------------9--9--9-----9--14-9--12-12-|
A#|-9--9-------------9--9--9-----9--14-9--12--|-9--9-------------9--9--9-----9--14-9--12-12-|
F#|---------------11-9--9--10-10--------------|---------------11-------10-10----------------|
C#|-----------9---11--------------------------|-----------9---11----------------------------|
G#|-------------------------------------------|---------------------------------------------|
D#|-------12----------------------------------|-------12------------------------------------|


D#|-9----------------9-----9-----9--14-9--12--|-9----------------9--9-----------9--9--9-----|
A#|-9--9-------------9--9--9--9--9--14-9--12--|-9--9-------------9--9--9-----9--9--9--9-----|
F#|----9----------11-10-10----10--------------|---------------11-------10-10-10-10-10-10-9--|
C#|-----------9---11--------------------------|-----------9---11----------------------------|
G#|-------------------------------------------|---------------------------------------------|
D#|-------12----------------------------------|-------12------------------------------------|


D#|-12-12--12-12----------------------------|-------------------------------------------|
A#|-12-12--12-12--11-11----11-11--9--9---9--|-9------7--7--7--7--5--5--5---5------------|
F#|---------------11-11----11-11--9--9---9--|-9---8--8--8--8--8--6--6--6---6--6---------|
C#|-----------------------------------------|-------------------------------------9--11-|
G#|-----------------------------------------|-------------------------------------------|
D#|-----------------------------------------|-------------------------------------------|


D#|-------------------------------------|---------------------------------------|---------------------------------------|
A#|-----------------------11--------7---|-------------------9-------------------|-------------7-------------------------|
F#|-9-----------------11--11--------7---|-------------------9---------5---------|-------------7---------4---------------|
C#|-----11-9----------11------7--9------|-9--7----------9-------5--7------7--5--|---------7-------4--6------6--4--4-----|
G#|-----------10--9---------------------|-------8---7---------------------------|-6---5---------------------------5--4--|
D#|-------------------------------------|---------------------------------------|---------------------------------------|


D#|-4--4---7--7---10-10-10-13---16---|-16-----16---|-16----------|
A#|-4--4---7--7---10-10-10-13---16---|-16-----16---|-16----------|
F#|-4--4---7--7---10-10-10-13---16---|-16-----16---|-16----------|
C#|-3--3---6--6---9--9--9--12---15---|-15-----15---|-15----------|
G#|-4--4---7--7---10-10-10-13---16---|-16-----16---|-16----------|
D#|----------------------------------|-------------|-------------|





Track 7: Bass (detuned 1/2 a step)

F#|--------|--------|--------|--------|---------------------------------|---------------------------------|
C#|--------|--------|--------|--------|---------------------------------|---------------------------------|
G#|--------|--------|--------|--------|-4---------------2---4---4---2---|-4---------------2---4---4---2---|
D#|--------|--------|--------|-9------|-----0---2---4-------------------|-----0---2---4-------------------|


F#|-----------------------------------|-----------------------------------|-----------------------------------|
C#|-----------------------------------|-----------------------------------|-----------------------------------|
G#|-4--4--------------2---4---4---2---|-4--4--------------2---4---4---2---|-4--4--------------2---4---4---2---|
D#|-------0---2---4-------------------|-------0---2---4-------------------|-------0---2---4-------------------|


F#|-----------------------------------|-----------------------------------|-----------------------------------|
C#|-----------------------------------|-----------------------------------|-----------------------------------|
G#|-4--4--------------2---4---4---2---|-4--4--------------2---4---4---2---|-4--4--------------2---4---4---2---|
D#|-------0---2---4-------------------|-------0---2---4-------------------|-------0---2---4-------------------|


F#|-----------------------------------|-----------------------------------|-----------------------------------|
C#|-----------------------------------|-----------------------------------|-----------------------------------|
G#|-4--4--------------2---4---4---2---|-4--4--------------2---4---4---2---|-4--4--------------2---4---4---2---|
D#|-------0---2---4-------------------|-------0---2---4-------------------|-------0---2---4-------------------|


F#|-------------------------------4---6--6--|-----------------------------------|---------------------------------|
C#|----3------4------5--5-----6-------------|---------------------2-----2-------|---------------------4---4---2---|
G#|-4------4------4--------4----------------|-------------4---4------4------4---|-------------4---4---------------|
D#|-----------------------------------------|-0---0---0-------------------------|-0---0---0-----------------------|


F#|-----------------------------------|-----------------------------------|-----------------------------------|
C#|---------------------2-----2-------|---------------------2-----2-------|---------------------2-----2-------|
G#|-------------4---4------4------4---|-------------4---4------4------4---|-------------4---4------4------4---|
D#|-0---0---0-------------------------|-0---0---0-------------------------|-0---0---0-------------------------|


F#|-----------------------------------|-----------------------------------|-----------------------------------|
C#|---------------------2-----2-------|---------------------2-----2-------|---------------------2-----2-------|
G#|-------------4---4------4------4---|-------------4---4------4------4---|-------------4---4------4------4---|
D#|-0---0---0-------------------------|-0---0---0-------------------------|-0---0---0-------------------------|


F#|-------------------------------------|-------------------------------------|-------------------------------------|
C#|-------------------------------------|-------------------------------------|-------------------------------------|
G#|-4-----------2--4-----4----------2---|-4-----------2--4-----4----------2---|-4-----------2--4-----4----------2---|
D#|-----0---4---------------0---4-------|-----0---4---------------0---4-------|-----0---4---------------0---4-------|


F#|-------------------------------------|-------------------------------------|-------------------------------------|
C#|-------------------------------------|-------------------------------------|-------------------------------------|
G#|-4-----------2--4-----4----------2---|-4-----------2--4-----4----------2---|-4-----------2--4-----4----------2---|
D#|-----0---4---------------0---4-------|-----0---4---------------0---4-------|-----0---4---------------0---4-------|


F#|-------------------------------------|-------------------------------------|-------------------------------------|
C#|-------------------------------------|-------------------------------------|-------------------------------------|
G#|-4-----------2--4-----4----------2---|-4-----------2--4-----4----------2---|-4-----------2--4-----4----------2---|
D#|-----0---4---------------0---4-------|-----0---4---------------0---4-------|-----0---4---------------0---4-------|


F#|-------------------------------------|-------------------------------------|-------------------------------4---6--6--|
C#|-------------------------------------|-------------------------------------|----3------4------5--5-----6-------------|
G#|-4-----------2--4-----4----------2---|-4-----------2--4-----4----------2---|-4------4------4--------4----------------|
D#|-----0---4---------------0---4-------|-----0---4---------------0---4-------|-----------------------------------------|


F#|-----------------------------------|-----------------------------------|-----------------------------------|
C#|---------------------2-----2-------|---------------------4---6--4--2---|---------------------2-----2-------|
G#|-------------4---4------4------4---|-------------4---4-----------------|-------------4---4------4------4---|
D#|-0---0---0-------------------------|-0---0---0-------------------------|-0---0---0-------------------------|


F#|-----------------------------------|-----------------------------------|-----------------------------------|
C#|---------------------2-----2-------|---------------------2-----2-------|---------------------2-----2-------|
G#|-------------4---4------4------4---|-------------4---4------4------4---|-------------4---4------4------4---|
D#|-0---0---0-------------------------|-0---0---0-------------------------|-0---0---0-------------------------|


F#|-----------------------------------|-----------------------------------|---------------------------------|
C#|---------------------2-----2-------|---------------------2-----2-------|---------------------------------|
G#|-------------4---4------4------4---|-------------4---4------4------4---|-----------------------------2---|
D#|-0---0---0-------------------------|-0---0---0-------------------------|-0---0-------2-------4-----------|


F#|-----------------------------2---|---------------------------|------------------4----2---|
C#|-------------2-------4-----------|-4-------------------------|---------------------------|
G#|-----4---------------------------|------------------2----2---|---------------------------|
D#|---------------------------------|-----2---------------------|-0---2---------------------|


F#|---------------------------|------------------4----2---|---------------------------|
C#|-4-------------------------|---------------------------|-4-------------------------|
G#|------------------2----2---|---------------------------|------------------2----2---|
D#|-----2---------------------|-0---2---------------------|-----2---------------------|


F#|------------------4----2---|---------------------------|---------------17----|-----------------------------------------|
C#|---------------------------|-4-------------------------|---------------------|-4--4--4--4--4--4--4--4--4---------------|
G#|---------------------------|------------------2----2---|---------------------|-----------------------------------------|
D#|-0---2---------------------|-----2---------------------|-0---2---------------|-----------------------------2-------5---|


F#|-----------------------|-----------------------------------------|-----------------------|
C#|-----------------2-----|-4--4--4--4--4--4--4--4--4---------------|-----------------4-----|
G#|-----2-------4---------|-----------------------------------------|-----2-------4---------|
D#|-----------------------|-----------------------------2-------5---|-----------------------|


F#|-----------------------------------------|-----------------------|-----------------------------------------|
C#|-4--4--4--4--4--4--4--4--4---------------|-----------------2-----|-4--4--4--4--4--4--4--4--4---------------|
G#|-----------------------------------------|-----2-------4---------|-----------------------------------------|
D#|-----------------------------2-------5---|-----------------------|-----------------------------2-------5---|


F#|-----------------------|---------------------------------------|----------------------------------|
C#|-----------------4-----|-4--4--4--4--4---2--1------------------|---------------------2------------|
G#|-----2-------4---------|-----------------------4-----------1---|-----2------2--3--4---------------|
D#|-----------------------|---------------------------2-----------|-------------------------0--------|


F#|---------------------------------------|----------------------------------|---------------------------------------|
C#|-4--4--4--4--4---2--1------------------|---------------------2------------|-4--4--4--4--4---2--1------------------|
G#|-----------------------4-----------1---|-----2------2--3--4---------------|-----------------------4-----------1---|
D#|---------------------------2-----------|-------------------------0--------|---------------------------2-----------|


F#|----------------------------------|---------------------------------------|----------------------------------|
C#|---------------------2------------|-4--4--4--4--4---2--1------------------|---------------------2------------|
G#|-----2------2--3--4---------------|-----------------------4-----------1---|-----2------2--3--4---------------|
D#|-------------------------0--------|---------------------------2-----------|-------------------------0--------|


F#|--------|--------|--------|--------------------|-------------------------------------|
C#|--------|--------|--------|--------------------|-------------------------------------|
G#|-4------|-4------|--------|----------16--14----|-4-----------2--4-----4----------2---|
D#|--------|--------|--------|--------------------|-----0---4---------------0---4-------|


F#|-------------------------------------|-------------------------------------|-------------------------------------|
C#|-------------------------------------|-------------------------------------|-------------------------------------|
G#|-4-----------2--4-----4----------2---|-4-----------2--4-----4----------2---|-4-----------2--4-----4----------2---|
D#|-----0---4---------------0---4-------|-----0---4---------------0---4-------|-----0---4---------------0---4-------|


F#|-------------------------------------|-------------------------------------|-------------------------------------|
C#|-------------------------------------|-------------------------------------|-------------------------------------|
G#|-4-----------2--4-----4----------2---|-4-----------2--4-----4----------2---|-4-----------2--4-----4----------2---|
D#|-----0---4---------------0---4-------|-----0---4---------------0---4-------|-----0---4---------------0---4-------|


F#|-------------------------------------|-------------------------------------|-------------------------------------|
C#|-------------------------------------|-------------------------------------|-------------------------------------|
G#|-4-----------2--4-----4----------2---|-4-----------2--4-----4----------2---|-4-----------2--4-----4----------2---|
D#|-----0---4---------------0---4-------|-----0---4---------------0---4-------|-----0---4---------------0---4-------|


F#|-------------------------------------|-------------------------------------|-6--6---4--4-----------------------------|
C#|-------------------------------------|-------------------------------------|---------------6--6--6--4--4-------------|
G#|-4-----------2--4-----4----------2---|-4-----------2--4-----4----------2---|-------------------------------7--7---4--|
D#|-----0---4---------------0---4-------|-----0---4---------------0---4-------|-----------------------------------------|


F#|---------------------------------------|-9---------------------11------7---|-------------------9-------5---------|
C#|-----------------------------------11--|-----11-9----------11------9-------|-9--7----------9-------7-------7--5--|
G#|-4---4--4--4--4--4---4--4---4--4-------|-----------10--9-------------------|-------8---7-------------------------|
D#|---------------------------------------|-----------------------------------|-------------------------------------|


F#|-------------7-------4-------------|----6------9------12-12----15-----18---|-18-----|
C#|---------7-------6-------6--4------|---------------------------------------|--------|
G#|-6---5-------------------------6---|-4------7------10-------13-----16------|--------|
D#|-----------------------------------|---------------------------------------|--------|


F#|-18----------|
C#|-------------|
G#|-------------|
D#|-------------|





Track 8: Drums

F#|--------|--------|--------|------------------------------|-6----5---5---5----5---5---|
C#|--------|--------|--------|------------2--2--2--2--2--2--|------2--------------------|
G#|--------|--------|--------|------------------------------|-0------------0------------|
D#|--------|--------|--------|------------------------------|---------------------------|


F#|-5----5---5--5--5----5---5---|-5--5------5---5---5---5---5---5---|-5--5------5---5---5----5---5---|
C#|-----------------------------|---------------------------2-------|-----------2------------2-------|
G#|-0--------------0------------|-0--0--------------0---------------|-0--0--------------0------------|
D#|-----------------------------|-----------------------------------|--------------------------------|


F#|-5--5------5---5---5---5---5---5---|-5--5------5---5---5---5---5---5---|-5--5------5---5---5----5---5---|
C#|-----------2---------------2-------|-----------2---------------2-------|-----------2------------2-------|
G#|-0--0--------------0---------------|-0--0--------------0---------------|-0--0--------------0------------|
D#|-----------------------------------|-----------------------------------|--------------------------------|


F#|-5--5------5---5---5---5---5---5---|-5--5------5---5---5---5---5---5---|-5--5------5---5---5---5---5---5---|
C#|-----------2---------------2-------|-----------2---------------2-------|-----------2---------------2-------|
G#|-0--0--------------0---------------|-0--0--------------0---------------|-0--0--------------0---------------|
D#|-----------------------------------|-----------------------------------|-----------------------------------|


F#|-5--5------5---5---5---5---5---5---|-5--5------5---5---4---------------------|-6-------4---4-------4---4---4--4--|
C#|-----------2---------------2-------|-----------2-----------2--2--2--2--2--2--|---------2---------------2---2--2--|
G#|-0--0--------------0---------------|-0--0--------------0---------------------|-0---0-------0-------0-------------|
D#|-----------------------------------|-----------------------------------------|-----------------------------------|


F#|-4-----4-----4-----6-------4-------4-----|-4---4---4---6-------4---4---4-----|-4-----4-----4-----6-------4------4------|
C#|----2--------6--6--------------2---2--2--|---------2---------------2---2--2--|----2--------6--6--------------2--2--2---|
G#|-0-----0--0--------0-------0-------------|-0---0-------0-------0-------------|-0-----0--0--------0-------0-------------|
D#|-----------------------------------------|-----------------------------------|-----------------------------------------|


F#|-4---4---4---6-------4---4---4--4--|-4-----4-----4-----6-------4---4--4------|-4---4---4---6-------4---4---4--4--|
C#|---------2---------------2---2--2--|----2--------6--6--------------2--2--2---|---------2---------------2---2--2--|
G#|-0---0-------0-------0-------------|-0-----0--0--------0-------0-------------|-0---0-------0-------0-------------|
D#|-----------------------------------|-----------------------------------------|-----------------------------------|


F#|-4-----4-----4-----6---4---4---4----|-5---5---5---5--5------5---5---5---|-5---5---5---5--5------5---5---5---|
C#|----2--------6--6--------------2----|---------2-----------------2-------|---------2-----------------2-------|
G#|-0-----0--0--------0-------0--------|-0-----------0--0------0-----------|-0-----------0--0------0-----------|
D#|------------------------------------|-----------------------------------|-----------------------------------|


F#|-5---5---5---5--5------5---5---5---|-5---5---5---5--5------5---5---5---|-5---5---5---5--5------5---5---5---|
C#|---------2-----------------2-------|---------2-----------------2-------|---------2-----------------2-------|
G#|-0-----------0--0------0-----------|-0-----------0--0------0-----------|-0-----------0--0------0-----------|
D#|-----------------------------------|-----------------------------------|-----------------------------------|


F#|-5---5---5---5--5------5---5---5---|-5---5---5---5--5------5---5---5---|-5----5---5--5------5---5---5---|
C#|---------2-----------------2-------|---------2-----------------2-------|------2-----------------2-------|
G#|-0-----------0--0------0-----------|-0-----------0--0------0-----------|-0--------0--0------------------|
D#|-----------------------------------|-----------------------------------|--------------------------------|


F#|-5----5---5--5------5---5---5---|-5----5---5--5------5---5---5---|-5---5---5---5--5------5---5---5---|
C#|------2-----------------2-------|------2-----------------2-------|---------2-----------------2-------|
G#|-0--------0--0------------------|-0--------0--0------------------|-0-----------0--0------0-----------|
D#|--------------------------------|--------------------------------|-----------------------------------|


F#|-4---4---4-------------------------1--------|-4-------4---6-------4---4---4-----|
C#|---------2---2--2--2--2--2---2--------2--2--|---------2---------------2---2--2--|
G#|-0---0--------------------------------------|-0---0-------0-------0-------------|
D#|--------------------------------------------|-----------------------------------|


F#|-4--4--------------6-----------4-------|-4---4-------6-------4-------4-----|-4-----4-----4-----6-------4---------------|
C#|-------2--2--------------------2-------|---------2---------------2---2--2--|----2--------6--6--------------2--2--2--2--|
G#|-------------4--4----------------------|-0---0-------0-------0-------------|-0-----0--0--------0-------0---------------|
D#|-5--5--------------5-------5-------5---|-----------------------------------|-------------------------------------------|


F#|-4---4-------6-------4-------4-----|-4--4--------------6-------4---4---4-----|-4---4-------6-------4-------4-----|
C#|---------2---------------2---2--2--|-------2--2--------------------2---2--2--|---------2---------------2---2--2--|
G#|-0---0-------0-------0-------------|-------------4--4------------------------|-0---0-------0-------0-------------|
D#|-----------------------------------|-5--5--------------5-------5-------5-----|-----------------------------------|


F#|-4-----4-----4-----6-------4---------------|-4---4---4-----6---4-----6---4-----6---|
C#|----2--------6--6--------------2--2--2--2--|---------2--2------2--2------2--2------|
G#|-0-----0--0--------0-------0---------------|-0---0---------0---------0---------0---|
D#|-------------------------------------------|---------------------------------------|


F#|-4---4---4-----6---4-----6---4-----6---|-----4------4--------------6-------4---|
C#|---------2--2------2--2------2--2------|---------6-----6--6--6--6----------6---|
G#|-----0---------0---------0---------0---|---------------------------------------|
D#|---------------------------------------|-5---5---5-----------------5-----------|


F#|-----4------4--4---4---6-------4---|-4---4------4--4---4---6---4--4--4-----|-----------------------6-------4---|
C#|---------2-------------------------|---------2--------------------------2--|---------2---------------------2---|
G#|-----------------------------------|---------------------------------------|-----------------------------------|
D#|-5---5------5--5-------5-------5---|-5---5------5--5-------5---------------|-5---5------5--5-------5-----------|


F#|-4---4------4--4---4---6-------4---|-4---4------4--4---4--4--4---4--4--4-----|-4---4------4--4---4---6-------4---|
C#|---------2---------------------2---|---------2----------------------------2--|---------2---------------------2---|
G#|-----------------------------------|-----------------------------------------|-----------------------------------|
D#|-5---5------5--5-------5-----------|-5---5------5--5-------------------------|-5---5------5--5-------5-----------|


F#|-----------------------------------1--1--------|-4-----4--4-----4--------4-----4---4---4---|
C#|--------2-----2-----2--2--2--2--2--------------|----2--------2-----2--2-----2----------2---|
G#|-4---4-----4-----4-----------------------4--4--|-------------------------------------------|
D#|-5---5-----5-----5-----5-----------------------|-5-----------------------5-----5-----------|


F#|-4---4---4---4---4---4---4---4---|-4---4--4-----4--4---4-----4---4---4---|-1-----------------4---1---------------------4-------|
C#|---------2---------------2-------|-----------2------------6------2-------|----2--2--2--2--2---------2--2--2--2--2--2---2-------|
G#|---------------------------------|---------------------------------------|-----------------------------------------------------|
D#|-----5-----------5---5-----------|-5------------5------5-----5-----------|-------------------------------------------------5---|


F#|-4-----4--4-----4--------4-----4---4---4---|-----4-----------------------4-----------|
C#|----2--------2-----2--2-----2------2-------|-2-------2-------2-----2-----2--2--2--2--|
G#|-------------------------------------------|-----------------------------------------|
D#|-5-----------------------5-----5-------5---|-----5-------5------5-----5--------------|


F#|-4-----4--4-----4--------4---------4---4---|-1-----------------4---1---------------------4-------|
C#|----2--------2-----2--2-----2------2-------|----2--2--2--2--2---------2--2--2--2--2--2---2-------|
G#|-------------------------------4-----------|-----------------------------------------------------|
D#|-5-----------------------5-------------5---|-------------------------------------------------5---|


F#|-4----4--4------4-------6-------|-6----------4--4-----4--4--6---4------------|-4---4---4-----4--4--4---4---6---4---|
C#|------2-----2-----------2-------|---------2--------2------------2---2--2--2--|---------2--------2----------2-------|
G#|--------------------------------|--------------------------------------------|-------------------------------------|
D#|-5-------5------5---5-------5---|-0---0------0--------------0----------------|-5----------5--------5---5-----------|


F#|-6--6---6--6---6--6-----6--6-------------|-6---4---4---4--------4-------4----|----4--4-----4-----4-----6---------4---------|
C#|-------------------------------2---------|---------2------2--2----------2----|-2--------2-----2--------2---2--2------------|
G#|-----------------------------------------|-----------------------------------|---------------------------------------4--4--|
D#|-5--5---5--5---5--5-----5--5------5--5---|-5---5----------------5---5--------|----0--------0-----0--0----------------------|


F#|-4-------4----4-------4---4---|-------------------------------------------|-----------------|
C#|---------2--------------------|-2--2---2--2---2--2-----2--2---2-----2-----|-----------------|
G#|------------------------------|-4--4---4--4---4--4-----4--4---4-----4-----|-----------------|
D#|-5---5--------5---5-----------|----------------------------------5-----5--|-5---------------|


F#|--------|-------------------------------------------|-----------------------------------------------------|
C#|--------|-2---2--2--2--2--2--2-----2--2--2--2---2---|-2---2--2--2--2--2--2-----2--2--2--2--2--2--2--2--2--|
G#|--------|-------------------------------------------|-----------------------------------------------------|
D#|--------|-------------------------------------------|-----------------------------------------------------|


F#|-6---4---4---4--4------4---4----|-4---4---4---4--4------4---4---4---|-4---4--4--4---6--6------4--4------4---|
C#|---------2-----------------2----|---------2-----------------2-------|-------------------------------2-------|
G#|--------------------------------|-----------------------------------|---------------------------------------|
D#|-5-----------5--5------5--------|-5---5-------5--5------5-----------|-5-------------5--5--------------------|


F#|-4---4--4--4---6--6------4---4---4---|-4---4--4--4---6--6------4--4------4---|-4---4--4--4---6--6------4--4--4---4---|
C#|-----------------------------2-------|-------------------------------2-------|-------------------------------2-------|
G#|-------------------------------------|---------------------------------------|---------------------------------------|
D#|-5-------------5--5------5-----------|-5-------------5--5------5-------------|-5-------------5--5------5-------------|


F#|-4---4--4--4---6--6------4--4------4---|-4---4--4--4---6--6------4--4--4---4---|
C#|-------------------------------2-------|-------------------------------2-------|
G#|---------------------------------------|---------------------------------------|
D#|-5-------------5--5------5-------------|-5---5---------5--5----------------5---|


F#|-4---4--4--4---6--6------4--4--4---4---|-4---4--4--4---6--6------4--4--4---4---|
C#|-------------------------------2-------|-------------------------------2-------|
G#|---------------------------------------|---------------------------------------|
D#|-5---5---------5--5--------------------|-5-------------5--5------5-------------|


F#|-4---4--4--4---6--6------4--4--4---4---|-4---4--4--4---6--6------4--4--4---4---|
C#|-------------------------------2-------|-------------------------------2-------|
G#|---------------------------------------|---------------------------------------|
D#|-5---5---------5--5--------------------|-5---5---------5--5--------------------|


F#|-----------------------------------------|-----------------------------------------|
C#|-2--2---2--2---2--2-----2--2---2--2---2--|-2---6--6-----6--6---2--2---2--2---2--2--|
G#|-4--4---4--4---4--4-----4--4---4--4---4--|-4---4--4-----4--4---4--4---4--4---------|
D#|-----------------------------------------|-----------------------------------------|


F#|----------------1--1--1--1--1--1----------------|-----------------------------------------------------|
C#|-2--2--2--2--2---------------------2---2--2-----|-2--2-----2--2-----2-------------------------2-2-2---|
G#|------------------------------------------------|----------------------4--4--4--4--4--4---------------|
D#|---------------------------------------------5--|-------5--------5------------------------------------|


F#|--------1-1-1-1-1-1-1-------------------------1--|-6------6--------6------6------4----|
C#|---------------------------2---2--2--2--2--2-----|-----2--------2------2------2-------|
G#|-4-4-4-----------------4-------------------------|------------------------------------|
D#|-------------------------------------------------|-5------5--------5------5------5----|


F#|-4------|--------|
C#|--------|--------|
G#|--------|--------|
D#|--------|--------|