Menu:

 

Search:

 

jimi hendrix - fire live:

 



Title: Fire
Artist: 
Album: Live At Woodstock
Author: Jimi Hendrix


Track 1: Naturally Overdriven Guitar

D#|------------------------------|------------------------------|---------------------------|
A#|-13--12--12-------------------|-10--12-----------------------|-13------12----------------|
F#|-13--12--12---0---4---6---6---|-10--12---------------4-------|-13------12---2----16------|
C#|-13--12--12-----------7---7---|-10--12--12--12--12-------0---|-13------12------------16--|
G#|-11--10--10-----------7---7---|---------12--12---------------|-11--10--10----------------|
D#|------------------------------|---------10--10--10-----------|---------------------------|


D#|------------------------------|-----------------------------|--------------------|
A#|------------------------------|-----------------------------|--------------------|
F#|-10--12-----------------------|-----------------------------|--------------------|
C#|---------12--12--12-----------|-10--12-10-12----------------|--------------------|
G#|---------12--12-----------12--|-----------------------------|----------------12--|
D#|---------10--10--10---0-------|-----------------------------|--------------------|


D#|---------------------------|--------------------|-----------------------------|
A#|-10------------------------|--------------------|-----------------------------|
F#|-10------------------------|--------------------|-----------------------------|
C#|-10--12------12------------|--------------------|-10--12-10-12----------------|
G#|---------------------------|----------------12--|-----------12----------------|
D#|---------10----------------|--------------------|-----------10----------------|


D#|--------------------|-----------------------------|--------------------|-----------------------------|
A#|--------------------|-----------------------------|--------------------|-----------------------------|
F#|--------------------|-----10--10------------------|--------------------|-10--10----10----------------|
C#|--------------------|-10--12--12-10-12------------|--------------------|-10--12-10-12----------------|
G#|----------------12--|-----------------------------|----------------12--|-----------------------------|
D#|--------------------|-----------------------------|--------------------|-----------------------------|


D#|----------------------|-----------------------------|------------------------------|
A#|----------------------|-----------------------------|---------13---13--13--13--13--|
F#|----------------------|-----------------------------|------10-12---12--12--12--12--|
C#|----------------------|-10--12-10-12----------------|------------------------------|
G#|----------------12-12-|-----------12----------------|------------------------------|
D#|----------------------|-----------10----------------|------------------------------|


D#|-------------------10------12--10--|-----10--10--10--10----------------|------------------------12--10--|
A#|-13----------------10------10--10--|-----8---8---8---8-----------------|-------------------10---10--10--|
F#|-12--12-10---------11------11--11--|-----9---9---9---9---------12------|---------------11--11---11--11--|
C#|-----------12-12---12------12------|-----10--10--10--10--------12--14--|-----------12-----------12------|
G#|-----------------------------------|-0-------------------14-14---------|-14-14-12--12-------------------|
D#|--------------10-------10----------|-----------------------------------|-----------10-------------------|


D#|-----10--10--10--10------------------|-----------------10------12--10--|-10--10--10--10--10---10---|
A#|-----8---8---8---8-------------------|-----------------10------10--10--|-10--8---8---8---8----8----|
F#|-----9---9---9---9---------12----12--|-------------11--11------11--11--|-11--9---9---9---9----9----|
C#|-----10--10--10--10--------12-14-12--|-12----------12----------12------|-----10--10------10---10---|
G#|---------------------10-12-----------|-14--14--------------------------|-----0---0-----------------|
D#|-------------------------------------|---------10----------10----------|---------------------------|


D#|-------------------10-10-10--12-12-10--|-----10--10--10--10--8---------------|--------------------------|
A#|-------------------10-10-10--10-10-10--|-----8---8---8---8---8---------------|--------------------------|
F#|-------------------11-11-11--11-11-11--|-----9---9---9---9---8---------------|-12-12--------------------|
C#|-------------------12----12--12----12--|-0---10--10--10--10------------12-14-|-12-12-----12-------------|
G#|-14------------------------------------|-0---0---0---------------12-14-------|-------14-----------------|
D#|-----10-10-10--10----------------------|-------------------------------------|-------12-----------------|


D#|----------------------|-----------------------------|--------------------|-----------------------------|
A#|----------------------|-----------------------------|--------------------|-----------------------------|
F#|----------------------|-----------------------------|--------------------|-10--10----10----------------|
C#|----------------------|-10--12-10-12----------------|--------------------|-10--12-10-12----------------|
G#|----------------10-12-|-----------------------------|----------------12--|-----------------------------|
D#|----------------------|-----------------------------|--------------------|-----------------------------|


D#|--------------------|-----------------------------|--------------------|-------------------------------|
A#|--------------------|-----------------------------|--------------------|-------------------------------|
F#|----------------10--|-10--10----------------------|----------------10--|-10----------------------------|
C#|----------------10--|-10--10--12-10---------------|----------------10--|-10--12-10-12-10---------------|
G#|--------------------|-----------------------------|----------------12--|-------------------------------|
D#|--------------------|---------------10------------|--------------------|-------------------------------|


D#|--------------------|-------------------------------|---------------------------------------------|
A#|--------------------|-------------------------------|---------------------------------------------|
F#|----------------10--|-10----------------------------|------10-12-10-12-10-12-10-12-10-12-10-12-10-|
C#|----------------10--|-10--12-10-12-10---------------|---------------------------------------------|
G#|----------------12--|-------------------------------|---------------------------------------------|
D#|--------------------|-------------------------------|---------------------------------------------|


D#|------------------10------12--10--|-----10--10------------------------|------------------------10-12--10--|
A#|------------------10------10--10--|-0---8---8-------------------------|-----------------10--10-10-10--10--|
F#|-12-10-12-10------11------11--11--|-0---9---9---9---11--11-11-12--12--|-13--14----------11--11-11-11--11--|
C#|------------------12------12--12--|-----10--10--10--9---9--9--10--10--|-11--12----------12--12----12--12--|
G#|----------------------------------|-----------------9---9--9--10--10--|-11--12----------12--12------------|
D#|-------------10-------10----------|-----------------------------------|---------10--10--10--10------------|


D#|-----10--10--10-10-10-------------|--------------10------12--10--|-----10--10------10----------------|
A#|-----8---8---8--8--8--------------|-8------------10------10--10--|-----8---8-------8-----------------|
F#|-----9---9---9--9--9---9--9--9----|-9------------11------11--11--|-----9---9---9---9-----------------|
C#|-----10--10--10----10--10-10-10---|-10-----------12------12--12--|-0---10--10--10------9--9--12--12--|
G#|-0--------------------------------|------------------------------|-0---------------------------------|
D#|----------------------------------|------10--10------10----------|-----------------------------------|


D#|---------------------------12-12-12--12-10-|-------10--10----0---10--10--|-10--------------|
A#|---------------------------10-10-10--10-10-|-------8---8-----0---8---8---|-8----10----10---|
F#|---------------------------11-11-11--11-11-|-------9---9---------9---9---|-9----11----11---|
C#|-14-12----12-12--12-12-12--12-12-12--12-12-|----0--10--10--------10--10--|-10---12----12---|
G#|-------14----12--12-12-12------------------|----0------------------------|------12---------|
D#|-------------10--10-10-10------------------|-----------------------------|------10----10---|


D#|-------------|---------10-----|------10-------------|---------5------|------5----5-----|
A#|-10---10-----|-10------8------|------8--------------|---------5------|------5----5-----|
F#|-11---11-----|-11------9------|------9--------------|---------6------|------6----6-----|
C#|-12---12-----|-12--10--10-----|------10-------------|---------7------|------7----7-----|
G#|-------------|-----8----------|---------------------|---------7------|-----------7-----|
D#|-10---10-----|-10--8----------|-----------0---0-----|-0---0---5------|------5----5-----|


D#|------------------------|-----------------|-10-----------------|-----------------------|
A#|------------------------|-----------------|------15----15--15--|-15--------------------|
F#|------------------------|-----------------|--------------------|-----12--12----12--12--|
C#|------------------10----|------10----10---|--------------------|-----------------------|
G#|------------------8-----|-----------------|--------------------|-----------------------|
D#|------8---8---8---8-----|------8-----8----|--------------------|-----------------------|


D#|---------------------------|----------------------------|--------------------|-----15--15----15----------|
A#|-----0---15--15----15--15--|-0--------------------------|------15----15--15--|-----15--15----15--15--15--|
F#|-----0---------------------|-0---14--14---14---14---14--|-13-----------------|---------------------------|
C#|---------------------------|----------------------------|--------------------|---------------------------|
G#|---------------------------|----------------------------|--------------------|---------------------------|
D#|---------------------------|----------------------------|--------------------|---------------------------|


D#|----------------------|-----------------------|---------14---------------------|
A#|-15---15----15-15-12--|-----------------------|-----14------17-17-17--17--17---|
F#|----------------------|-14--12--12----0---9---|-16-----------------------------|
C#|----------------------|-----------------------|--------------------------------|
G#|----------------------|-----------------------|--------------------------------|
D#|----------------------|-----------------------|--------------------------------|


D#|-----14--------14--17--17--17----17--|-----17--17----14-17-14------|-14--16--14---------------------|
A#|---------17-17----------------17-----|-------------------------17--|-------------14-14-14-----------|
F#|-------------------------------------|-----------------------------|------------------------14------|
C#|-------------------------------------|-----------------------------|----------------------------16--|
G#|-------------------------------------|-----------------------------|--------------------------------|
D#|-------------------------------------|-----------------------------|--------------------------------|


D#|-----------------12--14--14------|---------14--14-14-------------------------|--------------------------------12------|
A#|-------------12------------------|---------------------------------------12--|-14--12-----------------------------15--|
F#|-----2---13------------------12--|-11--12---------------12-11------12-13-----|---------12-12---14-14-14-12------------|
C#|---------------------------------|-------------------0---------14------------|-----------------------------14---------|
G#|---------------------------------|-------------------------------------------|----------------------------------------|
D#|---------------------------------|-------------------------------------------|----------------------------------------|


D#|-12------12--15--15--15--15---15--0---|---------14--------14-----14-17-14----17-14-|
A#|-----15---------------------------0---|-----14------17-17-----17----------17-------|
F#|----------------------------------0---|-15-----------------------------------------|
C#|--------------------------------------|--------------------------------------------|
G#|--------------------------------------|--------------------------------------------|
D#|--------------------------------------|--------------------------------------------|


D#|----17-14----14-----------------------------------|----------------------------------------------|
A#|-17-------17----17-17-14-14-14--------------14-17-|-14---------------17-14-------------17--14----|
F#|------------------------------1716-14----14-------|----16--1614---14-------16-16-14-----------16-|
C#|--------------------------------------16----------|------------16-------------------16-----------|
G#|--------------------------------------------------|----------------------------------------------|
D#|--------------------------------------------------|----------------------------------------------|


D#|------------------------------------------------|--------------------------------------|
A#|----------17-17-14----------17-14-----------17--|------------------12--15--12-15-12----|
F#|-16-14-------------16-14-17-------16-14-14------|-17-----------12-------------------14-|
C#|-------16---------------------------------------|----------14--------------------------|
G#|------------------------------------------------|--------------------------------------|
D#|------------------------------------------------|--------------------------------------|


D#|---------------------------------------|------------------------------|--------------------------|
A#|-12--------------------15--------------|-15--15--15--15---------------|----------15--------------|
F#|----14-12----12-14-14------14--14--12--|-14--14------14--14--14--14---|------14-----14-14---14---|
C#|----------14---------------------------|------------------------------|--------------------------|
G#|---------------------------------------|------------------------------|--------------------------|
D#|---------------------------------------|------------------------------|--------------------------|


D#|---------------------|------------------------------|-----------------------------0---|
A#|---------------------|------------------------------|-13------12------------------0---|
F#|-13---12---12--------|-10--12---------------4-------|-13--12--12----------0---7-------|
C#|-11---10-------------|-8-------12--12---------------|-13------12--0---0-------9-------|
G#|-11---10---10--------|-8---10--10--10---------------|-11--10--10----------------------|
D#|----------------0----|---------10--10---------------|---------------------------------|


D#|--------------------------------|---------------------------|--------------------|
A#|--------------------------------|---------------------------|--------------------|
F#|-10--12-----------0-------------|-10------------------------|--------------------|
C#|-8-------12--12---0-------10-12-|-10--12--12---10-----------|--------------------|
G#|-8---10--12--12-----------10-12-|---------------------------|----------------12--|
D#|---------10--10-------0---------|---------------------------|----------------12--|


D#|-------------------------------|--------------------|-----------------------------|
A#|-------------------------------|--------------------|-----------------------------|
F#|-------------------------------|--------------------|-----------------------------|
C#|-10--12--12-10-12-10-----------|--------------------|-10--12-10-12----------------|
G#|-10--12------------------------|----------------12--|-----------------------------|
D#|-------------------------------|--------------------|-----------------------------|


D#|--------------------|-----------------------------|--------------------|-----------------------------|
A#|--------------------|-----------------------------|--------------------|-----------------------------|
F#|--------------------|-10--------------------------|--------------------|-----------11----------------|
C#|--------------------|-10--12-10-12----------------|--------------------|-10--12-10-12----------------|
G#|----------------12--|-----------12----------------|----------------12--|-----------------------------|
D#|--------------------|-----------10----------------|--------------------|-----------------------------|


D#|--------------------|-----------------------------|---------------------|--------------10------12--10--|
A#|--------------------|-----------------------------|------12--0-----0----|-----0--------10--10--10--10--|
F#|--------------------|-----------11----------------|------12--0-----0----|-----0--------11------11--11--|
C#|--------------------|-10--12-10-12----------------|---------------------|---------12---12------12--12--|
G#|----------------12--|-----------------------------|---------------------|---------12-------------------|
D#|--------------------|-----------------------------|---------------------|---------10-------------------|


D#|-----10--10--------------------------|-------------------10--10-10-12--10--|---------------------------------|
A#|-----8---8---------------------------|-------------------10--10-10-10--10--|-0---11--11----------13--13------|
F#|-----9---9---------------------------|-------------------11--11-11-11--11--|-0---11--11--12------13--13--14--|
C#|-0---10--10--10-10-10------10-10-12--|-------------------12--12----12--12--|-----11--11--12------13--13--14--|
G#|-0-----------8--8--8-------8--8------|-------------------------------------|-----9---9---10--10--11--11--12--|
D#|-------------8--8--8---8---8--8------|-10--10--10-10-10--------------------|---------------------------------|


D#|-------------------10--10-10-12--10--|-10--11--11--0-----------10--------|---------------------10-12--10--|
A#|-------------------10--10-10-10--10--|-10--9---9---0-------10------13-10-|---------------------10-10--10--|
F#|-14--14------------11--11-11-11--11--|-11--10--10------12----------------|-12-10---------------11-11--11--|
C#|-14--14------------12--12-12-12--12--|-12--------------------------------|-------12---------------12--12--|
G#|-12--12------------------------------|-----------------------------------|--------------------------------|
D#|---------10--10-10-------------------|-----------------------------------|-----------10---10--------------|


D#|-----10--10--10--10------10--0---|-0---0---12----12--12--12--|-12--12-------12---12---12---12-|
A#|-----8---8---8---8-------8---0---|-0---0---15----15--15--15--|-15--15-------15---15---15---15-|
F#|-----9---9---9---9-------9-------|---------------------------|--------------------------------|
C#|-----10--10--10--10------10------|---------------------------|--------------------------------|
G#|-0-------------------------------|---------------------------|--------------------------------|
D#|---------------------8---8-------|---------------------------|--------------------------------|


D#|-12-12-12---------|------------------------------|-----------------|-----0-----------10----------------|
A#|-15-15-15--15-----|-----------15---15---15---15--|-----15---15-----|-15--0-------10------13--13--13-13-|
F#|------------------|------------------------------|-----------------|---------11------------------------|
C#|------------------|------0-----------------------|-----------------|-----------------------------------|
G#|------------------|------0-----------------------|-----------------|-----------------------------------|
D#|------------------|------------------------------|-----------------|-----------------------------------|


D#|------------------|-----0-----------------------------|--------------------|-------------------------------|
A#|-13--13-13-13-----|-13--0--0--15-15---15--15--15--15--|-15-15---15---15----|-15--12--15-15---15---15---15--|
F#|------------------|--------0--------------------------|--------------------|-----12------------------------|
C#|------------------|-----------------------------------|--------------------|-----0-------------------------|
G#|------------------|-----------------------------------|--------------------|-------------------------------|
D#|------------------|-----------------------------------|--------------------|-------------------------------|


D#|----------------------------|--------------------------|--------------------|-----------------|
A#|-----12---------------------|-----------15---15---15---|-15-----------------|-----------------|
F#|----------14--14---14--14---|--------------------------|-----0---0-----0----|------0-----0----|
C#|----------------------------|------0-------------------|--------------------|-----------------|
G#|----------------------------|--------------------------|--------------------|-----------------|
D#|----------------------------|--------------------------|--------------------|-----------------|


D#|------------------------|------0------------12--14--|------14---14--12----------|
A#|---------13--13----13---|------0--------12----------|-------------------15--14--|
F#|------------------------|-----------14--------------|---------------------------|
C#|-0---0------------------|---------------------------|---------------------------|
G#|------------------------|---------------------------|---------------------------|
D#|------------------------|---------------------------|---------------------------|


D#|---------------------------------|--------------------------0--------------|-----12--14--14--14--14-12-14-12----12---|
A#|-12------------------------------|--------------------------0----------12--|-14------------------------------14------|
F#|-----14--12----------------------|-----------------------------12--14------|-----------------------------------------|
C#|-------------14--12--------------|-----------------------12----------------|-----------------------------------------|
G#|---------------------14--13--12--|-10------12--10--12-14-------------------|-----------------------------------------|
D#|---------------------------------|-----12----------------------------------|-----------------------------------------|


D#|-14--14--12---12---10--10------|---------------------10--13--13--13--|-10-13-10-----10-12-10----10--------------10--|
A#|-------------------------------|-13--12--10------10------------------|----------13-----------13----13-10--------10--|
F#|-------------------------------|-------------12----------------------|-----------------------------------13-12------|
C#|-------------------------------|-------------------------------------|----------------------------------------------|
G#|-------------------------------|-------------------------------------|----------------------------------------------|
D#|-------------------------------|-------------------------------------|----------------------------------------------|


D#|-0---15--15---13---13--0---|----------------------0----|------------------------------|
A#|-0-----------------0---0---|----------------------0----|-10---------------------------|
F#|---------------------------|-13---12--12-------0-------|-10--12---------------0-------|
C#|---------------------------|-13---12--12---------------|-10--12--12--12---------------|
G#|---------------------------|-11---10--10---------------|-8---10--10--10---------------|
D#|---------------------------|---------------------------|---------10--10---------------|


D#|-------------------------0----|------------------------------|---------------------------------|
A#|-13------12--12----------0----|-10--12-----------------------|---------12--12------------------|
F#|-13--12--12--12--0----0--0----|-10--12---------------0-------|-13--12--12--12--0---0---0-------|
C#|-13--12--12--12---------------|-10--12--12--12---------------|-11------12--12------------------|
G#|-11--10--10--10---------------|---------10--10---------------|-11--10--10--10------------------|
D#|------------------------------|---------10--10---------------|---------------------------------|


D#|------------------------------|----------------------------------|---------------------------|
A#|------------------------------|----------12--12--0---------------|---------------------------|
F#|-10--12---------------0-------|-13---12--12--12--0-------0---10--|-10--12--------------------|
C#|-8-------12--12---------------|-11-------12--12--0-------0-------|-8-------12--12--12---12---|
G#|-8---10--10--10---------------|-11---10--10--10------------------|-8---10--10--10------------|
D#|---------10--10---------------|----------------------------------|---------10--10--10---10---|


D#|------13-----|-13--13--13-------13-------------------------|------------------------------------------------|
A#|------13-----|-13--13--------------------------------------|------------------------------------------------|
F#|------12-----|-12--12--12-12-12-12-12-12-10----10----------|------------------------------------------------|
C#|-12----------|------------------------------12----12-10----|-12-10------------------------12-12-------10----|
G#|-------------|------------------------------------------12-|-------11-10-8------8---10-12-------10-12-11-10-|
D#|-10----------|---------------------------------------------|-----------------10-----------------------------|


D#|----------------------------------------------------|-----------------|---------------------------------|
A#|----------------------------------------------------|-----------------|---------------------------------|
F#|----------------------------------------------------|-----------------|---------------------------------|
C#|------------------12------12--------11--------10----|------9-----9----|-9---9---9-------------------12--|
G#|-8--10-8-----12-------12------12-11-----11-10----10-|-10---------10---|-10--10--10---10-10------9---9---|
D#|----------10----------------------------------------|-----------------|----------------------12---------|


D#|-----------------|----------------|
A#|-----------------|----------------|
F#|-----------------|----------------|
C#|------12----12---|----------------|
G#|------9-----9----|----------------|
D#|-----------------|-----0----------|





Track 2: Untitled

G|--------|--------|--------|--------|--------|--------|--------|--------|--------|
D|--------|--------|--------|--------|--------|--------|--------|--------|--------|
A|--------|--------|--------|--------|--------|--------|--------|--------|--------|
E|--------|--------|--------|--------|--------|--------|--------|--------|--------|


G|--------|--------|--------|--------|--------|--------|--------|--------|--------|
D|--------|--------|--------|--------|--------|--------|--------|--------|--------|
A|--------|--------|--------|--------|--------|--------|--------|--------|--------|
E|--------|--------|--------|--------|--------|--------|--------|--------|--------|


G|--------|--------|--------|--------|--------|--------|--------|--------|--------|
D|--------|--------|--------|--------|--------|--------|--------|--------|--------|
A|--------|--------|--------|--------|--------|--------|--------|--------|--------|
E|--------|--------|--------|--------|--------|--------|--------|--------|--------|


G|--------|--------|--------|--------|--------|--------|--------|--------|--------|
D|--------|--------|--------|--------|--------|--------|--------|--------|--------|
A|--------|--------|--------|--------|--------|--------|--------|--------|--------|
E|--------|--------|--------|--------|--------|--------|--------|--------|--------|


G|--------|--------|--------|--------|--------|--------|--------|--------|--------|
D|--------|--------|--------|--------|--------|--------|--------|--------|--------|
A|--------|--------|--------|--------|--------|--------|--------|--------|--------|
E|--------|--------|--------|--------|--------|--------|--------|--------|--------|


G|--------|--------|--------|--------|--------|--------|--------|--------|--------|
D|--------|--------|--------|--------|--------|--------|--------|--------|--------|
A|--------|--------|--------|--------|--------|--------|--------|--------|--------|
E|--------|--------|--------|--------|--------|--------|--------|--------|--------|


G|--------|--------|--------|--------|--------|--------|--------|--------|--------|
D|--------|--------|--------|--------|--------|--------|--------|--------|--------|
A|--------|--------|--------|--------|--------|--------|--------|--------|--------|
E|--------|--------|--------|--------|--------|--------|--------|--------|--------|


G|--------|--------|--------|--------|--------|--------|--------|--------|--------|
D|--------|--------|--------|--------|--------|--------|--------|--------|--------|
A|--------|--------|--------|--------|--------|--------|--------|--------|--------|
E|--------|--------|--------|--------|--------|--------|--------|--------|--------|


G|--------|--------|--------|--------|--------|--------|--------|--------|--------|
D|--------|--------|--------|--------|--------|--------|--------|--------|--------|
A|--------|--------|--------|--------|--------|--------|--------|--------|--------|
E|--------|--------|--------|--------|--------|--------|--------|--------|--------|


G|--------|--------|--------|--------|--------|--------|--------|--------|--------|
D|--------|--------|--------|--------|--------|--------|--------|--------|--------|
A|--------|--------|--------|--------|--------|--------|--------|--------|--------|
E|--------|--------|--------|--------|--------|--------|--------|--------|--------|


G|--------|--------|--------|--------|--------|--------|--------|--------|--------|
D|--------|--------|--------|--------|--------|--------|--------|--------|--------|
A|--------|--------|--------|--------|--------|--------|--------|--------|--------|
E|--------|--------|--------|--------|--------|--------|--------|--------|--------|


G|--------|--------|--------|--------|--------|--------|--------|--------|--------|
D|--------|--------|--------|--------|--------|--------|--------|--------|--------|
A|--------|--------|--------|--------|--------|--------|--------|--------|--------|
E|--------|--------|--------|--------|--------|--------|--------|--------|--------|


G|--------|--------|--------|--------|--------|--------|--------|--------|--------|
D|--------|--------|--------|--------|--------|--------|--------|--------|--------|
A|--------|--------|--------|--------|--------|--------|--------|--------|--------|
E|--------|--------|--------|--------|--------|--------|--------|--------|--------|


G|--------|--------|--------|--------|--------|--------|--------|--------|--------|
D|--------|--------|--------|--------|--------|--------|--------|--------|--------|
A|--------|--------|--------|--------|--------|--------|--------|--------|--------|
E|--------|--------|--------|--------|--------|--------|--------|--------|--------|


G|--------|--------|--------|--------|--------|--------|--------|--------|--------|
D|--------|--------|--------|--------|--------|--------|--------|--------|--------|
A|--------|--------|--------|--------|--------|--------|--------|--------|--------|
E|--------|--------|--------|--------|--------|--------|--------|--------|--------|


G|--------|--------|--------|--------|--------|
D|--------|--------|--------|--------|--------|
A|--------|--------|--------|--------|--------|
E|--------|--------|--------|--------|--------|