Menu:

 

Search:

 

jimi hendrix - bold as love:

 



Title: Bold as Love
Artist: 
Album: Axis: Bold as Love
Author: Jimi Hendrix


Track 1: Gtr. 1

D#|-5--------------------------------------|---------------------------------------------|
A#|-5-------12-----------------------------|---------------------------------------------|
F#|-6-------12-14-----------2--1-----------|------4--2-----------------------------------|
C#|-7-------12-14-----------------2-----2--|------------4---------7---7--7--9--9--7------|
G#|-5-------12-14-------2------------4-----|---------------0--5-------------------7--9---|
D#|-5----------14---0----------------------|-2-------------------------------------------|


D#|--------------------------------------|------------------------------------|----------------------------------------------|
A#|------7--5----------------------------|--------------------------------6---|---------------------------------------5--5---|
F#|---------6--------1--1--2-------------|------4--2----------------------6---|-------------------------6---------6---6--6---|
C#|-------------------------------2---2--|------------4---------7------6------|-9--7------9--7-----------------7-------------|
G#|--------------------------------------|---------------0--5-------4---------|-------9---------9----------------------------|
D#|-5------------0-------------4---------|-2----------------------------------|----------------------------------------------|


D#|-----------------------------------------------|-------------------------------------------|
A#|-----------10-7--------------------------------|-------------------------------------------|
F#|-----7-----------7----------4--2---------4--0--|---------7--------------------6---6--4-----|
C#|--------------------9-------------5---5--------|------------9--7------------------------4--|
G#|-----------------------------------------------|-5---5------------7---8--------------------|
D#|-7------7---------------3----------------------|-------------------------5-----------------|


D#|-----------------------0-----------------------|-----5--5---5--5---------0----0---0--------0--|
A#|---------10------------3-----------------------|-----5--5---5--5--2------0----0---------------|
F#|-------------7---------4-----------5---5---5---|-6-------------------1---1----1------0--1-----|
C#|-----9-------7------0--5---5---5---6---6---6---|----------------------------------------------|
G#|----------------9---0--3---3---3---4---4---4---|----------------------------------------------|
D#|-7---------------------3---3---3---4---4---4---|----------------------------------------------|


D#|-0--2--2-------2------2--3-----3--3-----3--5--3--3--5--3--3--|-----5-------5------------0---0---0--0---0--|
A#|-0--2--------------------3--3-----3--3-----------3--------3--|--------------------------0---0------0------|
F#|-1--2------2------2------4--4-----4--4-----------4--------4--|-6-------6------6---0--1--1---1------1------|
C#|-------------------------------------------------------------|--------------------------------------------|
G#|-------------------------------------------------------------|--------------------------------------------|
D#|-------------------------------------------------------------|--------------------------------------------|


D#|-2---2-------2--2---2------3--5--3-----5--3--3--5--3--3--|-----5---9--9--9--8--7---7---7---7--7--7--|
A#|-2---2---2-----------------------------------------------|------------------------------------------|
F#|-2-------2-------------4------------4--------------------|-6-------9-----9--8--7---7---7---7--7--7--|
C#|---------------------------------------------------------|------------------------------------------|
G#|---------------------------------------------------------|------------------------------------------|
D#|---------------------------------------------------------|------------------------------------------|


D#|-2-------------------------------|--------------------------------------------------|
A#|-2-------------------------------|------------------------107-----------------------|
F#|--------------------------7------|---------7--5--6------------7-----------0---------|
C#|--------------------------7------|------------------7------------9--9--9------------|
G#|--------------5---5-------7--9---|-----7-------------------------------------7--9---|
D#|---------------------------------|-5-------------------7----------------------------|


D#|----------------------------------------|--------------------------------------------------|
A#|----------------------------------------|-----7--------------------------------------------|
F#|---------7----------------4-------------|---------6---6--6---4----------1--2---1-----------|
C#|-----7------9--7----------5--5------6---|-----------------------------------------2-----2--|
G#|-5----------------9----------5----------|---------------------------2----------------4-----|
D#|----------------------3---------4-------|-5---------------------0--------------------------|


D#|-----------------------------|-----------------------------------------|----------------------------------------------|
A#|-----------------------------|-----------------------------------------|----------------------------------------------|
F#|-------7--6--7--6--7--6------|-------------------------------2--1------|------4---2---------7---7---------6-----------|
C#|-------------------------7---|-----------------------2---2----------2--|-4-----------4---0--7---7------------------7--|
G#|-----------------------------|-----7--7--9-----------2---2-------------|--------------------5-------7--8-----8--9-----|
D#|-----------------------------|-5-------------9---0---------------------|----------------------------------------------|


D#|------------------------------------------|------------------------------------------|
A#|------------------------------------------|---------7--10-7------3-------------------|
F#|-----------------------------------5------|---------7--------7---2--4--2-------------|
C#|-------7---9--7----------------7---6------|-----9-------------------------5--5---5---|
G#|-7--9--9---------9--7-----------------7---|------------------------------------------|
D#|-----------------------5---5--------------|-7----------------------------------------|


D#|--------------------------------------------|--------------------------------------|
A#|--------------------------------------------|------7-------------------------------|
F#|-------------7----------------7---6---------|------7---7---4---4---4---5---5---5---|
C#|---------7------7--------------------7---0--|------9---7---5---5---5---6---6---6---|
G#|-----9--------------------------------------|------7---7---3---3---3---4---4---4---|
D#|-10-----------------5---5--5----------------|-7----7---10--3---3---3---4---4---4---|


D#|----5-----5-----5-----5-----5-----5--------0--0---0--------0--------0--|-----2-------2------2-----3--5--3--3--3--3--5-----3--3--3--|
A#|----5-----5-----5-----5-----5-----5------------------------------------|-2-------2----------------------3--3--3--3-----3--3--3--3--|
F#|-6-----6-----6-----6-----6-----6-----0--1------------0--1-----0--1-----|-2--------------2------4--------4--------------4-----------|
C#|-----------------------------------------------------------------------|-----------------------------------------------------------|
G#|-----------------------------------------------------------------------|-----------------------------------------------------------|
D#|-----------------------------------------------------------------------|-----------------------------------------------------------|


D#|----5-----5-----5-----5-----5-----5------0---0---0--0---0--|-----2-------2------2------3------3--5--3-----5--3-----|
A#|----------5-----5-----5-----5-----5-----------------1------|-2---2-------2----------------3---------------------3--|
F#|-6-----6-----6-----6-----6-----6-----1---------------------|-2-------2------2------4------4------------4-----------|
C#|-----------------------------------------------------------|-------------------------------------------------------|
G#|-----------------------------------------------------------|-------------------------------------------------------|
D#|-----------------------------------------------------------|-------------------------------------------------------|


D#|-----5--------9--9--9-----7-----7-----7--7---|-2---------------------------------------|
A#|---------------------------------------------|-2---------------------------------------|
F#|-6------6--9-----9-----7-----7-----7-----7---|-----------------------------------------|
C#|---------------------------------------------|-----------------------------9--9--------|
G#|---------------------------------------------|-----------------5---5----------------9--|
D#|---------------------------------------------|--------------5--------------------------|


D#|---------------------------------------------|-----------------3---3---3---4---4---4---|
A#|----------------------------10-10--7------0--|---------7---7---3---3---3---4---4---4---|
F#|-----6---7---6--6---6---------------------0--|---------7---7---4---4---4---5---5---5---|
C#|-----7----------7-------------------------0--|-7---7---7---7---5---5---5---6---6---6---|
G#|--------------------------------------9------|-5---5---5---5---3---3---3---4---4---4---|
D#|-5---------------------7---------------------|-----------------3---3---3---4---4---4---|


D#|-----5--------------------------0------|-2-------2-----------------0---0--0----------|
A#|-----5---5---5------0---0-------0------|-2---2------2--2---2---5---5---5--5------0---|
F#|-6---6---7---6------1---1---1------1---|-2---2------4--2---2------------------0--0---|
C#|-7---7---7---7--7---2---2----------2---|-4---4------4------4---5--------------0------|
G#|-5---5--------------2---2----------2---|-2-------------------------------------------|
D#|-5---5--------------0---0----------0---|-2-------------------------------------------|


D#|------------5--------------0---0---0--0---|---------2---2--3---2--5--3---5--3---5--3--3--5--3--3--|
A#|------------5-------5------0---0---0--0---|-----2---2-------------3------3------3--------3--------|
F#|-6---6------6-------6--1---1---1---1--1---|-----------------------4------4------4--------4--------|
C#|-7---7--7---7---7---7--2---2---2------2---|-4---------------------5------5------5--------3--------|
G#|-5---5------5---5------2---2---2------2---|-2-----------------------------------------------------|
D#|-5---5------5---5------0--------------0---|-2-----------------------------------------------------|


D#|-5---5---5---5----------------------------|-----5------5--------------------3------3-------------|
A#|-5---5---5---5--5---5---------------------|--------7------5---5--5------3---3--3---3--3---3--3---|
F#|-6---6---6---6--5---5--------------1------|-6------6------6---6--6---6--4------4------4---4--4---|
C#|-7---7---7------7---7--2---2---2---2------|--------------------------7--5------5------5---5--5---|
G#|-5-------5-------------2---2---2---2------|-----------------------------3------3------3---3--3---|
D#|-5-------5-------------0---0---0---0--0---|-----------------------------3------3------3---3--3---|


D#|-----------------------0---0---0---0--0---|-----2---2---2----------0---0---0--0---0--|
A#|---------5------5------0---0---0---0--0---|-2---2---2---2------3---3---3---3--3---3--|
F#|-----6---6--7---6------1---1---1---1--1---|-2---2---2---2---0--4---4---4---4--4---4--|
C#|-7---7---7--7------7---2---2--------------|-4---4---4---4---0--5---5---5---5--5---5--|
G#|-5---5-----------------2---2--------------|-2---2---2---2------2---2---2---2--2---2--|
D#|-5---5-----------------0---0--------------|-2---2---2---2------3---3---3---3--3---3--|


D#|-9-----9---7----7---|-2-----14-141414--16---------|-9-----8---7-----7---|-2-----7----8----|
A#|--------------------|----------------------16-----|---------------------|-----------------|
F#|-9-----9---7----7---|-2-----14-141414--16--16--0--|-9-----8---7-----7---|-2-----7----8----|
C#|--------------------|--------------------------0--|---------------------|-----------------|
G#|--------------------|-----------------------------|---------------------|-----------------|
D#|--------------------|-----------------------------|---------------------|-----------------|


D#|-9-----8---7-----7---|-2-----5---5-------5---5-------|-5-----5-------------------------|
A#|---------------------|-------3---3-------3---3---0---|-5-----3-------------------------|
F#|-9-----8---7-----7---|-2-----2---2---0---2---2---0---|-2-----2---2---2---2---2---------|
C#|---------------------|-------0---0---0---0---0---0---|-2-----0-------------------------|
G#|---------------------|-------------------------------|-0-------------------------3--0--|
D#|---------------------|-------------------------------|---------------------------------|


D#|-5-----5-------------------------|-5-----------|-------------|--------|--------|
A#|-5-----3-------------------------|-5-----------|-------------|--------|--------|
F#|-2-----2---2---2---2---2---0-----|-2-----------|-------------|--------|--------|
C#|-2-----0----------------------2--|-2-----------|-------------|--------|--------|
G#|-0-------------------------------|-0-----------|-------------|--------|--------|
D#|---------------------------------|-------------|-------------|--------|--------|


D#|--------|--------|--------|--------|--------|--------|--------|--------|--------|
A#|--------|--------|--------|--------|--------|--------|--------|--------|--------|
F#|--------|--------|--------|--------|--------|--------|--------|--------|--------|
C#|--------|--------|--------|--------|--------|--------|--------|--------|--------|
G#|--------|--------|--------|--------|--------|--------|--------|--------|--------|
D#|--------|--------|--------|--------|--------|--------|--------|--------|--------|


D#|--------|--------|--------|--------|--------|--------|--------|--------|--------|
A#|--------|--------|--------|--------|--------|--------|--------|--------|--------|
F#|--------|--------|--------|--------|--------|--------|--------|--------|--------|
C#|--------|--------|--------|--------|--------|--------|--------|--------|--------|
G#|--------|--------|--------|--------|--------|--------|--------|--------|--------|
D#|--------|--------|--------|--------|--------|--------|--------|--------|--------|


D#|--------|--------|--------|--------|--------|
A#|--------|--------|--------|--------|--------|
F#|--------|--------|--------|--------|--------|
C#|--------|--------|--------|--------|--------|
G#|--------|--------|--------|--------|--------|
D#|--------|--------|--------|--------|--------|





Track 2: Gtr. 2

D#|--------|--------|--------|--------|------------------------|---------------------------|
A#|--------|--------|--------|--------|------------------------|---------------------------|
F#|--------|--------|--------|--------|------------------------|---------------------------|
C#|--------|--------|--------|--------|------------------------|---------------------------|
G#|--------|--------|--------|--------|-5-----9---7------------|---------------------------|
D#|--------|--------|--------|--------|--------------5---------|-7----7---7--7---3----7----|


D#|--------------------------|-----------------------------------------|--------|--------|
A#|--------------------------|-----------------------------------------|--------|--------|
F#|--------------------------|-----------------------------------------|--------|--------|
C#|--------------------------|-----------------------------------------|--------|--------|
G#|-5----5--5--4-------------|-----------------------------------------|--------|--------|
D#|----------------5---------|-7----7---7--7---3---3---3---4---4---4---|--------|--------|


D#|--------|--------|--------|--------|--------|--------|--------------------|------------------------------------|
A#|--------|--------|--------|--------|--------|--------|--------------------|------------------------------------|
F#|--------|--------|--------|--------|--------|--------|--------------------|------------------------------------|
C#|--------|--------|--------|--------|--------|--------|--------------------|----------4-------------------------|
G#|--------|--------|--------|--------|--------|--------|----------7---------|------4-------5--4--5--4--5--4------|
D#|--------|--------|--------|--------|--------|--------|-5----9-------0-----|-2------------------------------5---|


D#|-----------------------|------------------------|-----------------------------|
A#|-----------------------|------------------------|-----------------------------|
F#|-----------------------|------------------------|-----------------------------|
C#|-----------------------|------------------------|-----------------------------|
G#|-----------------------|--------------5----4----|-5----5--5--4----------------|
D#|-5----5---7--9---0-----|-2----2-----------------|----------------5---5--------|


D#|------------------------|---------------------------|--------------------------------------|
A#|------------------------|---------------------------|--------------------------------------|
F#|------------------------|---------------------------|--------------------------------------|
C#|------------------------|---------------------------|--------------------------------------|
G#|------------------------|-5---5----4----------------|----------0---------------------------|
D#|-7----7----3----5--7----|--------------5---5----5---|-7----7-------3---3---3---4---4---4---|


D#|--------|--------|--------|--------|--------|--------|--------|--------|--------|
A#|--------|--------|--------|--------|--------|--------|--------|--------|--------|
F#|--------|--------|--------|--------|--------|--------|--------|--------|--------|
C#|--------|--------|--------|--------|--------|--------|--------|--------|--------|
G#|--------|--------|--------|--------|--------|--------|--------|--------|--------|
D#|--------|--------|--------|--------|--------|--------|--------|--------|--------|


D#|--------|--------|--------|--------|--------|--------|--------|--------|--------|
A#|--------|--------|--------|--------|--------|--------|--------|--------|--------|
F#|--------|--------|--------|--------|--------|--------|--------|--------|--------|
C#|--------|--------|--------|--------|--------|--------|--------|--------|--------|
G#|--------|--------|--------|--------|--------|--------|--------|--------|--------|
D#|--------|--------|--------|--------|--------|--------|--------|--------|--------|


D#|--------|--------|--------|--------|--------|--------|--------|--------|--------|
A#|--------|--------|--------|--------|--------|--------|--------|--------|--------|
F#|--------|--------|--------|--------|--------|--------|--------|--------|--------|
C#|--------|--------|--------|--------|--------|--------|--------|--------|--------|
G#|--------|--------|--------|--------|--------|--------|--------|--------|--------|
D#|--------|--------|--------|--------|--------|--------|--------|--------|--------|


D#|--------|--------|--------|--------|--------|--------|--------|--------|--------|
A#|--------|--------|--------|--------|--------|--------|--------|--------|--------|
F#|--------|--------|--------|--------|--------|--------|--------|--------|--------|
C#|--------|--------|--------|--------|--------|--------|--------|--------|--------|
G#|--------|--------|--------|--------|--------|--------|--------|--------|--------|
D#|--------|--------|--------|--------|--------|--------|--------|--------|--------|


D#|--------|--------|--------|--------|--------|--------|--------|--------|--------|
A#|--------|--------|--------|--------|--------|--------|--------|--------|--------|
F#|--------|--------|--------|--------|--------|--------|--------|--------|--------|
C#|--------|--------|--------|--------|--------|--------|--------|--------|--------|
G#|--------|--------|--------|--------|--------|--------|--------|--------|--------|
D#|--------|--------|--------|--------|--------|--------|--------|--------|--------|


D#|--------|--------|--------|--------|--------|--------|
A#|--------|--------|--------|--------|--------|--------|
F#|--------|--------|--------|--------|--------|--------|
C#|--------|--------|--------|--------|--------|--------|
G#|--------|--------|--------|--------|--------|--------|
D#|--------|--------|--------|--------|--------|--------|





Track 3: Gtr. 3

D#|--------|--------|--------|--------|--------|--------|--------|-------7--7-----7-----7--8--8-----8-----8--|
A#|--------|--------|--------|--------|--------|--------|--------|-------------------------------------------|
F#|--------|--------|--------|--------|--------|--------|--------|-------7-----7-----7-----8-----8-----8-----|
C#|--------|--------|--------|--------|--------|--------|--------|-------------------------------------------|
G#|--------|--------|--------|--------|--------|--------|--------|-------------------------------------------|
D#|--------|--------|--------|--------|--------|--------|--------|-------------------------------------------|


D#|-9--9--9--9--9--9--9--9--9--9--9--9--7--7--7--7--7--7--7--7--7--7--7--7--|-14----7----8----|
A#|-------------------------------------------------------------------------|-----------------|
F#|-9--9--9--9--9--9--9--9--9--9--9--9--7--7--7--7--7--7--7--7--7--7--7--7--|-14----7----8----|
C#|-------------------------------------------------------------------------|-----------------|
G#|-------------------------------------------------------------------------|-----------------|
D#|-------------------------------------------------------------------------|-----------------|


D#|-9-----7--7--7--7--7--7--7--7--7--7--7--7--|-14-14----14----14----14----14----14----7-----7-----7-----8-----8-----8--|
A#|-------------------------------------------|-------------------------------------------------------------------------|
F#|-9-----7--7--7--7--7--7--7--7--7--7--7--7--|-14----14----14----14----14----14----7-----7-----7-----8-----8-----8-----|
C#|-------------------------------------------|-------------------------------------------------------------------------|
G#|-------------------------------------------|-------------------------------------------------------------------------|
D#|-------------------------------------------|-------------------------------------------------------------------------|


D#|-9--9--9--9--9--9--9--9--9--8--8--8--7--7-----7-----7-----7-----7-----7--|-2------------------|
A#|-------------------------------------------------------------------------|-2------------------|
F#|-9--9--9--9--9--9--9--9--9--8--8--8--7-----7-----7-----7-----7-----7-----|-2------------------|
C#|-------------------------------------------------------------------------|--------------------|
G#|-------------------------------------------------------------------------|--------------------|
D#|-------------------------------------------------------------------------|--------------------|


D#|--------|--------|--------|--------|--------|--------|--------|--------|--------|
A#|--------|--------|--------|--------|--------|--------|--------|--------|--------|
F#|--------|--------|--------|--------|--------|--------|--------|--------|--------|
C#|--------|--------|--------|--------|--------|--------|--------|--------|--------|
G#|--------|--------|--------|--------|--------|--------|--------|--------|--------|
D#|--------|--------|--------|--------|--------|--------|--------|--------|--------|


D#|-------7--7--7--7--7--7--8--8--8--8--8--8--|-9--9--9--9--9--9--9--9--9--9--9--8-----7-----7-----7-----7-----7-----7--|
A#|-------------------------------------------|-------------------------------------------------------------------------|
F#|-------7--7--7--7--7--7--8--8--8--8--8--8--|-9--9--9--9--9--9--9--9--9--9--9--8--7-----7-----7-----7-----7-----7-----|
C#|-------------------------------------------|-------------------------------------------------------------------------|
G#|-------------------------------------------|-------------------------------------------------------------------------|
D#|-------------------------------------------|-------------------------------------------------------------------------|


D#|-14-14----14----14----14----14----14----7-----7-----7-----8-----8-----8--|----9-----9-----9-----9-----9-----8-----7-----7-----7-----7-----7-----7--|
A#|-------------------------------------------------------------------------|-------------------------------------------------------------------------|
F#|-14----14----14----14----14----14----7-----7-----7-----8-----8-----8-----|-9-----9-----9-----9-----9-----8-----7-----7-----7-----7-----7-----7-----|
C#|-------------------------------------------------------------------------|-------------------------------------------------------------------------|
G#|-------------------------------------------------------------------------|-------------------------------------------------------------------------|
D#|-------------------------------------------------------------------------|-------------------------------------------------------------------------|


D#|----14----14----14----14-14-14----14----7-----7-----7-----8-----8-----8--|----9-----9-----9-----9-----8--8--------7-----7-----7-----7-----7-----7--|
A#|-------------------------------------------------------------------------|-------------------------------------------------------------------------|
F#|-14----14----14----14----14----14----7-----7-----7-----8-----8-----8-----|-9-----9-----9-----9-----9--8-----8--7-----7-----7-----7-----7-----7-----|
C#|-------------------------------------------------------------------------|-------------------------------------------------------------------------|
G#|-------------------------------------------------------------------------|-------------------------------------------------------------------------|
D#|-------------------------------------------------------------------------|-------------------------------------------------------------------------|


D#|-5------------------|--------|--------|--------|--------|--------|--------|--------|
A#|--------------------|--------|--------|--------|--------|--------|--------|--------|
F#|-6------------------|--------|--------|--------|--------|--------|--------|--------|
C#|--------------------|--------|--------|--------|--------|--------|--------|--------|
G#|--------------------|--------|--------|--------|--------|--------|--------|--------|
D#|--------------------|--------|--------|--------|--------|--------|--------|--------|


D#|--------|--------|--------|--------|--------|--------|--------|--------|--------|
A#|--------|--------|--------|--------|--------|--------|--------|--------|--------|
F#|--------|--------|--------|--------|--------|--------|--------|--------|--------|
C#|--------|--------|--------|--------|--------|--------|--------|--------|--------|
G#|--------|--------|--------|--------|--------|--------|--------|--------|--------|
D#|--------|--------|--------|--------|--------|--------|--------|--------|--------|


D#|--------|--------|--------|--------|--------|--------|--------|--------|--------|
A#|--------|--------|--------|--------|--------|--------|--------|--------|--------|
F#|--------|--------|--------|--------|--------|--------|--------|--------|--------|
C#|--------|--------|--------|--------|--------|--------|--------|--------|--------|
G#|--------|--------|--------|--------|--------|--------|--------|--------|--------|
D#|--------|--------|--------|--------|--------|--------|--------|--------|--------|


D#|--------|--------|--------|--------|--------|--------|--------|--------|--------|
A#|--------|--------|--------|--------|--------|--------|--------|--------|--------|
F#|--------|--------|--------|--------|--------|--------|--------|--------|--------|
C#|--------|--------|--------|--------|--------|--------|--------|--------|--------|
G#|--------|--------|--------|--------|--------|--------|--------|--------|--------|
D#|--------|--------|--------|--------|--------|--------|--------|--------|--------|


D#|--------|--------|--------|--------|--------|--------|--------|--------|--------|
A#|--------|--------|--------|--------|--------|--------|--------|--------|--------|
F#|--------|--------|--------|--------|--------|--------|--------|--------|--------|
C#|--------|--------|--------|--------|--------|--------|--------|--------|--------|
G#|--------|--------|--------|--------|--------|--------|--------|--------|--------|
D#|--------|--------|--------|--------|--------|--------|--------|--------|--------|


D#|--------|--------|
A#|--------|--------|
F#|--------|--------|
C#|--------|--------|
G#|--------|--------|
D#|--------|--------|





Track 4: Gtr.4

D#|--------|--------|--------|--------|--------|--------|--------|--------|--------|
A#|--------|--------|--------|--------|--------|--------|--------|--------|--------|
F#|--------|--------|--------|--------|--------|--------|--------|--------|--------|
C#|--------|--------|--------|--------|--------|--------|--------|--------|--------|
G#|--------|--------|--------|--------|--------|--------|--------|--------|--------|
D#|--------|--------|--------|--------|--------|--------|--------|--------|--------|


D#|--------|--------|--------|--------|--------|--------|--------|--------|--------|
A#|--------|--------|--------|--------|--------|--------|--------|--------|--------|
F#|--------|--------|--------|--------|--------|--------|--------|--------|--------|
C#|--------|--------|--------|--------|--------|--------|--------|--------|--------|
G#|--------|--------|--------|--------|--------|--------|--------|--------|--------|
D#|--------|--------|--------|--------|--------|--------|--------|--------|--------|


D#|--------|--------|--------|--------|--------|--------|--------|--------|--------|
A#|--------|--------|--------|--------|--------|--------|--------|--------|--------|
F#|--------|--------|--------|--------|--------|--------|--------|--------|--------|
C#|--------|--------|--------|--------|--------|--------|--------|--------|--------|
G#|--------|--------|--------|--------|--------|--------|--------|--------|--------|
D#|--------|--------|--------|--------|--------|--------|--------|--------|--------|


D#|--------|--------|--------|-------------------------|--------------------------------------------------------------5---|
A#|--------|--------|--------|-------------------------|-----------------------------------------------------------5------|
F#|--------|--------|--------|-------------------------|----------------------------------------------------5--7----------|
C#|--------|--------|--------|-------------------------|----------------------------------------5-----5--7----------------|
G#|--------|--------|--------|-------------------------|-------------------3-----3--5--3--5--7-----7----------------------|
D#|--------|--------|--------|-------------------0--3--|-3--0--3--5--3--5-----5-------------------------------------------|


D#|-----------------------------|--------------------------------|------------2-------------------------|
A#|-8-----8--8------------------|-5-----5------------------------|---------2-----5----------------------|
F#|-------------7---7---7-------|-----------2--5----4---2--4--2--|-4---4------------4--4----4--4--4--2--|
C#|--------------------------0--|--------------------------------|--------------------------------------|
G#|-----------------------------|--------------------------------|--------------------------------------|
D#|-----------------------------|--------------------------------|--------------------------------------|


D#|-------------|--------------------------------|------------------------------------|
A#|-------------|--------------------------------|------------------------------------|
F#|-------------|-4----4----4--4----4--4--4---2--|------2------2----------------------|
C#|-4-----5-----|--------------------------------|-4--------4------4--5----5---7--5---|
G#|-------------|--------------------------------|------------------------------------|
D#|-------------|--------------------------------|------------------------------------|


D#|--------5------8---10-10--10--10-------|-12----12-12-10----10--|-12---12-12-----------------------------|
A#|-----5------10-------------------------|-----------------------|--------------10--10--10-12-12-12-12-10-|
F#|-6-------------------------------------|-----------------------|----------------------------------------|
C#|---------------------------------------|-----------------------|----------------------------------------|
G#|---------------------------------------|-----------------------|----------------------------------------|
D#|---------------------------------------|-----------------------|----------------------------------------|


D#|----------10--12----|-12--12--12-12-12-12-----------|------------------------------------|
A#|-12---12------------|---------------------10----12--|-12-1210--------10------------------|
F#|--------------------|-------------------------------|--------11--11------12--12--12------|
C#|--------------------|-------------------------------|------------------------------------|
G#|--------------------|-------------------------------|------------------------------------|
D#|--------------------|-------------------------------|------------------------------------|


D#|-12-14-14--14--14-12-14---121412--12--|--------------------------------|--------------------------------|
A#|--------------------------------14----|-12--12-------14--14------0-----|-----8-----8----5---------------|
F#|--------------------------------------|----------------------12-----5--|-5---8-------------8--5---------|
C#|--------------------------------------|----------------------12--------|-------------------------7---7--|
G#|--------------------------------------|--------------------------------|--------------------------------|
D#|--------------------------------------|--------------------------------|--------------------------------|


D#|------------------------------------------|----------------------------------------------|
A#|------------------------------------------|----------------------------------------------|
F#|-7--7--5----------------------------------|-7--7--5--------------------------------------|
C#|----------7--5--------------7---7-----5---|----------7--5--------------------------------|
G#|----------------7--5----------------------|----------------7--6--5--3--5-5-5-3-0---------|
D#|----------------------8--5----------------|----------------------------------------------|


D#|-------------|--------9----|-----9--------------------------|----------------------9----|
A#|-------------|--------12---|-----12-12-9--9---9--------11---|-11--9---7---7---9----12---|
F#|-------------|-------------|--------------11--11-------13---|-13--11--9---9---11--------|
C#|-------------|-------------|--------------------------------|---------------------------|
G#|-------------|-------------|--------------------------------|---------------------------|
D#|-------------|-------------|--------------------------------|---------------------------|


D#|-9---9--9--------------------------|------------------------------11---|-11--11-11-11-9--11--11-------11--11-11-9--|
A#|-12--12-12-12-9--9---9--------11---|------12--12--------9--9---9-------|-------------------------------------------|
F#|-----------------11--11-------13---|------14--14--6--11----------------|-------------------------------------------|
C#|-----------------------------------|-----------------------------------|-------------------------------------------|
G#|-----------------------------------|-----------------------------------|-------------------------------------------|
D#|-----------------------------------|-----------------------------------|-------------------------------------------|


D#|---------12--12-----15-15--15--15--|-15--15---------------------------|---------16------16--8--16--14-16-14-|
A#|-11--9-----------------------------|-----------14----16--16-16-14-----|------14-----------------------------|
F#|-----------------------------------|--------0---------------------15--|-15----------------------------------|
C#|-----------------------------------|----------------------------------|-------------------------------------|
G#|-----------------------------------|----------------------------------|-------------------------------------|
D#|-----------------------------------|----------------------------------|-------------------------------------|


D#|-13--16----------------------------------------|------16--------------9-----|-139----9-----8-----8-4----8-4----8-4-----9-----9-6----|
A#|-16-----16--16-16---14-16-16--16-16--16161614--|-14--------7-------9-----9--|-----9-----4-----4------4------4------4-6----6------6--|
F#|---------------------------------------------15|-----------7----10----------|-------------------------------------------------------|
C#|-----------------------------------------------|-----------9----------------|-------------------------------------------------------|
G#|-----------------------------------------------|----------------------------|-------------------------------------------------------|
D#|-----------------------------------------------|----------------------------|-------------------------------------------------------|


D#|-9-6----9-6----117----117----128----128-----139----139----|-139----139----8-4----8-4----8-4----8-4----9-6----9-6----|
A#|-----6------6------7------8------8------8-9-----9------9--|-----9------4------4------4------4------6------6------6--|
F#|----------------------------------------------------------|---------------------------------------------------------|
C#|----------------------------------------------------------|---------------------------------------------------------|
G#|----------------------------------------------------------|---------------------------------------------------------|
D#|----------------------------------------------------------|---------------------------------------------------------|


D#|-9-6----9-6----117----117-----12----128-----9---------|-9-----9--------9--------12-9-----9----9-----9-----9-----9-----9-----9-----|
A#|-----6------9------7------7-8----8------8-9----9--12--|----12-9-----9-----12-9-------9-12--12----12----12----12----12----12----12-|
F#|------------------------------------------------------|----------11---------------------------------------------------------------|
C#|------------------------------------------------------|---------------------------------------------------------------------------|
G#|------------------------------------------------------|---------------------------------------------------------------------------|
D#|------------------------------------------------------|---------------------------------------------------------------------------|


D#|------9--------------9--12--12--9-----12--12--|-9-----12--12--9-----12--12--9------------9--------------9--|
A#|-12------12-9-----9----------------9----------|----9-------------9-------------9--12-12-----12-9-----9-----|
F#|---------------11-----------------------------|---------------------------------------------------11-------|
C#|----------------------------------------------|------------------------------------------------------------|
G#|----------------------------------------------|------------------------------------------------------------|
D#|----------------------------------------------|------------------------------------------------------------|


D#|-------------------------------------------------------|-------------------------------------------|
A#|-12-9--------------------------------------------------|-------------------------------------------|
F#|-------11-11-9-----------------------------------------|-------------------------------------------|
C#|----------------11-9-----------------------9---11--11--|-9--11-9--------9--11--11-9---------11-13--|
G#|----------------------11-10-9--9--7--11-11-------------|----------7--11--------------11--13--------|
D#|-------------------------------------------------------|-------------------------------------------|


D#|-----------------------------------------|--------------9-------9--------------9------------------|
A#|-----------------------------------------|-----------9-----12------12-9-----9-----12-9------------|
F#|-----------------------------------------|-----9--10---------------------11-------------11-11--9--|
C#|-13---11-------11--10--------------11-9--|-9------------------------------------------------------|
G#|---------11-11---------11-10-9--8--------|--------------------------------------------------------|
D#|-----------------------------------------|--------------------------------------------------------|


D#|--------------------------9--9--9---------1616--16--16|---16--1616-16-16-16--16--16-4----18---|
A#|-----------------------9-----9--9--8---18-18--18--18--|-18--18-----18-16---16--1616-4----18---|
F#|----------------9--11--------------9------------------|---------------------------------------|
C#|-11-9-----9--11---------------------------------------|---------------------------------------|
G#|-------11---------------------------------------------|---------------------------------------|
D#|------------------------------------------------------|---------------------------------------|


D#|-----------------|
A#|-----------------|
F#|-----------------|
C#|-----------------|
G#|-----------------|
D#|-----------------|





Track 5: Bass

F#|--------------------|--------|--------|-----------------|------------------------|
C#|--------------------|--------|--------|-----------------|------------------------|
G#|--------------------|--------|--------|------------4----|-5--------4-------------|
D#|-5------------------|--------|--------|-----------------|--------------5---------|


F#|------------------------------|---------------------------|--------------------------------------|
C#|--------------5----5--5-------|---------------------------|----------4---5---5---5---6---6---6---|
G#|-2----2---2-------------------|-5--------4----------------|-2----2-------------------------------|
D#|------------------------------|--------------5----5-------|--------------------------------------|


F#|-----------------------------------|------6------6--------------------|----------------------------------|
C#|-----------------------------------|-4--------------5---5---5--4--5---|----------------------------------|
G#|-------------4---7---7---7--6--7---|----------------------------------|-------------7--7---7---7--6--7---|
D#|-5----5--5-------------------------|----------------------------------|-5----5---------------------------|


F#|------6-----------------------------4--|----------------------------------|------------------------------|
C#|-4-------4------0--5---5---5--4--5-----|----------------------------------|-4----------------------------|
G#|---------------------------------------|-------------5--7---7---7--6--7---|-----------------5---5--------|
D#|---------------------------------------|-5----5---------------------------|--------------5---------------|


F#|--------|--------------------|---------------------------|----------------------------------|
C#|--------|------------6-------|---------------------------|-4----4---------------------------|
G#|--------|----------------7---|--------------7---7--------|-------------5--5---5---5--4--5---|
D#|--------|--------------------|-5---------5---------------|----------------------------------|


F#|----------------------------------|------------------------|-------------------------------------|
C#|----------------------------------|-4----4-----------------|--------------------------7---7--7---|
G#|-------------5--7---7---7--6--7---|--------------5----4----|-5----5-----4--5---------------------|
D#|-5----5---------------------------|------------------------|---------5--------5---5--------------|


F#|--------------------------------|------------------------------------|-----------------------------------------|
C#|--------------5----5--5---------|-------------------------7---7--7---|-----------------5---5---5---6---6---6---|
G#|-2----2-------------------------|-5---5----4--5----------------------|-2---2---2-------------------------------|
D#|-----------------------------5--|-----------------5---5--------------|-----------------------------------------|


F#|-------------------------------------|------6-------6----------------------|------------------------------------|
C#|-------------------------------------|-4-------4-------5--5--5---5--4--5---|------------------------------------|
G#|----------4--5--6--7---7---7--6--7---|-------------------------------------|-------------5--7---7---7--5--7--7--|
D#|-5----5------------------------------|-------------------------------------|-5----5-----------------------------|


F#|------6-------6---------------------------|---------------------------------------|
C#|-4-------4-------5--5--5---5--4--5--6--7--|---------------------------------------|
G#|------------------------------------------|----------5--6--7--7--5--7---7--5--7---|
D#|------------------------------------------|-5----5--------------------------------|


F#|--------------------------------|--------|-------------------------------|-----------------------------------|
C#|-4------------------------------|--------|-------5---5---5---6---6---6---|---------7---7---------------------|
G#|------------5---5---------------|--------|-------------------------------|-----------------7---7---7--5--7---|
D#|---------5----------------------|--------|-------------------------------|-5---5-----------------------------|


F#|------6------------------------------|-------------------------------------|----------------------------------------|
C#|-4-------4---4--0--5---5---5--5--5---|-------------------------------------|-4-------4-------5---5------------5--0--|
G#|-------------------------------------|-------------5--6--7---7---7--7--7---|------4-------5----------3--4--5--------|
D#|-------------------------------------|-5----5---5--------------------------|----------------------------------------|


F#|----------------------------------|-----------------------------------|----------------------------------------|
C#|----------------------------------|-4-------4-------5---5---5--5--5---|----------------------------------------|
G#|----------4--5--7---7---7--6--7---|------4-------5--------------------|------------4--5---6--7---7---7--5--7---|
D#|-5----5---------------------------|-----------------------------------|-5---5---5------------------------------|


F#|------6------6--------------------------|--------------------------------|------6-----------------------------|
C#|-4-------4-------5---5------------5--5--|------7----5--------------------|-4--------4--0--5---5---5--4--5--7--|
G#|-------------------------5--6--7--------|--------------7---7---7--6--7---|------------------------------------|
D#|----------------------------------------|-5------------------------------|------------------------------------|


F#|-------------------------------------|------6-------6----------------------|------------------------------------------|
C#|-------------------------------------|-4-------4-------5---5---5--4--5--7--|------------------------------------------|
G#|----------4--5--6--7---7---7--6--7---|-------------------------------------|---------------4--5--6--7---7---7--7--7---|
D#|-5----5------------------------------|-------------------------------------|-5--5--5---5------------------------------|


F#|-----------------------------------|------------------------------------------|
C#|-4---------------------------------|------------------------------------------|
G#|-----------5---5---5---5---5---5---|------------------5---5---5---5---5---5---|
D#|-----------------------------------|-5----5---5---5---------------------------|


F#|------------------------------------------|-------------|-------------|--------6-----6---|
C#|------------------------------------------|-------------|-------------|-----------6------|
G#|------------------5---5---5---5---5-------|-------------|-------------|------------------|
D#|-5----5---5---5-----------------------5---|-5-----------|-------------|------------------|


F#|-6---------------------------------------3---|-------3-------------------------------6-----|
C#|----6--6------------------6--4--------3------|----3---------4---------5-----5-----6-----6--|
G#|--------------4--5--6--6--------6--1---------|-1---------2-----2---3-----3-----4-----------|
D#|-----------4---------------------------------|---------------------------------------------|


F#|-6-----6---------------------------------3---|-------3---------4---------5---------6---|
C#|----6------6--4--3--------------------3------|----3---------4---------5---------6------|
G#|--------------------6--4--3--------1---------|-1---------2---------3---------4---------|
D#|-----------------------------6--4------------|-----------------------------------------|


F#|-6---------------------------------------3---|-------3---4---------5---------------6---|
C#|----6------6--4--3--------------------3------|----3---------4---------5---------6------|
G#|-------4------------6--4--3--------1---------|-1---------------2---------3---4---------|
D#|-----------------------------6--4------------|-----------------------------------------|


F#|-6---------------------------------------3---|-------3---4---------5---------------------|
C#|----6------6--4--3--------------------3------|----3---------4---------5------------6--6--|
G#|-------4------------6--4--3--------1---------|-1---------------2---------3---4--4--------|
D#|-----------------------------6--4------------|-------------------------------------------|


F#|-6--6--4-----------------------------------3--1--|-3---------------4---------5---------------|
C#|----------6--6--4--3--------------------3--------|----3--1------4---------5-----6------6--6--|
G#|----------------------6--4--3--------1-----------|-----------2---------3-----------4---------|
D#|-------------------------------6--4--------------|-------------------------------------------|


F#|-6-----6-------------------------------3---|-3---------------4---------5-----------------|
C#|----6------6--6--4--3---------------3------|----3---------4---------5-----5--------6-----|
G#|-----------------------6--4--3---1---------|-------1---2---------3-----------4--4-----4--|
D#|-------------------------------------------|---------------------------------------------|


F#|-6--6--4-----------------------------------3-----|-------3---4---------5-----------------6---|
C#|----------6--6--6--4--3-----------------3--------|----3---------4---------5-----------6------|
G#|-------------------------6--4--3-----1--------1--|-1---------------2---------3--4--4---------|
D#|----------------------------------4--------------|-------------------------------------------|


F#|----6--6-------------------------------3---|-3-----3--3--------4---------5---------6---|
C#|-6---------6--6--6--4--3------------3------|----3-----------4---------5---------6------|
G#|-----------------------6--4--3---1---------|-------------2---------3---------4---------|
D#|-------------------------------------------|-------------------------------------------|


F#|-6--6--4---------------------------3---|-----------4-----------5-----------------6---|
C#|-----------6--6--4---3----------3------|----3---------4-----4-----5-----------6------|
G#|-------------------------6---1---------|-1-----1---------2-----------3--4--4---------|
D#|---------------------------------------|---------------------------------------------|


F#|-6---------------------------------------3---|-3--1-----3---------4---------5---------6-----|
C#|----6------6--4--3--------------------3------|-------3---------4---------5---------6--------|
G#|-------4------------6--4--3--------1---------|--------------2---------3---------4--------4--|
D#|-----------------------------6--4------------|----------------------------------------------|


F#|----6---6--------------------------------3-----|-3---------------4---------5---------6---|
C#|-6---------6--4--3--------------------3-----3--|----3---------4---------5---------6------|
G#|--------------------6--4--3--------1-----------|-------1---2---------3---------4---------|
D#|-----------------------------6--4--------------|-----------------------------------------|


F#|-6---------------------------------------3---|-------3--------------|
C#|----6------6--4--3--------------------3------|----3-----------------|
G#|-------4------------6--4--3--------1---------|-1--------------------|
D#|-----------------------------6--4------------|----------------------|