Menu:

 

Search:

 

jewel - foolish games:

 



Title: Foolish Games
Artist: 
Album: 
Author: 


Track 1: Piano

E|-----------------1-------2-------|-4-------2-------1-------2-------|-----------------1-------2-------|
B|---------4-----------------------|---------------------------------|---------4-----------------------|
G|---------------------------------|---------------------------------|---------------------------------|
D|---------1-------1-------1-------|-1-------1-------1-------1-------|---------4-------4-------4-------|
A|-----1-------1-------1-------1---|-----1-------1-------1-------1---|-----2-------2-------2-------2---|
D|-1-------------------------------|---------------------------------|-4-------------------------------|


E|-4-------2-------1-------2-------|-----------------2-------4-------|-6-------4-------2---------------|
B|---------------------------------|---------2-----------------------|-------------------------2-------|
G|---------------------------------|---------------------------------|---------------------------------|
D|-4-------4-------4-------4-------|---------4-------4-------4-------|-4-------4-------4-------4-------|
A|-----2-------2-------2-------2---|-----4-------4-------4-------4---|-----4-------4-------4-------4---|
D|---------------------------------|-4-------------------------------|---------------------------------|


E|-----------------1-------2-------|-4-------2-------1---------------|--------|--------|
B|---------2-----------------------|-------------------------2-------|--------|--------|
G|---------------------------------|---------------------------------|--------|--------|
D|---------3-------3-------3-------|-3-------3-------3-------3-------|--------|--------|
A|-----4-------4-------4-------4---|-----4-------4-------4-------4---|--------|--------|
D|-3-------------------------------|---------------------------------|--------|--------|


E|--------|--------|--------|--------|--------|--------|--------|--------|--------|
B|--------|--------|--------|--------|--------|--------|--------|--------|--------|
G|--------|--------|--------|--------|--------|--------|--------|--------|--------|
D|--------|--------|--------|--------|--------|--------|--------|--------|--------|
A|--------|--------|--------|--------|--------|--------|--------|--------|--------|
D|--------|--------|--------|--------|--------|--------|--------|--------|--------|


E|--------|--------|--------|--------|--------|--------|--------|--------|--------|
B|--------|--------|--------|--------|--------|--------|--------|--------|--------|
G|--------|--------|--------|--------|--------|--------|--------|--------|--------|
D|--------|--------|--------|--------|--------|--------|--------|--------|--------|
A|--------|--------|--------|--------|--------|--------|--------|--------|--------|
D|--------|--------|--------|--------|--------|--------|--------|--------|--------|


E|--------|--------|--------|--------|--------|--------|--------|--------|--------|
B|--------|--------|--------|--------|--------|--------|--------|--------|--------|
G|--------|--------|--------|--------|--------|--------|--------|--------|--------|
D|--------|--------|--------|--------|--------|--------|--------|--------|--------|
A|--------|--------|--------|--------|--------|--------|--------|--------|--------|
D|--------|--------|--------|--------|--------|--------|--------|--------|--------|


E|--------|--------|--------|--------|--------|--------|--------|--------|--------|
B|--------|--------|--------|--------|--------|--------|--------|--------|--------|
G|--------|--------|--------|--------|--------|--------|--------|--------|--------|
D|--------|--------|--------|--------|--------|--------|--------|--------|--------|
A|--------|--------|--------|--------|--------|--------|--------|--------|--------|
D|--------|--------|--------|--------|--------|--------|--------|--------|--------|


E|--------|--------|--------|--------|--------|--------|--------|--------|--------|
B|--------|--------|--------|--------|--------|--------|--------|--------|--------|
G|--------|--------|--------|--------|--------|--------|--------|--------|--------|
D|--------|--------|--------|--------|--------|--------|--------|--------|--------|
A|--------|--------|--------|--------|--------|--------|--------|--------|--------|
D|--------|--------|--------|--------|--------|--------|--------|--------|--------|


E|--------|--------|--------|--------|--------|--------|--------|--------|--------|
B|--------|--------|--------|--------|--------|--------|--------|--------|--------|
G|--------|--------|--------|--------|--------|--------|--------|--------|--------|
D|--------|--------|--------|--------|--------|--------|--------|--------|--------|
A|--------|--------|--------|--------|--------|--------|--------|--------|--------|
D|--------|--------|--------|--------|--------|--------|--------|--------|--------|


E|-----------------1-------2-------|-4-------2-------1-------2-------|-----------------1-------2-------|
B|---------4-----------------------|---------------------------------|---------4-----------------------|
G|---------------------------------|---------------------------------|---------------------------------|
D|---------1-------1-------1-------|-1-------1-------1-------1-------|---------4-------4-------4-------|
A|-----1-------1-------1-------1---|-----1-------1-------1-------1---|-----2-------2-------2-------2---|
D|-1-------------------------------|---------------------------------|-4-------------------------------|


E|-4-------2-------1-------2-------|--------|--------|--------|--------|--------|--------|
B|---------------------------------|--------|--------|--------|--------|--------|--------|
G|---------------------------------|--------|--------|--------|--------|--------|--------|
D|-4-------4-------4-------4-------|--------|--------|--------|--------|--------|--------|
A|-----2-------2-------2-------2---|--------|--------|--------|--------|--------|--------|
D|---------------------------------|--------|--------|--------|--------|--------|--------|


E|--------|--------|--------|--------|--------|--------|--------|--------|--------|
B|--------|--------|--------|--------|--------|--------|--------|--------|--------|
G|--------|--------|--------|--------|--------|--------|--------|--------|--------|
D|--------|--------|--------|--------|--------|--------|--------|--------|--------|
A|--------|--------|--------|--------|--------|--------|--------|--------|--------|
D|--------|--------|--------|--------|--------|--------|--------|--------|--------|


E|--------|--------|--------|--------|--------|--------|--------|--------|--------|
B|--------|--------|--------|--------|--------|--------|--------|--------|--------|
G|--------|--------|--------|--------|--------|--------|--------|--------|--------|
D|--------|--------|--------|--------|--------|--------|--------|--------|--------|
A|--------|--------|--------|--------|--------|--------|--------|--------|--------|
D|--------|--------|--------|--------|--------|--------|--------|--------|--------|


E|--------|--------|--------|--------|--------|--------|--------|--------|--------|
B|--------|--------|--------|--------|--------|--------|--------|--------|--------|
G|--------|--------|--------|--------|--------|--------|--------|--------|--------|
D|--------|--------|--------|--------|--------|--------|--------|--------|--------|
A|--------|--------|--------|--------|--------|--------|--------|--------|--------|
D|--------|--------|--------|--------|--------|--------|--------|--------|--------|


E|--------|--------|--------|--------|--------|--------|--------|--------|--------|
B|--------|--------|--------|--------|--------|--------|--------|--------|--------|
G|--------|--------|--------|--------|--------|--------|--------|--------|--------|
D|--------|--------|--------|--------|--------|--------|--------|--------|--------|
A|--------|--------|--------|--------|--------|--------|--------|--------|--------|
D|--------|--------|--------|--------|--------|--------|--------|--------|--------|


E|-----------------1-------2-------|-4-------2-------1-------2-------|-----------------1-------2-------|
B|---------4-----------------------|---------------------------------|---------4-----------------------|
G|---------------------------------|---------------------------------|---------------------------------|
D|---------1-------1-------1-------|-1-------1-------1-------1-------|---------4-------4-------4-------|
A|-----1-------1-------1-------1---|-----1-------1-------1-------1---|-----2-------2-------2-------2---|
D|-1-------------------------------|---------------------------------|-4-------------------------------|


E|-4-------2-------1-------2-------|-----------------2-------4-------|-6-------4-------2---------------|
B|---------------------------------|---------2-----------------------|-------------------------2-------|
G|---------------------------------|---------------------------------|---------------------------------|
D|-4-------4-------4-------4-------|---------4-------4-------4-------|-4-------4-------4-------4-------|
A|-----2-------2-------2-------2---|-----4-------4-------4-------4---|-----4-------4-------4-------4---|
D|---------------------------------|-4-------------------------------|---------------------------------|


E|-----------------1-------2-------|-4-------2-------1---------------|--------|--------|
B|---------2-----------------------|-------------------------2-------|--------|--------|
G|---------------------------------|---------------------------------|--------|--------|
D|---------3-------3-------3-------|-3-------3-------3-------3-------|--------|--------|
A|-----4-------4-------4-------4---|-----4-------4-------4-------4---|--------|--------|
D|-3-------------------------------|---------------------------------|--------|--------|


E|--------|--------|--------|--------|--------|--------|--------|--------|--------|
B|--------|--------|--------|--------|--------|--------|--------|--------|--------|
G|--------|--------|--------|--------|--------|--------|--------|--------|--------|
D|--------|--------|--------|--------|--------|--------|--------|--------|--------|
A|--------|--------|--------|--------|--------|--------|--------|--------|--------|
D|--------|--------|--------|--------|--------|--------|--------|--------|--------|


E|--------|
B|--------|
G|--------|
D|--------|
A|--------|
D|--------|





Track 2: Guitar

E|---------------------------------|---------------------------------|---------------------------------|
B|-----------------6-------7-------|-9-------7-------6-------7-------|---------------------------------|
G|---------8-----------------------|---------------------------------|-----------------10------11------|
D|-----8-------8-------8-------8---|-----8-------8-------8-------8---|---------13----------------------|
A|-6-------------------------------|---------------------------------|-----9-------9-------9-------9---|
D|---------------------------------|---------------------------------|-9-------------------------------|


E|---------------------------------|-------------------------4-------|-6-------4-----------------------|
B|---------------------------------|-----------------7---------------|-----------------7---------------|
G|-13------11------10------11------|---------6-----------------------|-------------------------6-------|
D|---------------------------------|-------------4-------4-------4---|-----4-------4-------4-------4---|
A|-----9-------9-------9-------9---|-----4---------------------------|---------------------------------|
D|---------------------------------|-4-------------------------------|---------------------------------|


E|---------------------------------|-4-------------------------------|---------------------------------|
B|-----------------6-------7-------|---------7-------6---------------|-----------------4---------------|
G|---------6-----------------------|-------------------------6-------|-------------------------3-------|
D|-----6-------6-------6-------6---|-----6-------6-------6-------6---|---------1-----------1-------1---|
A|-4-------------------------------|---------------------------------|-----1-------1-------------------|
D|---------------------------------|---------------------------------|-1-------------------------------|


E|-2-------------------------------|---------------------------------|-2-------------------------------|
B|-----------------4---------------|-----------------4---------------|-----------------4---------------|
G|---------3---------------3-------|---------4---------------4-------|---------4---------------4-------|
D|-----1-------1-------1-------1---|-----4-------4-------4-------4---|-----4-------4-------4-------4---|
A|---------------------------------|-2-------------------------------|---------------------------------|
D|---------------------------------|---------------------------------|---------------------------------|


E|---------------------------------|---------------------------------|---------------------------------|
B|---------------------------------|-7-------------------------------|-----------------6---------------|
G|-----------------6---------------|-----------------6---------------|---------6---------------6-------|
D|---------4---------------4-------|---------4---------------4-------|-----6-------6-------6-------6---|
A|-----4-------4-------4-------4---|-----4-------4-------4-------4---|-4-------------------------------|
D|-4-------------------------------|---------------------------------|---------------------------------|


E|-4-------------------------------|---------------------------------|-2-------------------------------|
B|-----------------6---------------|-----------------4---------------|-----------------4---------------|
G|---------6---------------6-------|-------------------------3-------|---------3---------------3-------|
D|-----6-------6-------6-------6---|---------1-----------1-------1---|-----1-------1-------1-------1---|
A|---------------------------------|-----1-------1-------------------|---------------------------------|
D|---------------------------------|-1-------------------------------|---------------------------------|


E|---------------------------------|-2-------------------------------|---------------------------------|
B|-----------------4---------------|-----------------4---------------|---------------------------------|
G|---------4---------------4-------|---------4---------------4-------|-----------------6---------------|
D|-----4-------4-------4-------4---|-----4-------4-------4-------4---|---------4---------------4-------|
A|-2-------------------------------|---------------------------------|-----4-------4-------4-------4---|
D|---------------------------------|---------------------------------|-4-------------------------------|


E|---------------------------------|---------------------------------|-4-----------------------4---1---|
B|-7-------------------------------|-----------------6---------------|-----------------6---7-------6---|
G|-----------------6---------------|---------6---------------6-------|---------6-----------------------|
D|---------4---------------4-------|-----6-------6-------6-------6---|-----6-------6-------------------|
A|-----4-------4-------4-------4---|-4-------------------------------|---------------------------------|
D|---------------------------------|---------------------------------|---------------------------------|


E|-2-------------------------------|-2---------------6---------------|-7-------------------------------|
B|-----------------4---------------|-----------------4---------------|-----------------7---------------|
G|-------------------------3-------|---------3---------------3-------|---------4---------------4-------|
D|---------1-----------1-------1---|-----1-------1-------1-------1---|-----4-------4-------4-------4---|
A|-----1-------1-------------------|---------------------------------|-2-------------------------------|
D|-1-------------------------------|---------------------------------|---------------------------------|


E|-7---------------11--------------|-9-------------------------------|-----------------6---------------|
B|-----------------4---------------|---------------------------------|-7-------------------------------|
G|---------4---------------4-------|-----------------6---------------|-----------------6---------------|
D|-----4-------4-------4-------4---|---------4---------------4-------|---------4---------------4-------|
A|---------------------------------|-----4-------4-------4-------4---|-----4-------4-------4-------4---|
D|---------------------------------|-4-------------------------------|---------------------------------|


E|-4-------------------------------|-4---------------4-------4---4---|-4---6---------------------------|
B|-----------------6---------------|---------------------6-----------|-----------------4---------------|
G|---------6---------------6-------|---------6-----------------------|-------------------------3-------|
D|-----6-------6-------6-------6---|-----6-------6-------------------|---------1-----------1-------1---|
A|-4-------------------------------|---------------------------------|-----1-------1-------------------|
D|---------------------------------|---------------------------------|-1-------------------------------|


E|-2---------------6---------------|-7-------------------------------|-7---------------11--------------|
B|-----------------4---------------|-----------------7---------------|-----------------4---------------|
G|---------3---------------3-------|---------4---------------4-------|---------4---------------4-------|
D|-----1-------1-------1-------1---|-----4-------4-------4-------4---|-----4-------4-------4-------4---|
A|---------------------------------|-2-------------------------------|---------------------------------|
D|---------------------------------|---------------------------------|---------------------------------|


E|-9-------------------------------|-----------------6---------------|-4-------------------------------|
B|---------------------------------|-7-------------------------------|---------------------------------|
G|-----------------6---------------|-----------------6---------------|---------6-------6-------6-------|
D|---------4---------------4-------|---------4---------------4-------|-----6-------6-------6-------6---|
A|-----4-------4-------4-------4---|-----4-------4-------4-------4---|-4-------------------------------|
D|-4-------------------------------|---------------------------------|---------------------------------|


E|-4---------------4-----------4---|------------------------------|---------------------------|
B|-------------------------6-------|------------------------------|--------------9------------|
G|---------6-----------------------|------------------------------|-8--------8-----------8----|
D|-----6-------6-------6-----------|---------6---8---9----8---9---|------9-----------6--------|
A|---------------------------------|-----6------------------------|---------------------------|
D|---------------------------------|-6----------------------------|---------------------------|


E|------------------------------|---------------------------|------------------------------|
B|------------------------------|--------------12-----------|------------------------------|
G|------------------------------|-11-------11----------11---|------------------------------|
D|---------9---11--13---9---13--|------13----------13-------|---------4---6---8----4---8---|
A|-----9------------------------|---------------------------|-----4------------------------|
D|-9----------------------------|---------------------------|-4----------------------------|


E|------------------------------|------------------------------|-4----------------------------|
B|--------------7---------------|-----------------6--------6---|--------------6---------------|
G|-6--------6-----------6-------|---------6------------6-------|----------6-----------6-------|
D|------8-----------4-------4---|-----6-------6----------------|------6-----------6-------6---|
A|------------------------------|-4----------------------------|------------------------------|
D|------------------------------|------------------------------|------------------------------|


E|---------------------------------|-2-------------------------------|---------------------------------|
B|-----------------4---------------|-----------------4---------------|-----------------6---------------|
G|---------4---------------4-------|---------4---------------4-------|---------6---------------6-------|
D|-----4-------4-------4-------4---|-----4-------4-------4-------4---|-----6-------6-------6-------6---|
A|-2-------------------------------|---------------------------------|-4-------------------------------|
D|---------------------------------|---------------------------------|---------------------------------|


E|-4-------------------------------|---------------------------------|---------------------------------|
B|-----------------6---------------|---------------------------------|-----------------6---------------|
G|---------6---------------6-------|-----------------6---------------|---------6---------------6-------|
D|-----6-------6-------6-------6---|---------4---------------4-------|-----6-------6-------6-------6---|
A|---------------------------------|-----4-------4-------4-------4---|-4-------------------------------|
D|---------------------------------|-4-------------------------------|-3-------------------------------|


E|-------------------------2-------|-1-------------------------------|---------------------------------|
B|-----------------4---------------|-----------------2---------------|-----------------4---------------|
G|---------3-----------3-------3---|---------3---------------3-------|---------4---------------4-------|
D|-----1-------4-------------------|-----4-------4-------4-------4---|-----4-------4-------4-------4---|
A|---------------------------------|---------------------------------|-2-------------------------------|
D|-1-------------------------------|---------------------------------|---------------------------------|


E|---------------------------------|---------------------------------|---------------------------------|
B|-4---------------4---------------|-----------------6---------------|-6---------------6---------------|
G|---------4---------------4-------|---------6---------------6-------|---------6---------------6-------|
D|-----4-------4-------4-------4---|-----6-------6-------6-------6---|-----6-------6-------6-------6---|
A|-2-------------------------------|-4-------------------------------|---------------------------------|
D|---------------------------------|---------------------------------|---------------------------------|


E|-------------------------4-------|-6-------------------------------|-2-------------------------------|
B|---------------------------------|-----------------6---------------|-----------------2---------------|
G|-----------------6---------------|---------6---------------6-------|---------4---------------4-------|
D|---------4-----------------------|-----6-------6-------6-------6---|-----4-------4-------4-------4---|
A|-----4-------4-------4-------4---|-4-------------------------------|-2-------------------------------|
D|-4-------------------------------|---------------------------------|---------------------------------|


E|-----------------2---------------|---------------------------------|---------------------------------|
B|-4-------------------------------|-----------------6-------7-------|-9-------7-------6-------7-------|
G|---------4---------------4-------|---------8-----------------------|---------------------------------|
D|-----4-------4-------4-------4---|-----8-------8-------8-------8---|-----8-------8-------8-------8---|
A|---------------------------------|-6-------------------------------|---------------------------------|
D|---------------------------------|---------------------------------|---------------------------------|


E|---------------------------------|---------------------------------|---------------------------------|
B|---------------------------------|---------------------------------|---------------------------------|
G|-----------------10------11------|-13------11------10------11------|-----------------3---------------|
D|---------13----------------------|---------------------------------|---------1---------------1-------|
A|-----9-------9-------9-------9---|-----9-------9-------9-------9---|-----1-------1-------1-------1---|
D|-9-------------------------------|---------------------------------|-1-------------------------------|


E|-----------------2---------------|-2-------------------------------|-----------------2---------------|
B|-4-------------------------------|---------------------------------|-4-------------------------------|
G|---------3---------------3-------|---------4-------4-------4-------|---------4---------------4-------|
D|-----1-------1-------1-------1---|-----4-------4-------4-------4---|-----4-------4-------4-------4---|
A|---------------------------------|-2-------------------------------|---------------------------------|
D|---------------------------------|---------------------------------|---------------------------------|


E|---------------------------------|---------------------------------|---------------------------------|
B|---------------------------------|-----------------7---------------|-6---------------6---------------|
G|---------------------------------|-6-------------------------------|---------------------------------|
D|---------4-------8-------4-------|---------4---------------4-------|---------6---6-----------6---6---|
A|-----4-------4-------4-------4---|-----4-------4-------4-------4---|-4---4---------------4-----------|
D|-4-------------------------------|---------------------------------|---------------------------------|


E|---------------------------------|---------------------------------|-----------------2---------------|
B|-------------6---7---6---4-------|-4-------------------------------|-4-------------------------------|
G|-6---------------------------6---|-----------------3---------------|---------3---------------3-------|
D|---------6-------------------6---|---------1---------------1-------|-----1-------1-------1-------1---|
A|-----4---------------------------|-----1-------1-------1-------1---|---------------------------------|
D|---------------------------------|-1-------------------------------|---------------------------------|


E|--------|--------|-6-------------------------------|-----------------6---------------|
B|--------|--------|---------------------------------|-7-------------------------------|
G|--------|--------|-----------------6---------------|---------------------------------|
D|--------|--------|---------4---------------4-------|---------4---------------4-------|
A|--------|--------|-----4-------4-------4-------4---|-----4-------4-------4-------4---|
D|--------|--------|-4-------------------------------|---------------------------------|


E|-4-------------------------------|-------4-----|------------------------------|--------------7---------------|
B|---------------------------------|-6-----------|------------------------------|-9----------------------------|
G|---------6-------6-------6-------|-------------|--------------------------8---|------8---------------8-------|
D|-----6-------6-------6-------6---|-------------|---------6---8---9----9-------|----------9-------6-------6---|
A|-4-------------------------------|-------------|-----6------------------------|------------------------------|
D|---------------------------------|-------------|-6----------------------------|------------------------------|


E|------------------------------|------------------------------|-6-------------------------------|
B|------------------------------|--------------12----------14--|---------------------------------|
G|------------------------------|-11-------11----------11------|-----------------6---------------|
D|---------9---11--13---9---13--|------13----------13----------|---------4---8-----------4-------|
A|-----9------------------------|------------------------------|-----4---------------4-------4---|
D|-9----------------------------|------------------------------|-4-------------------------------|


E|-----------------6---------------|-4-------------------------------|-----------------4---------------|
B|-7-------------------------------|---------------------------------|-6-------------------------------|
G|---------------------------------|---------6-------6-------6-------|---------6---------------6-------|
D|---------4---------------4-------|-----6-------6-------6-------6---|-----6-------6-------6-------6---|
A|-----4-------4-------4-------4---|-4-------------------------------|---------------------------------|
D|---------------------------------|---------------------------------|---------------------------------|


E|---------------------------------|-2-------------------------------|---------------------------------|
B|-----------------4---------------|-----------------4---------------|-----------------6---------------|
G|---------4---------------4-------|---------4---------------4-------|---------6---------------6-------|
D|-----4-------4-------4-------4---|-----4-------4-------4-------4---|-----6-------6-------6-------6---|
A|-2-------------------------------|---------------------------------|-4-------------------------------|
D|---------------------------------|---------------------------------|---------------------------------|


E|-4-------------------------------|---------------------------------|---------------------------------|
B|-----------------6---------------|---------------------------------|-----------------6---------------|
G|---------6---------------6-------|-----------------6---------------|---------6---------------6-------|
D|-----6-------6-------6-------6---|---------4---------------4-------|-----6-------6-------6-------6---|
A|---------------------------------|-----4-------4-------4-------4---|-4-------------------------------|
D|---------------------------------|-4-------------------------------|-3-------------------------------|


E|-------------------------2-------|-1-------------------------------|---------------------------------|
B|-----------------4---------------|-----------------2---------------|-----------------4---------------|
G|---------3-----------3-------3---|---------3---------------3-------|---------4---------------4-------|
D|-----1-------4-------------------|-----4-------4-------4-------4---|-----4-------4-------4-------4---|
A|---------------------------------|---------------------------------|-2-------------------------------|
D|-1-------------------------------|---------------------------------|---------------------------------|


E|---------------------------------|---------------------------------|---------------------------------|
B|-4---------------4---------------|-----------------6---------------|-6---------------6---------------|
G|---------4---------------4-------|---------6---------------6-------|---------6---------------6-------|
D|-----4-------4-------4-------4---|-----6-------6-------6-------6---|-----6-------6-------6-------6---|
A|-2-------------------------------|-4-------------------------------|---------------------------------|
D|---------------------------------|---------------------------------|---------------------------------|


E|-------------------------4-------|-6-------------------------------|-2------|-2------|
B|---------------------------------|-----------------6---------------|-2------|-2------|
G|-----------------6---------------|---------6---------------6-------|-4------|-4------|
D|---------4-----------------------|-----6-------6-------6-------6---|-4------|-4------|
A|-----4-------4-------4-------4---|-4-------------------------------|-2------|-2------|
D|-4-------------------------------|---------------------------------|--------|--------|


E|-2------|--------|---------------------------------|---------------------------------|
B|-2------|--------|-----------------6-------7-------|-9-------7-------6-------7-------|
G|-4------|--------|---------8-----------------------|---------------------------------|
D|-4------|--------|-----8-------8-------8-------8---|-----8-------8-------8-------8---|
A|-2------|--------|-6-------------------------------|---------------------------------|
D|--------|--------|---------------------------------|---------------------------------|


E|---------------------------------|---------------------------------|-------------------------4-------|
B|---------------------------------|---------------------------------|-----------------7---------------|
G|-----------------10------11------|-13------11------10------11------|---------6-----------------------|
D|---------13----------------------|---------------------------------|-------------4-------4-------4---|
A|-----9-------9-------9-------9---|-----9-------9-------9-------9---|-----4---------------------------|
D|-9-------------------------------|---------------------------------|-4-------------------------------|


E|-6-------4-----------------------|---------------------------------|-4-------------------------------|
B|-----------------7---------------|-----------------6-------7-------|---------7-------6---------------|
G|-------------------------6-------|---------6-----------------------|-------------------------6-------|
D|-----4-------4-------4-------4---|-----6-------6-------6-------6---|-----6-------6-------6-------6---|
A|---------------------------------|-4-------------------------------|---------------------------------|
D|---------------------------------|---------------------------------|---------------------------------|


E|---------------------------------|-2---------------------|---------------------------------|
B|-4---------------4---------------|-----------------4-----|-4---------------4---------------|
G|---------3---------------3-------|---------3-------------|---------4---------------4-------|
D|-----1-------1-------1-------1---|-----1-------1---1-----|-----4-------4-------4-------4---|
A|---------------------------------|-----------------------|-2-------------------------------|
D|-1-------------------------------|-----------------------|---------------------------------|


E|-2---------------------|---------------------------------|-----------------4-----|
B|-----------------4-----|---------------------------------|-7---------------------|
G|---------4-------------|-----------------6---------------|-----------------------|
D|-----4-------4---4-----|---------4---------------4-------|---------4-------------|
A|-----------------------|-----4-------4-------4-------4---|-----4-------4---4-----|
D|-----------------------|-4-------------------------------|-----------------------|


E|-4-----------|--------|--------|--------|--------|--------|
B|------6------|-6------|-6------|-6------|-6------|-6------|
G|-------------|--------|--------|--------|--------|--------|
D|-------------|--------|--------|--------|--------|--------|
A|-4----4------|-4------|-4------|-4------|-4------|-4------|
D|-------------|--------|--------|--------|--------|--------|





Track 3: Violin

E|--------|--------|--------|--------|--------|--------|--------|--------|--------|
B|--------|--------|--------|--------|--------|--------|--------|--------|--------|
G|--------|--------|--------|--------|--------|--------|--------|--------|--------|
D|--------|--------|--------|--------|--------|--------|--------|--------|--------|
A|--------|--------|--------|--------|--------|--------|--------|--------|--------|
E|--------|--------|--------|--------|--------|--------|--------|--------|--------|


E|--------|--------|--------|--------|--------|--------|--------|--------|--------|
B|--------|--------|--------|--------|--------|--------|--------|--------|--------|
G|--------|--------|--------|--------|--------|--------|--------|--------|--------|
D|--------|--------|--------|--------|--------|--------|--------|--------|--------|
A|--------|--------|--------|--------|--------|--------|--------|--------|--------|
E|--------|--------|--------|--------|--------|--------|--------|--------|--------|


E|--------|--------|--------|--------|--------|--------|--------|--------|--------|
B|--------|--------|--------|--------|--------|--------|--------|--------|--------|
G|--------|--------|--------|--------|--------|--------|--------|--------|--------|
D|--------|--------|--------|--------|--------|--------|--------|--------|--------|
A|--------|--------|--------|--------|--------|--------|--------|--------|--------|
E|--------|--------|--------|--------|--------|--------|--------|--------|--------|


E|--------|--------|--------|--------|--------|--------|--------|--------|--------|
B|--------|--------|--------|--------|--------|--------|--------|--------|--------|
G|--------|--------|--------|--------|--------|--------|--------|--------|--------|
D|--------|--------|--------|--------|--------|--------|--------|--------|--------|
A|--------|--------|--------|--------|--------|--------|--------|--------|--------|
E|--------|--------|--------|--------|--------|--------|--------|--------|--------|


E|--------|--------|--------|--------|--------|--------|--------|--------|--------|
B|--------|--------|--------|--------|--------|--------|--------|--------|--------|
G|--------|--------|--------|--------|--------|--------|--------|--------|--------|
D|--------|--------|--------|--------|--------|--------|--------|--------|--------|
A|--------|--------|--------|--------|--------|--------|--------|--------|--------|
E|--------|--------|--------|--------|--------|--------|--------|--------|--------|


E|--------|--------|--------|--------|--------|--------|--------|--------|--------|
B|--------|--------|--------|--------|--------|--------|--------|--------|--------|
G|--------|--------|--------|--------|--------|--------|--------|--------|--------|
D|--------|--------|--------|--------|--------|--------|--------|--------|--------|
A|--------|--------|--------|--------|--------|--------|--------|--------|--------|
E|--------|--------|--------|--------|--------|--------|--------|--------|--------|


E|--------|--------|--------|--------|--------|--------|--------|--------|--------|
B|--------|--------|--------|--------|--------|--------|--------|--------|--------|
G|--------|--------|--------|--------|--------|--------|--------|--------|--------|
D|--------|--------|--------|--------|--------|--------|--------|--------|--------|
A|--------|--------|--------|--------|--------|--------|--------|--------|--------|
E|--------|--------|--------|--------|--------|--------|--------|--------|--------|


E|--------|--------|-----------------------|--------|-----------------------|--------|
B|--------|-4------|-4-----6---7---6---2---|-4------|-4---------------------|--------|
G|--------|--------|-----------------------|--------|-------6---8---6---4---|-3------|
D|--------|--------|-----------------------|--------|-----------------------|--------|
A|--------|--------|-----------------------|--------|-----------------------|--------|
E|--------|--------|-----------------------|--------|-----------------------|--------|


E|--------|--------|--------|--------|--------|--------|--------|--------|--------|
B|--------|--------|--------|--------|--------|--------|--------|--------|--------|
G|--------|--------|--------|--------|--------|--------|--------|--------|--------|
D|--------|--------|--------|--------|--------|--------|--------|--------|--------|
A|--------|--------|--------|--------|--------|--------|--------|--------|--------|
E|--------|--------|--------|--------|--------|--------|--------|--------|--------|


E|--------|--------|--------|--------|--------|--------|--------|--------|--------|
B|--------|--------|--------|--------|--------|--------|--------|--------|--------|
G|--------|--------|--------|--------|--------|--------|--------|--------|--------|
D|--------|--------|--------|--------|--------|--------|--------|--------|--------|
A|--------|--------|--------|--------|--------|--------|--------|--------|--------|
E|--------|--------|--------|--------|--------|--------|--------|--------|--------|


E|--------|--------|--------|--------|--------|--------|--------|--------|--------|
B|--------|--------|--------|--------|--------|--------|--------|--------|--------|
G|--------|--------|--------|--------|--------|--------|--------|--------|--------|
D|--------|--------|--------|--------|--------|--------|--------|--------|--------|
A|--------|--------|--------|--------|--------|--------|--------|--------|--------|
E|--------|--------|--------|--------|--------|--------|--------|--------|--------|


E|--------|--------|--------|--------|--------|--------|--------|--------|--------|
B|--------|--------|--------|--------|--------|--------|--------|--------|--------|
G|--------|--------|--------|--------|--------|--------|--------|--------|--------|
D|--------|--------|--------|--------|--------|--------|--------|--------|--------|
A|--------|--------|--------|--------|--------|--------|--------|--------|--------|
E|--------|--------|--------|--------|--------|--------|--------|--------|--------|


E|--------|--------|--------|--------|--------|--------|-----------------------|--------|
B|--------|--------|--------|--------|--------|-7------|-7-----6---7---6---2---|-4------|
G|--------|--------|--------|--------|--------|--------|-----------------------|--------|
D|--------|--------|--------|--------|--------|--------|-----------------------|--------|
A|--------|--------|--------|--------|--------|--------|-----------------------|--------|
E|--------|--------|--------|--------|--------|--------|-----------------------|--------|


E|-----------------------|--------|-------------|--------|--------|--------|--------|
B|-4---------------------|--------|-------------|--------|--------|--------|--------|
G|-------6---8---6---4---|-3------|-6-----3-----|-1------|--------|--------|--------|
D|-----------------------|--------|-------------|--------|-3------|--------|--------|
A|-----------------------|--------|-------------|--------|--------|--------|--------|
E|-----------------------|--------|-------------|--------|--------|--------|--------|


E|--------|--------|--------|--------|--------|--------|--------|--------|--------|
B|--------|--------|--------|--------|--------|--------|--------|--------|--------|
G|--------|--------|--------|--------|--------|--------|--------|--------|--------|
D|--------|--------|--------|--------|--------|--------|--------|--------|--------|
A|--------|--------|--------|--------|--------|--------|--------|--------|--------|
E|--------|--------|--------|--------|--------|--------|--------|--------|--------|


E|--------|
B|--------|
G|--------|
D|--------|
A|--------|
E|--------|





Track 4: Strings

E|--------|--------|--------|--------|--------|--------|--------|--------|--------|
B|--------|--------|--------|--------|--------|--------|--------|--------|--------|
G|--------|--------|--------|--------|--------|--------|--------|--------|--------|
D|--------|--------|--------|--------|--------|--------|--------|--------|--------|
A|--------|--------|--------|--------|--------|--------|--------|--------|--------|
E|--------|--------|--------|--------|--------|--------|--------|--------|--------|


E|--------|--------|--------|--------|--------|--------|--------|--------|--------|
B|--------|--------|--------|--------|--------|--------|--------|--------|--------|
G|--------|--------|--------|--------|--------|--------|--------|--------|--------|
D|--------|--------|--------|--------|--------|--------|--------|--------|--------|
A|--------|--------|--------|--------|--------|--------|--------|--------|--------|
E|--------|--------|--------|--------|--------|--------|--------|--------|--------|


E|--------|--------|--------|--------|--------|--------|--------|--------|--------|
B|--------|--------|--------|--------|--------|--------|--------|--------|--------|
G|--------|--------|--------|--------|--------|--------|--------|--------|--------|
D|--------|--------|--------|--------|--------|--------|--------|--------|--------|
A|--------|--------|--------|--------|--------|--------|--------|--------|--------|
E|--------|--------|--------|--------|--------|--------|--------|--------|--------|


E|--------|--------|--------|--------|--------|--------|--------|--------|--------|
B|--------|--------|--------|--------|--------|--------|--------|--------|--------|
G|--------|--------|--------|--------|--------|--------|--------|--------|--------|
D|--------|--------|--------|--------|--------|--------|--------|--------|--------|
A|--------|--------|--------|--------|--------|--------|--------|--------|--------|
E|--------|--------|--------|--------|--------|--------|--------|--------|--------|


E|--------|--------|--------|--------|--------|--------|--------|--------|--------|
B|--------|--------|--------|--------|--------|--------|--------|--------|--------|
G|--------|--------|--------|--------|--------|--------|--------|--------|--------|
D|--------|--------|--------|--------|--------|--------|--------|--------|--------|
A|--------|--------|--------|--------|--------|--------|--------|--------|--------|
E|--------|--------|--------|--------|--------|--------|--------|--------|--------|


E|--------|--------|--------|--------|--------|--------|--------|--------|--------|
B|--------|--------|--------|--------|--------|--------|--------|--------|--------|
G|--------|--------|--------|--------|--------|--------|--------|--------|--------|
D|--------|--------|--------|--------|--------|--------|--------|--------|--------|
A|--------|--------|--------|--------|--------|--------|--------|--------|--------|
E|--------|--------|--------|--------|--------|--------|--------|--------|--------|


E|--------|--------|--------|--------|--------|--------|--------|--------|--------|
B|--------|--------|--------|--------|--------|--------|--------|--------|--------|
G|--------|--------|--------|--------|--------|--------|--------|--------|--------|
D|--------|--------|--------|--------|--------|--------|--------|--------|--------|
A|--------|--------|--------|--------|--------|--------|--------|--------|--------|
E|--------|--------|--------|--------|--------|--------|--------|--------|--------|


E|--------|--------|--------|--------|--------|--------|--------|--------|--------|
B|--------|--------|--------|--------|--------|--------|--------|--------|--------|
G|--------|--------|--------|--------|--------|--------|--------|--------|--------|
D|--------|--------|--------|--------|--------|--------|--------|--------|--------|
A|--------|--------|--------|--------|--------|--------|--------|--------|--------|
E|--------|--------|--------|--------|--------|--------|--------|--------|--------|


E|--------|--------|--------|------------------------------|--------|--------|--------|
B|--------|--------|--------|----------6---6---7---9---6---|-4------|-4------|--------|
G|--------|--------|--------|------------------------------|--------|--------|--------|
D|--------|--------|--------|------------------------------|--------|--------|--------|
A|--------|--------|--------|------------------------------|--------|--------|--------|
E|--------|--------|--------|------------------------------|--------|--------|--------|


E|--------|--------|--------|--------|--------|--------|--------|-14--13--11-----|
B|--------|--------|-7------|--------|--------|--------|--------|----------------|
G|--------|--------|--------|--------|--------|--------|--------|----------------|
D|--------|--------|--------|--------|--------|--------|--------|----------------|
A|--------|--------|--------|--------|--------|--------|--------|----------------|
E|--------|--------|--------|--------|--------|--------|--------|----------------|


E|-11----14----|--------|-18-----21---|-21-----|-21-----|-14-----|-14-----|-16-----|
B|-------------|--------|-------------|--------|--------|--------|--------|--------|
G|-------------|--------|-------------|--------|--------|--------|--------|--------|
D|-------------|--------|-------------|--------|--------|--------|--------|--------|
A|-------------|--------|-------------|--------|--------|--------|--------|--------|
E|-------------|--------|-------------|--------|--------|--------|--------|--------|


E|-16-----|--------|--------|--------|--------|--------|--------|--------|--------|
B|--------|--------|--------|--------|--------|--------|--------|--------|--------|
G|--------|--------|--------|--------|--------|--------|--------|--------|--------|
D|--------|--------|--------|--------|--------|--------|--------|--------|--------|
A|--------|--------|--------|--------|--------|--------|--------|--------|--------|
E|--------|--------|--------|--------|--------|--------|--------|--------|--------|


E|-----------------|-------------|--------|--------|--------|--------|--------|--------|
B|-----------------|-------------|--------|--------|--------|--------|--------|--------|
G|-------------11--|-13----11----|--------|--------|--------|--------|--------|--------|
D|-------11--------|-------------|--------|--------|--------|--------|--------|--------|
A|-----------------|-------------|--------|--------|--------|--------|--------|--------|
E|-----------------|-------------|--------|--------|--------|--------|--------|--------|


E|--------|--------|--------|--------|--------|--------|--------|--------|--------|
B|--------|--------|--------|--------|--------|--------|--------|--------|--------|
G|--------|--------|--------|--------|--------|--------|--------|--------|--------|
D|--------|--------|--------|--------|--------|--------|--------|--------|--------|
A|--------|--------|--------|--------|--------|--------|--------|--------|--------|
E|--------|--------|--------|--------|--------|--------|--------|--------|--------|


E|--------|--------|--------|--------|--------|--------|--------|--------|--------|
B|--------|--------|--------|--------|--------|--------|--------|--------|--------|
G|--------|--------|--------|--------|--------|--------|--------|--------|--------|
D|--------|--------|--------|--------|--------|--------|--------|--------|--------|
A|--------|--------|--------|--------|--------|--------|--------|--------|--------|
E|--------|--------|--------|--------|--------|--------|--------|--------|--------|





Track 5: Pizzicato Strings

E|--------|--------|--------|--------|--------|--------|--------|--------|--------|
B|--------|--------|--------|--------|--------|--------|--------|--------|--------|
G|--------|--------|--------|--------|--------|--------|--------|--------|--------|
D|--------|--------|--------|--------|--------|--------|--------|--------|--------|
A|--------|--------|--------|--------|--------|--------|--------|--------|--------|
D|--------|--------|--------|--------|--------|--------|--------|--------|--------|


E|--------|--------|--------|--------|--------|--------|--------|--------|--------|
B|--------|--------|--------|--------|--------|--------|--------|--------|--------|
G|--------|--------|--------|--------|--------|--------|--------|--------|--------|
D|--------|--------|--------|--------|--------|--------|--------|--------|--------|
A|--------|--------|--------|--------|--------|--------|--------|--------|--------|
D|--------|--------|--------|--------|--------|--------|--------|--------|--------|


E|--------|--------|--------|--------|--------|--------|--------|--------|--------|
B|--------|--------|--------|--------|--------|--------|--------|--------|--------|
G|--------|--------|--------|--------|--------|--------|--------|--------|--------|
D|--------|--------|--------|--------|--------|--------|--------|--------|--------|
A|--------|--------|--------|--------|--------|--------|--------|--------|--------|
D|--------|--------|--------|--------|--------|--------|--------|--------|--------|


E|--------|--------|--------|--------|--------|--------|--------|--------|--------|
B|--------|--------|--------|--------|--------|--------|--------|--------|--------|
G|--------|--------|--------|--------|--------|--------|--------|--------|--------|
D|--------|--------|--------|--------|--------|--------|--------|--------|--------|
A|--------|--------|--------|--------|--------|--------|--------|--------|--------|
D|--------|--------|--------|--------|--------|--------|--------|--------|--------|


E|--------|--------|--------|--------|--------|--------|--------|--------|--------|
B|--------|--------|--------|--------|--------|--------|--------|--------|--------|
G|--------|--------|--------|--------|--------|--------|--------|--------|--------|
D|--------|--------|--------|--------|--------|--------|--------|--------|--------|
A|--------|--------|--------|--------|--------|--------|--------|--------|--------|
D|--------|--------|--------|--------|--------|--------|--------|--------|--------|


E|--------|--------|--------|--------|--------|--------|--------|--------|--------|
B|--------|--------|--------|--------|--------|--------|--------|--------|--------|
G|--------|--------|--------|--------|--------|--------|--------|--------|--------|
D|--------|--------|--------|--------|--------|--------|--------|--------|--------|
A|--------|--------|--------|--------|--------|--------|--------|--------|--------|
D|--------|--------|--------|--------|--------|--------|--------|--------|--------|


E|--------|--------|--------|--------|--------|--------|--------|--------|--------|
B|--------|--------|--------|--------|--------|--------|--------|--------|--------|
G|--------|--------|--------|--------|--------|--------|--------|--------|--------|
D|--------|--------|--------|--------|--------|--------|--------|--------|--------|
A|--------|--------|--------|--------|--------|--------|--------|--------|--------|
D|--------|--------|--------|--------|--------|--------|--------|--------|--------|


E|--------|--------|--------|--------|--------|--------|--------|--------|--------|
B|--------|--------|--------|--------|--------|--------|--------|--------|--------|
G|--------|--------|--------|--------|--------|--------|--------|--------|--------|
D|--------|--------|--------|--------|--------|--------|--------|--------|--------|
A|--------|--------|--------|--------|--------|--------|--------|--------|--------|
D|--------|--------|--------|--------|--------|--------|--------|--------|--------|


E|--------|--------|--------|--------|--------|--------|--------|----------14--------|
B|--------|--------|--------|--------|--------|--------|--------|--------------------|
G|--------|--------|--------|--------|--------|--------|--------|--------------------|
D|--------|--------|--------|--------|--------|--------|--------|--------------------|
A|--------|--------|--------|--------|--------|--------|--------|--------------------|
D|--------|--------|--------|--------|--------|--------|--------|--------------------|


E|--------|--------|--------|--------|--------|--------|--------|--------|--------|
B|--------|--------|--------|--------|--------|--------|--------|--------|--------|
G|--------|--------|--------|--------|--------|--------|--------|--------|--------|
D|--------|--------|--------|--------|--------|--------|--------|--------|--------|
A|--------|--------|--------|--------|--------|--------|--------|--------|--------|
D|--------|--------|--------|--------|--------|--------|--------|--------|--------|


E|--------|--------|--------|--------|--------|--------|--------|--------|--------|
B|--------|--------|--------|--------|--------|--------|--------|--------|--------|
G|--------|--------|--------|--------|--------|--------|--------|--------|--------|
D|--------|--------|--------|--------|--------|--------|--------|--------|--------|
A|--------|--------|--------|--------|--------|--------|--------|--------|--------|
D|--------|--------|--------|--------|--------|--------|--------|--------|--------|


E|--------|--------|--------|--------|--------|--------|--------|--------|--------|
B|--------|--------|--------|--------|--------|--------|--------|--------|--------|
G|--------|--------|--------|--------|--------|--------|--------|--------|--------|
D|--------|--------|--------|--------|--------|--------|--------|--------|--------|
A|--------|--------|--------|--------|--------|--------|--------|--------|--------|
D|--------|--------|--------|--------|--------|--------|--------|--------|--------|


E|--------|--------|--------|--------|--------|--------|--------|--------|--------|
B|--------|--------|--------|--------|--------|--------|--------|--------|--------|
G|--------|--------|--------|--------|--------|--------|--------|--------|--------|
D|--------|--------|--------|--------|--------|--------|--------|--------|--------|
A|--------|--------|--------|--------|--------|--------|--------|--------|--------|
D|--------|--------|--------|--------|--------|--------|--------|--------|--------|


E|--------|--------|--------|--------|--------|--------|--------|--------|--------|
B|--------|--------|--------|--------|--------|--------|--------|--------|--------|
G|--------|--------|--------|--------|--------|--------|--------|--------|--------|
D|--------|--------|--------|--------|--------|--------|--------|--------|--------|
A|--------|--------|--------|--------|--------|--------|--------|--------|--------|
D|--------|--------|--------|--------|--------|--------|--------|--------|--------|


E|--------|--------|--------|--------|--------|
B|--------|--------|--------|--------|--------|
G|--------|--------|--------|--------|--------|
D|--------|--------|--------|--------|--------|
A|--------|--------|--------|--------|--------|
D|--------|--------|--------|--------|--------|





Track 6: Piano

E|--------|--------|--------|--------|--------|--------|--------|--------|--------|
B|--------|--------|--------|--------|--------|--------|--------|--------|--------|
G|--------|--------|--------|--------|--------|--------|--------|--------|--------|
D|--------|--------|--------|--------|--------|--------|--------|--------|--------|
A|--------|--------|--------|--------|--------|--------|--------|--------|--------|
D|--------|--------|--------|--------|--------|--------|--------|--------|--------|


E|--------|--------|--------|--------|--------|--------|--------|--------|--------|
B|--------|--------|--------|--------|--------|--------|--------|--------|--------|
G|--------|--------|--------|--------|--------|--------|--------|--------|--------|
D|--------|--------|--------|--------|--------|--------|--------|--------|--------|
A|--------|--------|--------|--------|--------|--------|--------|--------|--------|
D|--------|--------|--------|--------|--------|--------|--------|--------|--------|


E|--------|--------|--------|--------|--------|--------|--------|--------|--------|
B|--------|--------|--------|--------|--------|--------|--------|--------|--------|
G|--------|--------|--------|--------|--------|--------|--------|--------|--------|
D|--------|--------|--------|--------|--------|--------|--------|--------|--------|
A|--------|--------|--------|--------|--------|--------|--------|--------|--------|
D|--------|--------|--------|--------|--------|--------|--------|--------|--------|


E|--------|--------|--------|--------|--------|--------|--------|--------|--------|
B|--------|--------|--------|--------|--------|--------|--------|--------|--------|
G|--------|--------|--------|--------|--------|--------|--------|--------|--------|
D|--------|--------|--------|--------|--------|--------|--------|--------|--------|
A|--------|--------|--------|--------|--------|--------|--------|--------|--------|
D|--------|--------|--------|--------|--------|--------|--------|--------|--------|


E|--------|--------|--------|--------|--------|--------|--------|--------|--------|
B|--------|--------|--------|--------|--------|--------|--------|--------|--------|
G|--------|--------|--------|--------|--------|--------|--------|--------|--------|
D|--------|--------|--------|--------|--------|--------|--------|--------|--------|
A|--------|--------|--------|--------|--------|--------|--------|--------|--------|
D|--------|--------|--------|--------|--------|--------|--------|--------|--------|


E|--------|--------|--------|--------|--------|--------|--------|--------|--------|
B|--------|--------|--------|--------|--------|--------|--------|--------|--------|
G|--------|--------|--------|--------|--------|--------|--------|--------|--------|
D|--------|--------|--------|--------|--------|--------|--------|--------|--------|
A|--------|--------|--------|--------|--------|--------|--------|--------|--------|
D|--------|--------|--------|--------|--------|--------|--------|--------|--------|


E|--------|--------|--------|--------|--------|--------|--------|--------|--------|
B|--------|--------|--------|--------|--------|--------|--------|--------|--------|
G|--------|--------|--------|--------|--------|--------|--------|--------|--------|
D|--------|--------|--------|--------|--------|--------|--------|--------|--------|
A|--------|--------|--------|--------|--------|--------|--------|--------|--------|
D|--------|--------|--------|--------|--------|--------|--------|--------|--------|


E|--------|--------|--------|--------|--------|--------|--------|--------|--------|
B|--------|--------|--------|--------|--------|--------|--------|--------|--------|
G|--------|--------|--------|--------|--------|--------|--------|--------|--------|
D|--------|--------|--------|--------|--------|--------|--------|--------|--------|
A|--------|--------|--------|--------|--------|--------|--------|--------|--------|
D|--------|--------|--------|--------|--------|--------|--------|--------|--------|


E|--------|--------|--------|--------|--------|--------|---------------------------------|
B|--------|--------|--------|--------|--------|--------|-4---------------4---------------|
G|--------|--------|--------|--------|--------|--------|---------4---------------4-------|
D|--------|--------|--------|--------|--------|--------|-----4-------4-------4-------4---|
A|--------|--------|--------|--------|--------|--------|-2-------------------------------|
D|--------|--------|--------|--------|--------|--------|---------------------------------|


E|-2-------------------------------|--------|--------|--------|--------|--------|--------|
B|---------------------------------|--------|--------|--------|--------|--------|--------|
G|---------4-------4-------4-------|--------|--------|--------|--------|--------|--------|
D|-----4-------4-------4-------4---|--------|--------|--------|--------|--------|--------|
A|---------------------------------|--------|--------|--------|--------|--------|--------|
D|---------------------------------|--------|--------|--------|--------|--------|--------|


E|--------|--------|--------|--------|--------|--------|--------|--------|--------|
B|--------|--------|--------|--------|--------|--------|--------|--------|--------|
G|--------|--------|--------|--------|--------|--------|--------|--------|--------|
D|--------|--------|--------|--------|--------|--------|--------|--------|--------|
A|--------|--------|--------|--------|--------|--------|--------|--------|--------|
D|--------|--------|--------|--------|--------|--------|--------|--------|--------|


E|--------|--------|--------|--------|--------|--------|--------|--------|--------|
B|--------|--------|--------|--------|--------|--------|--------|--------|--------|
G|--------|--------|--------|--------|--------|--------|--------|--------|--------|
D|--------|--------|--------|--------|--------|--------|--------|--------|--------|
A|--------|--------|--------|--------|--------|--------|--------|--------|--------|
D|--------|--------|--------|--------|--------|--------|--------|--------|--------|


E|--------|--------|--------|--------|--------|--------|--------|--------|--------|
B|--------|--------|--------|--------|--------|--------|--------|--------|--------|
G|--------|--------|--------|--------|--------|--------|--------|--------|--------|
D|--------|--------|--------|--------|--------|--------|--------|--------|--------|
A|--------|--------|--------|--------|--------|--------|--------|--------|--------|
D|--------|--------|--------|--------|--------|--------|--------|--------|--------|


E|--------|--------|--------|--------|--------|--------|--------|--------|--------|
B|--------|--------|--------|--------|--------|--------|--------|--------|--------|
G|--------|--------|--------|--------|--------|--------|--------|--------|--------|
D|--------|--------|--------|--------|--------|--------|--------|--------|--------|
A|--------|--------|--------|--------|--------|--------|--------|--------|--------|
D|--------|--------|--------|--------|--------|--------|--------|--------|--------|


E|--------|--------|--------|--------|--------|--------|--------|--------|
B|--------|--------|--------|--------|--------|--------|--------|--------|
G|--------|--------|--------|--------|--------|--------|--------|--------|
D|--------|--------|--------|--------|--------|--------|--------|--------|
A|--------|--------|--------|--------|--------|--------|--------|--------|
D|--------|--------|--------|--------|--------|--------|--------|--------|





Track 7: Untitled

G|--------|--------|--------|--------|--------|--------|--------|--------|--------|
D|--------|--------|--------|--------|--------|--------|--------|--------|--------|
A|--------|--------|--------|--------|--------|--------|--------|--------|--------|
D|--------|--------|--------|--------|--------|--------|--------|--------|--------|


G|--------|--------|--------|--------|--------|--------|--------|--------|--------|
D|--------|--------|--------|--------|--------|--------|--------|--------|--------|
A|--------|--------|--------|--------|--------|--------|--------|--------|--------|
D|--------|--------|--------|--------|--------|--------|--------|--------|--------|


G|--------|--------|--------|--------|--------|--------|--------|---------------------------|
D|--------|--------|--------|--------|--------|--------|-1------|-1---------1---3---3---4---|
A|--------|--------|--------|--------|--------|--------|--------|-------1-------------------|
D|--------|--------|--------|--------|--------|--------|--------|---------------------------|


G|--------|-----------------------|--------|-----------------------|--------|-----------------------|
D|--------|-----------------------|-4------|-4-----4---6---6---8---|--------|---------------1---3---|
A|-2------|-2-----2---4---4---6---|--------|-----------------------|-4------|-4-----4---6-----------|
D|--------|-----------------------|--------|-----------------------|--------|-----------------------|


G|--------|-----------------------|--------|-----------------------|--------|---------------------------|
D|-1------|-1-----1---3---3---4---|--------|-----------------------|-4------|-4---------4---6---6---8---|
A|--------|-----------------------|-2------|-2-----2---4---4---6---|--------|-------4-------------------|
D|--------|-----------------------|--------|-----------------------|--------|---------------------------|


G|--------|-------------|--------|-----------------|--------|---------------------------|
D|--------|-------------|--------|-----------------|--------|-------------------1---3---|
A|-4------|-4------4----|--------|-----------1-----|-2------|-2---------2---4-----------|
D|--------|-------------|-6------|-6-----6---------|--------|-------4-------------------|


G|--------|----------------|--------|--------|--------|--------|--------|--------|
D|-4------|-4------4---6---|--------|--------|--------|--------|--------|--------|
A|--------|----------------|-4------|-4------|--------|--------|--------|--------|
D|--------|----------------|--------|--------|--------|--------|--------|--------|


G|----------------|-----------------------|--------|-----------------|--------|---------------------------|
D|-4----------4---|-3-------------4---3---|-1------|-1-----1---------|--------|---------------------------|
A|--------4-------|-----------4-----------|--------|------------4----|-2------|-2-------2----2----4---6---|
D|----------------|-----------------------|--------|-----------------|--------|-----4---------------------|


G|--------|------------------------|----------------|-------------|--------|--------|
D|--------|-------------------3----|-4----------4---|-3-----3-----|-9------|-9------|
A|-4------|-4---------4---6--------|--------4-------|-------------|--------|--------|
D|--------|-------4----------------|----------------|-------------|--------|--------|


G|--------|--------|--------|--------|--------|--------|--------|--------11--13--|
D|--------|--------|--------|--------|--------|-1------|--------|----------------|
A|--------|--------|--------|--------|--------|--------|-2------|-2--------------|
D|--------|--------|--------|--------|--------|--------|--------|----------------|


G|--------|----------------|--------|---------------------------|--------|-------------|
D|--------|----------------|--------|---------------------------|--------|-------------|
A|--------|--------4---6---|-4------|-4----4----4---6---6---8---|-6------|-6------6----|
D|-4------|-4--------------|--------|---------------------------|--------|-------------|


G|-------------8---8-----|-11---11-------------|--------|----------------|--------|
D|---------9-------------|-----------9---------|--------|----------------|--------|
A|-----9-----------------|----------------9----|-9------|-9------4---6---|-4------|
D|-9---------------------|---------------------|--------|----------------|--------|


G|-------------|--------|-----------------|--------|-----------6-----------|--------|
D|-------------|--------|-----------------|--------|---------------4---6---|-4------|
A|-4------4----|--------|-----------1-----|-2------|-2-----2---------------|--------|
D|-------------|-6------|-6-----6---------|--------|-----------------------|--------|


G|-------------|--------|-----------------|--------|-----------------------|--------|
D|-4-----------|--------|-----------------|--------|-----------------------|--------|
A|-------6-----|-4------|-4---------4-----|-2------|-2-------2-----4---6---|-4------|
D|-------------|--------|-------6---------|--------|-----4-----------------|--------|


G|--------------------|----------------|-----------------------|--------|---------------------|
D|--------------------|-4----------4---|-3-------------4---3---|-1------|-1---------1---------|
A|-4-------4-----4----|--------4-------|-----------4-----------|--------|-------1--------4----|
D|-----6--------------|----------------|-----------------------|--------|---------------------|


G|--------|-----------------------|--------|------------------------|----------------|
D|--------|-----------------------|--------|--------------1---3-----|-4----------4---|
A|-2------|-2-------2-----4---6---|-4------|-4---4---6--------------|--------4-------|
D|--------|-----4-----------------|--------|------------------------|----------------|


G|-------------|--------|--------|--------|--------|-8------|-8-----8-------8---10--|
D|-3-----3-----|-9------|-9------|-9------|--------|--------|-----------8-----------|
A|-------------|--------|--------|--------|--------|--------|-----------------------|
D|-------------|--------|--------|--------|--------|--------|-----------------------|


G|-10--11--11-----|-11----11------11--13--|-13--15--15-----|-15----15----13--|-13-----13--11--|
D|----------------|-----------11----------|----------------|-----------------|----------------|
A|----------------|-----------------------|----------------|-----------------|----------------|
D|----------------|-----------------------|----------------|-----------------|----------------|


G|-10----10--11--10------|----------------|--------|--------|--------|--------|--------|
D|-------------------11--|-11--13--13-----|-13-----|--------|--------|--------|--------|
A|-----------------------|----------------|--------|--------|--------|--------|--------|
D|-----------------------|----------------|--------|--------|--------|--------|--------|


G|--------|--------|--------|--------|--------|--------|
D|--------|--------|--------|--------|--------|--------|
A|-4------|-4------|-4------|-4------|-4------|-4------|
D|--------|--------|--------|--------|--------|--------|