Menu:

 

Search:

 

jefferson airplane - embryonic journey:

 



Title: Embryonic Journey
Artist: 
Album: Surrealistic Pillow
Author: Jorma Kaukonen


Track 1: Acoustic guitar

E|-----------------------------------------------|-----------------------------------------------|
B|-----7--8--8--7--------7--8-----7--7-----------|-----7--8-----7--8-----7--8-----7--7-----------|
G|--------------------7-----------------7-----7--|--------------------7-----------------7-----7--|
D|-----7--9--9-----7-----7--9--9-----------7-----|-----7--9-----7--9--------9--9--7--7-----7-----|
A|-----------------------------------------------|-----------------------------------------------|
D|-0---------0-----------0-----------0-----------|-0---------0-----------0-----------0-----------|


E|---------------------------------------------|-------------------------------------------|
B|-7--8-----7--7---------10--10-------8--------|-7---------7--8-----7---------------7------|
G|----------------7------11--11-11-11-9-----7--|--------7---------------------7--7---------|
D|----9--9-----------7-------0-----------0-----|-----7--------9--9---------7-----------7---|
A|---------------------------------------------|-------------------------------------------|
D|-0-----------0---------0---------0-----------|-0---------0-----------0---------0---------|


E|-----------------------------------------------|-------------------------------------------------|
B|-----7--8-----7--8-----7--8-----7--7-----------|-------7--8-----7--8-----7--8-----7--7-----------|
G|--------------------7-----------7--7--7-----7--|----7-----------------7-----------7--7--7-----7--|
D|-----7--9--------9--------9--9-----------7-----|-------7--9--------9--------9--9-----------7-----|
A|-----------------------------------------------|-------------------------------------------------|
D|-0---------0-----------0-----------0-----------|-0-----------0-----------0-----------0-----------|


E|---------------------------------------------|-----------------------------------------------|
B|-7--8-----7--7---------10--10-------8--------|-7---------7--8-----7--7--------------0--------|
G|----------------7------11--11-11-11-9-----7--|--------7-----------------7-----7--7--------0--|
D|----9--9-----------7-------0-----------0-----|-----7--------9--9-----------7-----------0-----|
A|---------------------------------------------|-----------------------------------------------|
D|-0-----------0---------0---------0-----------|-0---------0-----------0-----------------------|


E|-------------------------------------------------|---------2--3-----5--5---------------------|
B|----0-----------0-------------------2--2--2------|-3--------------------------------0--------|
G|----------0-----------0-----0-------2--2--0------|-2--------------------------0-----------0--|
D|-------4-----------4-----------0--2----------2---|---------------0---------0-----------0-----|
A|---------------------------------------0---------|-----0---0---------------------------------|
D|-5-----------4-----------2-----------------------|---------------------0---------0-----------|


E|------------------------------|-----------2--3-----0--0---0---0--0--------|-------------------------------------------------|
B|-0----0--0---0---0--2----2----|-3------3------------------3---3-----------|----0-----------0-------------------2--2--2------|
G|-0----0--0---0---0--2----0----|-2-------------------------2---2-----2--0--|----------0-----------0-----0-------2--2--0------|
D|-4----4--4---0---0--2----2----|-0---------0-----------0---0---0-----------|-------4-----------4-----------0--2----------2---|
A|--------------------0----0----|-0-------------------------0---0-----------|---------------------------------------0---------|
D|-5----4--4---2---2------------|-----0-----------0---------0---0-----------|-5-----------4-----------2-----------------------|


E|---------2--3-----5--5---------------------|------------------------------|-----------0--2------------2---2--2--------|
B|-3--------------------------------0--------|-0----0--0---0---0--2----2----|-3------3-----------3--3---3---3--------3--|
G|-2--------------------------0-----------0--|-0----0--0---0---0--2----0----|-2-------------------------2---2--------2--|
D|---------------0---------0-----------0-----|-4----4--4---0---0--2----2----|-0---------0-----------0---0---0-----0-----|
A|-----0---0---------------------------------|--------------------0----0----|-0-------------------------0---0-----------|
D|---------------------0---------0-----------|-5----4--4---2---2------------|-----0-----------0-------------------------|


E|-2--3-----2--2--3--------5--------------5--------|-5--6-----5--5--3--------3--5-----5--------------|
B|-3--3-----3--3--3-----5--5--------5-----5-----5--|-5--6-----5--5--3--------3--5-----------5-----3--|
G|----------------------4--4--------4-----------4--|-4--5-----4--4--2-----2--2--4-----------4-----2--|
D|-------0-----------0-----------0-----------0-----|-------0-----------0-----------0-----------0-----|
A|-------------------------------------------------|-------------------------------------------------|
D|-0--0--------0--------------0--------0-----------|-0-----------0-----------0-----------0-----------|


E|-3--5-----3--3--2--------2--3-----2--2--0--------|-0--2--5--0--0----------------------2------|
B|-3--5-----3--3--3--------3--3-----3--3--3--------|-3--3-----3--3--3--------------------------|
G|-2--4-----2--2--------2-----------------------2--|----------------------2--2-----------------|
D|-------0-----------0-----------0-----------0-----|-------0-----------0---------0---------0---|
A|-------------------------------------------------|-------------------------------------------|
D|-0-----------0-----------0-----------0-----------|-0-----------0-----------0-------0---------|


E|-2--3-----2--2--3--------5--------------5--------|-5--6-----5--5--3--------3--5-----5--------------|
B|-3--3-----3--3--3-----5--5--------5-----5-----5--|-5--6-----5--5--3--------3--5-----------5-----3--|
G|----------------------4--4--------4-----------4--|-4--5-----4--4--2-----2--2--4-----------4-----2--|
D|-------0-----------0-----------0-----------0-----|-------0-----------0-----------0-----------0-----|
A|-------------------------------------------------|-------------------------------------------------|
D|-0--0--------0--------------0--------0-----------|-0-----------0-----------0-----------0-----------|


E|-3--5-----3--3--2--------2--3-----2--2--0--------|-0--2--5--0--0----------------------2------|
B|-3--5-----3--3--3--------3--3-----3--3--3--------|-3--3-----3--3--3--------------------------|
G|-2--4-----2--2--------2-----------------------2--|----------------------2--2-----------------|
D|-------0-----------0-----------0-----------0-----|-------0-----------0---------0---------0---|
A|-------------------------------------------------|-------------------------------------------|
D|-0-----------0-----------0-----------0-----------|-0-----------0-----------0-------0---------|


E|----------------0------0--2--------------------|------------------------------------2------|
B|----------3--3------------3-----3--3-----------|----3-----------2------3-------------------|
G|-0--4---------------------2-----------2-----0--|-4--------0--2----------------2------------|
D|-------0-----------0---------0-----------0-----|-------0-----------2-------0-----------0---|
A|-----------------------------------------------|-------------0-----------------------------|
D|-0-----------0---------0-----------0-----------|-----------------------0---------0---------|


E|----------------0------0--2--------------------|--------------------------------------0--------|
B|----------3--3------------3-----3--3-----------|-0--3-----------2--------3------------------8--|
G|-0--4---------------------2-----------2-----0--|----------0--2--------0---------2-----------9--|
D|-------0-----------0---------0-----------0-----|-------0-----------2---------0-----------0-----|
A|-----------------------------------------------|-----------------------------------------------|
D|-0-----------0---------0-----------0-----------|-------------------------0---------0--------0--|


E|--------------------------0--------------------|----0------------------------------------------|
B|-10-----8--8--7-----8--10-------8--8--------8--|-10-------8--8--7--------------8--10-10-----8--|
G|-11-----9--9--7-----9--11-------9--9--9-----9--|-11-------9--9--7-----------7--9--11-11-----9--|
D|-----10----------0-----------0-----------0-----|-------0--------------7--9---------------0-----|
A|-----------------------------------------------|-------------------0---------------------------|
D|-0---------0-----------0-----------0-----------|-0-----------0-----------0-----0-----0------0--|


E|--------------------------0--------------------|----0------------------------------------------|
B|-10-----8--8--7-----8--10-------8--8--------8--|-10-------8--8--7-----------7--8--7--7---------|
G|-11-----9--9--------9--11-------9--9--9-----9--|-11-------9--9--7-----------7--9--7--7---------|
D|-----0-----------0-----------0-----------0-----|-------0--------------7--9-----7------------7--|
A|-----------------------------------------------|-------------------0---------------------------|
D|-0---------0-----------0-----------0-----------|-0-----------0-----------0-----------0---0-----|


E|---------------------------------------------|-------------------------------------------|
B|----7--8--8--10-----8--8--7-----8--10--------|----7--8--8--10-----8--8--------7--7-------|
G|----7--9--9--11-----9--9--7-----9--11--------|----7--9--9--11-----9--9--------7--7-------|
D|-9----------------------------------------7--|-9------------------------7--9-------------|
A|---------------------------------------------|---------------------------------------0---|
D|-0-----0-----0---0-----0-----0-----0---0-----|-0-----0-----0---0-----0-----0-----0-------|


E|-------------------------------------------------|-------------------------------------------------|
B|----7--8-----7--8-----7--8-----7--8-----7--8-----|-7--8-----7--8--------------0-----------0--------|
G|----------7--------------------------------------|----------------------7--7--------0-----------0--|
D|----7--9-----7--9--9--7--9-----7--9-----7--9-----|-7--9--9--7--9-----7-----------0-----------4-----|
A|-------------------------------------------------|-------------------------------------------------|
D|-0--------0--0-----0-----0--0--------0--------0--|-0-----0-----0--0--------0-----------5-----------|


E|---------------------------------------------|-2--3-----5--5-----------------------------|
B|----0-------------------2--2--2------3-------|--------------------------0--------0----0--|
G|----------0-----0-------2--2--0------2-------|--------------------0-----------0--0----0--|
D|-------4-----------0--2----------2-----------|-------0---------0-----------0-----4----4--|
A|---------------------------0-------------0---|-0-----------------------------------------|
D|-4-----------2-------------------------------|-------------0---------0-----------5----4--|


E|--------------------------------|-2--3-----0--0---0---0--0--------------------|---------------------------------------------|
B|-0---0---0--2----2----3------3--|-----------------3---3--------------0--------|----0-------------------2--2--2------3-------|
G|-0---0---0--2----0----2---------|-----------------2---2-----2--0-----------0--|----------0-----0-------2--2--0------2-------|
D|-4---0---0--2----2----0---------|-0-----------0---0---0-----------------4-----|-------4-----------0--2----------2-----------|
A|------------0----0----0---------|-----------------0---0-----------------------|---------------------------0-------------0---|
D|-4---2---2----------------0-----|-------0---------0---0-----------5-----------|-4-----------2-------------------------------|


E|-2--3-----5--5-----------------------------|--------------------------------|-0--2---------------------2-----0-----------3--|
B|--------------------------0--------0----0--|-0---0---0--2----2----3------3--|----------3--3---------------------3--5-----5--|
G|--------------------0-----------0--0----0--|-0---0---0--2----0----2---------|--------------------2--------------------------|
D|-------0---------0-----------0-----4----4--|-4---0---0--2----2----0---------|-0-----------0---------0-----------------0-----|
A|-0-----------------------------------------|------------0----0----0---------|-----------------------------------------------|
D|-------------0---------0-----------5----4--|-4---2---2----------------0-----|-------0---------0-----------0-----0-----------|


E|-3--------5--5------------2------------------|----------------------0--------------------|
B|-5--5-----7--7----------------------------8--|-8-----------8--10----------7----------8---|
G|--------------------0------------4--9--------|----9-----9----------------------------9---|
D|-------0---------0-----------0---------0-----|-------0-----------0-----------0-----------|
A|---------------------------------------------|-------------------------------------------|
D|-0-----------0---------0---------0-----------|-0-----------0-----------0---------0-------|


E|----9----9----9--9---9---9--9----|-9----9--9---9---9--------10-10------|-10----------|
B|-8--8----8----8--8---8---8--8----|-8----8--8---8---8--------7--7-------|-7-----------|
G|-9-------------------------------|--------------------9-----7--7-------|-7-----------|
D|---------------------------------|-------------------------------------|-------------|
A|---------------------------------|---------------------------------9---|-------------|
D|-0--0----0----0--0---0---0--0----|-0----0--0---0---0-----0-----0-------|-0-----------|





Track 2: Untitled

G|--------|--------|--------|--------|--------|--------|--------|--------|--------|
D|--------|--------|--------|--------|--------|--------|--------|--------|--------|
A|--------|--------|--------|--------|--------|--------|--------|--------|--------|
E|--------|--------|--------|--------|--------|--------|--------|--------|--------|


G|--------|--------|--------|--------|--------|--------|--------|--------|--------|
D|--------|--------|--------|--------|--------|--------|--------|--------|--------|
A|--------|--------|--------|--------|--------|--------|--------|--------|--------|
E|--------|--------|--------|--------|--------|--------|--------|--------|--------|


G|--------|--------|--------|--------|--------|--------|--------|--------|--------|
D|--------|--------|--------|--------|--------|--------|--------|--------|--------|
A|--------|--------|--------|--------|--------|--------|--------|--------|--------|
E|--------|--------|--------|--------|--------|--------|--------|--------|--------|


G|--------|--------|--------|--------|--------|--------|--------|--------|--------|
D|--------|--------|--------|--------|--------|--------|--------|--------|--------|
A|--------|--------|--------|--------|--------|--------|--------|--------|--------|
E|--------|--------|--------|--------|--------|--------|--------|--------|--------|


G|--------|--------|--------|--------|--------|--------|--------|--------|--------|
D|--------|--------|--------|--------|--------|--------|--------|--------|--------|
A|--------|--------|--------|--------|--------|--------|--------|--------|--------|
E|--------|--------|--------|--------|--------|--------|--------|--------|--------|


G|--------|--------|--------|--------|
D|--------|--------|--------|--------|
A|--------|--------|--------|--------|
E|--------|--------|--------|--------|