Menu:

 

Search:

 

jeanfelix lalanne - laguna girls:

 



Title: Laguna Girls
Artist: 
Album: 
Author: Jean-Felix Lalanne


Track 1: Nylon String Acoustic Guitar

E|---------------------|------------------------|---------------------------|---------------------|
B|---------------------|------------------------|---------------------------|---------------------|
G|---------------------|------------------------|---------------------------|---------------------|
D|---------------------|------------------------|---------------------------|---------------------|
A|---------------------|------------------------|---------------------------|---------------------|
E|-0-----0----0---0----|-----0----0---0-----0---|-----0---0--------0----0---|-0-----0----0---0----|


E|------------------------|---------------------------|----------5--------3----|-0---0---------------------|
B|------------------------|---------------------------|----------3--------1----|-2---2--------3--------3---|
G|------------------------|---------------------------|------------------------|--------------4--------3---|
D|------------------------|---------------------------|------------------------|---------------------------|
A|------------------------|---------------------------|----------3--------1----|-0---0---------------------|
E|-----0----0---0-----0---|-----0---0--------0----0---|-0----0--------0--------|----------0---3----0---2---|


E|-----------------------0---|-0--------5--------3----|-0---0---------------------|
B|---------3----0------------|----------3--------1----|-2---2--------3--------3---|
G|---------2----0---1--------|------------------------|--------------4--------3---|
D|---------------------------|------------------------|---------------------------|
A|---------------------------|----------3--------1----|-0---0---------------------|
E|-----0---1----0---0--------|-0----0--------0--------|----------0---3----0---2---|


E|--------------0---0--------|----------5--------3----|-0---0---------------------|
B|-----0---------------------|----------3--------1----|-2---2--------3--------3---|
G|-----0---1-----------------|------------------------|--------------4--------3---|
D|---------------------------|------------------------|---------------------------|
A|---------------------------|----------3--------1----|-0---0---------------------|
E|-----0---0--------0----0---|-0----0--------0--------|----------0---3----0---2---|


E|-----------------------0---|-0--------5--------3----|-0---0---------------------|
B|---------3----0------------|----------3--------1----|-2---2--------3--------3---|
G|---------2----0---1--------|------------------------|--------------4--------3---|
D|---------------------------|------------------------|---------------------------|
A|---------------------------|----------3--------1----|-0---0---------------------|
E|-----0---1----0---0--------|-0----0--------0--------|----------0---3----0---2---|


E|-----0-----------------0---|----------10--9---9---9---7---|--------------7-----------8---|
B|-----0--------3---3--------|----------12--10--10--10--8---|--------------8-----------9---|
G|-----0---1-----------------|------------------------------|-9--------7---9---7-------8---|
D|---------------------------|------12----------11----------|-----11-------9-----------10--|
A|---------------------------|-0----------------------------|----------------------0-------|
E|-----0---0--------0--------|------------------------------|------------------------------|


E|-----9---------------------|----------10--8---------------|---------0-----------3----4---|
B|-----10-----------10---8---|-8--------------------10--8---|-----8---------------5----6---|
G|-----9------------9----9---|-9----9-----------9-----------|-9-----------7-------5----6---|
D|-----11-----------11---10--|-10---------------------------|------------------------------|
A|--------------0---0--------|------------------------------|---------------------5----6---|
E|---------------------------|-8--------------------9-------|-----7------------------------|


E|-----5---------0-------0---|----------5--------3----|-0---0---------------------|
B|-----7---------4---5---5---|----------3--------1----|-2---2--------3--------3---|
G|-----7---------------------|------------------------|--------------4--------3---|
D|---------------------------|------------------------|---------------------------|
A|-----7---------------------|----------3--------1----|-0---0---------------------|
E|---------------------------|------0--------0--------|----------0---3----0---2---|


E|--------------0--------0---|-0--------5--------3----|-0---0---------------------|
B|---------3----0------------|----------3--------1----|-2---2--------3--------3---|
G|---------2----0---1--------|------------------------|--------------4--------3---|
D|---------------------------|------------------------|---------------------------|
A|---------------------------|----------3--------1----|-0---0---------------------|
E|-----0---1----0---0--------|-0----0--------0--------|----------0---3----0---2---|


E|-----0---------12---12--|----------5--------3----|-0---0---------------------|--------------0--------0---|
B|-----0------------------|----------3--------1----|-2---2--------3--------3---|---------3----0------------|
G|-----0---1-----9----9---|------------------------|--------------4--------3---|---------2----0---1--------|
D|------------------------|------------------------|---------------------------|---------------------------|
A|------------------------|----------3--------1----|-0---0---------------------|---------------------------|
E|-----0---0-----0----0---|------0--------0--------|----------0---3----0---2---|-----0---1----0---0--------|


E|-0--------5--------3----|-0---0---------------------|-----0-----------------0---|
B|----------3--------1----|-2---2--------3--------3---|-----0--------3---3--------|
G|------------------------|--------------4--------3---|-----0---1-----------------|
D|------------------------|---------------------------|---------------------------|
A|----------3--------1----|-0---0---------------------|---------------------------|
E|-0----0--------0--------|----------0---3----0---2---|-----0---0--------0--------|


E|------------------------------|------------------------------|-------------8----------------|
B|--------------0-------8---7---|---------------------10---9---|-----8---8---7----------------|
G|------5---6-------0---9---7---|-7---9---------------11---10--|-----9---9--------------------|
D|------4---5-------------------|-7---10--------------9----7---|-----8---8--------------------|
A|-0----------------------------|---------11--7---0--------0---|----------------------3---4---|
E|------------------------------|------------------------------|-----8---8--------------------|


E|----------5-----------3-------|-----3---1-----------3-------0---|---------3-----------------------|
B|------1---5---3-------3-------|-----3---1-----------3-------4---|---------3---0-------------------|
G|------------------5-------5---|-2-----------1-------------------|-----2-----------2---0-----------|
D|-0----------------------------|---------------------------------|-------------------------2---0---|
A|----------------------0-------|-----1---------------------------|-0-------2-----------------------|
E|------------------------------|-----------------1-------3---3---|---------------------------------|


E|----------5--------3----|-0---0---------------------|--------------0--------0---|
B|----------3--------1----|-2---2--------3--------3---|---------3----0------------|
G|------------------------|--------------4--------3---|-0-------2----0---1--------|
D|------------------------|---------------------------|---------------------------|
A|----------3--------1----|-0---0---------------------|---------------------------|
E|-0----0--------0--------|----------0---3----0---2---|-----0---1----0---0--------|


E|----------5--------3----|-0---0---------------------|-----12------10------------------|
B|----------3--------1----|-2---2--------3--------3---|-----12------10--12--11--10--8---|
G|------------------------|--------------4--------3---|-----------------12--11--10--7---|
D|------------------------|---------------------------|---------------------------------|
A|----------3--------1----|-0---0---------------------|---------------------------------|
E|-0----0--------0--------|----------0---3----0---2---|-----0---------------------------|


E|----------5--------3----|-0---0---------------------|--------------0--------0---|
B|----------3--------1----|-2---2--------3--------3---|---------3----0------------|
G|-9----------------------|--------------4--------3---|---------2----0---1--------|
D|-9----------------------|---------------------------|---------------------------|
A|----------3--------1----|-0---0---------------------|---------------------------|
E|------0--------0--------|----------0---3----0---2---|-----0---1----0---0--------|


E|----------5--------3----|-0---0---------------------|-----0--------0------------|
B|----------3--------1----|-2---2--------3--------3---|-----0---------------------|
G|------------------------|--------------4--------3---|-----0---1-----------------|
D|------------------------|---------------------------|---------------------------|
A|----------3--------1----|-0---0---------------------|---------------------------|
E|-0----0--------0--------|----------0---3----0---2---|-----0---0--------0----0---|


E|-----7---7---7---8---7-----------|---------------------7---7---7---|-8---7-------10------11------12--|
B|-----8---8---8---9---8---8-------|-5-------------------8---8---8---|-9---8-------10------11------12--|
G|-------------------------9-------|-6-------------------------------|---------------------------------|
D|---------------------------------|---------0-----------------------|---------0-------0-------0-------|
A|-0---------------------------0---|---------------------------------|---------------------------------|
E|---------------------------------|-------------7---8---------------|---------------------------------|


E|-----12------------------10------|-----------------9-----------9---|---------9---8---7---------------|
B|-----11--10--------------10--11--|-----------------10--8-------10--|-8-------10--9---8---------------|
G|-------------12--9---12----------|-12--9-----------9-------9---9---|-----9---9---8---7---------------|
D|---------------------------------|---------12----------------------|---------------------------------|
A|---------------------------------|-----------------0-----------0---|---------9---8---7---------------|
E|-0-------------------------------|---------------------------------|-------------------------3---4---|


E|-----2---0---------------3---2---|-0-------------------3---2---0---|---------5---3---2---0-----------|
B|-----3---0---3---0-------5---3---|-0---3---0-----------5---4---1---|-3---0---7---5---3---0---3---0---|
G|-------------4---0---4-----------|-----4-------0-------------------|-4---0-------------------4---0---|
D|---------------------5-----------|---------------------------------|---------------------------------|
A|-0-------------------------------|-----------------3---------------|---------------------------------|
E|---------------------------------|---------------------------------|---------------------------------|


E|-----7---5---3---0-------5---6---|-7-------3---4---5---3---0-------|---------3---2---0---0-----------|
B|-----8---7---5-------0---5---6---|-5-------5---3---------------3---|-0-------------------------------|
G|---------------------------------|---------------------------------|-----0---3---2---0---0-----------|
D|---------------------------------|---------------------------------|---------------------------------|
A|---------------------------------|---------------------------------|---------------------------------|
E|-0-------------------------------|---------------------------------|---------3---2---0-------3---4---|


E|-----2---0-------------------3---|-2---0---------------3---2---0---|-------------5---3---2---0-------|
B|-----3---0---3---0-----------5---|-3---0---3---0-------5---4---1---|-3---0---1---7---3---3---0---3---|
G|-------------4---0---4---0-------|---------4---0-------------------|-4---0---2-------------------4---|
D|---------------------5-----------|---------------------------------|---------------------------------|
A|-0-------------------------------|-----------------3---------------|---------0-----------------------|
E|---------------------------------|---------------------------------|---------------------------------|


E|-----7---5---0-------2---0-------|-----0---------------------------|---------------------------------|
B|-----8---7-------4-----------4---|-0-------0-------0---------------|---------------------------------|
G|---------------------------------|-------------2-------2---0-------|-----0---------------------------|
D|---------------------------------|-----------------------------4---|-1-------4---2-------------------|
A|---------------------------------|---------------------------------|-----------------2---------------|
E|-0-------------------------------|---------------------------------|---------------------3---2---0---|


E|--------|-0------|---------------3----|-2-------------------|-2-----------0---0-------3---2---|
B|--------|-2------|---------------3----|-3-------------------|-3-----------2---2-------3---3---|
G|--------|-2------|---------------2----|-0-------------------|-----0-------------------2---0---|
D|--------|--------|--------------------|---------------------|---------------------------------|
A|--------|-2------|-----------2--------|---------------------|-0-------------------2-----------|
E|-0------|--------|--------------------|-0----2----3----4----|---------4---3---3---------------|


E|-2-------------------|-2-----------0---0-------3---2---|-2-------------------|-2-----------0---0------------|
B|-3-------------------|-3-----------2---2-------3---3---|-3-------------------|-3-----------2---2---2--------|
G|-0-------------------|-----0-------------------2---0---|-0-------------------|-----0------------------------|
D|---------------------|---------------------------------|---------------------|------------------------------|
A|---------------------|-0-------------------2-----------|---------------------|-0----------------------------|
E|-0----2----3----4----|---------4---3---3---------------|-0----2----3----4----|---------4---3---3-------3----|


E|-----2------------0--------|-----0----------------3---2---|-2-------------------|
B|-----3------------3--------|-----3----------------4---3---|-3-------------------|
G|-----2------------3--------|-----3------------1---1---0---|-0-------------------|
D|---------------------------|------------------------------|---------------------|
A|-2-------5----3------------|---------3----2---------------|---------------------|
E|----------------------3----|-2--------------------1---0---|-0----2----3----4----|


E|-2-----------0---0-------3----|-2------------------------------------|-----2------------0-------3---|
B|-3-----------2---2-------3----|-3------------------------------------|-----3------------2-------3---|
G|-----0-------------------2----|-0------------------------------------|--------------------------2---|
D|------------------------------|-2---0-------0---1---2----------------|------------------------------|
A|-0-------------------2--------|---------2----------------------------|-0--------------------2-------|
E|---------4---3---3------------|-------------------------0----3---4---|---------4----3---------------|


E|-----2---2--------------|-2-----------0---0------------|-----2------------0--------|
B|-----3---3--------------|-3-----------2---2---2--------|-----3------------3--------|
G|-----0---0--------------|-----0------------------------|-----2------------3--------|
D|------------------------|------------------------------|---------------------------|
A|------------------------|-0----------------------------|-2-------5----3------------|
E|-0-------2----3----4----|---------4---3---3-------3----|----------------------3----|


E|-----0----------------3---2---|-2---------5---3-------0---|-0----------------------|
B|-----3----------------4---3---|-3-----------------4-------|-----0------------------|
G|-----3------------1---1---0---|-0-------------------------|------------------------|
D|------------------------------|---------------------------|------------------------|
A|---------3----2---------------|---------------------------|-0----------------------|
E|-2--------------------1---0---|-0----2----3-------4-------|---------4----3----2----|


E|-----5-------5---5---3-------0---|-0----------------------|-7----5----3----0----|
B|-------------------------4-------|-----0------------------|---------------------|
G|---------------------------------|------------------------|---------------------|
D|---------------------------------|------------------------|---------------------|
A|---------------------------------|-0----------------------|-0----2----3----4----|
E|-0-------2-------3-------4-------|---------4----3----2----|---------------------|


E|----------------------------|-------------------------------------------------|----------0---0-----|
B|----------------------------|-------------------------------------------------|----------2---2-----|
G|-5----6----7------------6---|---------5-----------4-----------3-----------2---|----------2---2-----|
D|-4----5----6--------5-------|-----4-----------3-----------2-----------1-------|--------------------|
A|-5----6----7----------------|-5-----------------------3-----------------------|----------2---2-----|
E|----------------5-----------|-------------3-----------------------1-----------|-0------------------|


E|-------------------------------------------------|-----------------------------------|
B|-------------------------------------------------|-----------------------------------|
G|---------7-----------6-----------5-----------4---|---------3-----------2-------------|
D|-----6-----------5-----------4-----------3-------|-----2-----------1-----------------|
A|-7-----------------------5-----------------------|-3---------------------------------|
E|-------------5-----------------------3-----------|-------------1-----------0---------|


E|---------3---2---2---------|-----------2-----------0---|-0-------3--------2---2----|
B|---------3---3---3---------|-----------3-----------2---|-2-------3--------3---3----|
G|---------2-----------------|---------------0-----------|---------2--------0---0----|
D|---------------------------|---------------------------|---------------------------|
A|-----2---------------------|-----------0---------------|-----2---------------------|
E|-------------0---0----2----|-3----4------------4---3---|-3----------------0---2----|


E|-----------2-----------0---|-0-------3---2---2---------|-----------2-----------0---|
B|-----------3-----------2---|-2-------3---3---3---------|-----------3-----------2---|
G|---------------0-----------|---------2---0---0---------|---------------0-----------|
D|---------------------------|---------------------------|---------------------------|
A|-----------0---------------|-----2---------------------|-----------0---------------|
E|-3----4------------4---3---|-3---------------0----2----|-3----4------------4---3---|


E|-0---------------------------------|-------------------------------------------------|
B|-2---------------------------------|-------------------------------------------------|
G|-------------------9-----------8---|---------6-----------6-----------5-----------4---|
D|---------------8-----------7-------|-----7-----------5-----------4-----------3-------|
A|-----------9-----------------------|-7-----------------------5-----------------------|
E|-3---------------------7-----------|-------------5-----------------------3-----------|


E|-----------------------------------|------------------------|------------------------|
B|-----------------------------------|------------------------|------------------------|
G|---------3-----------2-------------|------------------------|------------------------|
D|-----2-----------1-----------------|------------------------|------------------------|
A|-3---------------------------------|-----------0---0--------|------------------------|
E|-------------1-----------0----2----|-3----4------------4----|-3----2----0---0---2----|


E|------------------------|------------------------|-----------2--------0---|----------0------------0---|
B|------------------------|------------------------|-----------3--------3---|----------2------------1---|
G|------------------------|------------------------|-----------2--------3---|----------2------------2---|
D|------------------------|------------------------|------------------------|---------------------------|
A|-----------0---0--------|------------------------|-----------2--------3---|---------------------------|
E|-3----4------------4----|-3----2----0---0---2----|-3----4-----------------|------3---2------------1---|


E|----------0---0---------|------------------------|-----------------------------------|
B|----------0---0---------|------------------------|-----------------------------------|
G|----------0---0---------|------------------------|-----------------------------------|
D|------------------------|------------------------|-----------2---0-------0---1---2---|
A|------------------------|-----------0---0--------|-------------------2---------------|
E|----------0---0----2----|-3----4------------4----|-3----2----------------------------|


E|------------------------------|------------------------------|------------------------|
B|------------------------------|------------------------------|------------------------|
G|------------------------------|------------------------------|------------------------|
D|------------------------------|------------------------------|------------------------|
A|--------------0---0-------0---|-----0-------0-------0--------|-----------0---0--------|
E|-0----3---4-----------4-------|-3-------2-------0-------2----|-3----4------------4----|


E|---------------2--------|-----0------------0--------|---------3---2---2---------|
B|---------------3--------|-----3------------3--------|---------4---3---3---------|
G|---------------2--------|-----3------------3--------|-----1---1---0---0---------|
D|------------------------|---------------------------|---------------------------|
A|-----------2-------5----|-3--------------------3----|-2-------------------------|
E|-3----2-----------------|---------3----2------------|---------1---0---0----2----|


E|-5---3-------0---0-----------0---2---|-3---5-------7---7----5----|-3-------2---0---0-------------------|
B|---------4-----------1---2-----------|----------------------5----|-3-------2---0---0-------------------|
G|-------------------------------------|---------------------------|-------------------------------------|
D|-------------------------------------|---------------------------|-------------------------------------|
A|-----------------0-------------------|---------------------------|-----------------0-----------0---1---|
E|-3-------4---------------4-----------|-3-------2-------0----2----|-3---4---------------2---3-----------|


E|-----------------------------0-------|-----3-------5---5---3---2---0---|-0--------6---7----5----|
B|---------3---------------3-------3---|-3-------------------------------|----------6---7----5----|
G|---------2-------3---4---------------|---------------------------------|------------------------|
D|---------1---------------------------|---------------------------------|------------------------|
A|-2---0---2---------------------------|-----------------0---------------|------------------------|
E|---------------------0-------2-------|-3-------4---------------4-------|-3----2-------0----2----|


E|-3---0-------9---10---7----|-5---3---------------0--------|------------------3---3----|
B|-3---0-------9---10---7----|-5---3-------3---5------------|----------3---5------------|
G|---------------------------|------------------------------|---------------------------|
D|---------------------------|------------------------------|---------------------------|
A|-----------------0---------|------------------------------|--------------0------------|
E|-3-------4------------4----|-3-------2-------0-------2----|-3----4---------------4----|


E|-3----------------3-----------|-----3---------------3-----------|-----3-------2---3---7--------|
B|----------3---5-----------3---|-5-----------3---5-----------3---|-5-----------2---3---7--------|
G|------------------------------|---------------------------------|------------------------------|
D|------------------------------|---------------------------------|------------------------------|
A|------------------------------|-----------------0---------------|------------------------------|
E|-3----2-------0-------2-------|-3-------4---------------4-------|-3-------2-------0-------2----|


E|----------2---3---7--------|----------2---3---7-------2---|-3---7-------2---3---7-------2---|
B|----------2---3---7--------|----------2---3---7-------2---|-3---7-------2---3---7-------2---|
G|---------------------------|------------------------------|---------------------------------|
D|---------------------------|------------------------------|---------------------------------|
A|--------------0------------|------------------------------|-----------------0---------------|
E|-3----4---------------4----|-3----2-------0-------2-------|-3-------4---------------4-------|


E|-3---7---------------0-----------|---------------------------------|------------------------------|
B|-3---7-------3---5---------------|-----3---------------------------|------------------------------|
G|-----------------------------3---|-4-----------3---4---3---2---0---|-2---0---------------0--------|
D|---------------------------------|---------------------------------|---------2---0---2------------|
A|---------------------------------|-----------------0---------------|------------------------------|
E|-3-------2-------0-------2-------|-3-------4---------------4-------|-3-------2-------0-------2----|


E|----------------------------------|-------------------------------|------------------------|
B|------0---------------------------|---------1---1--------3---3----|---------------5---5----|
G|----------2---2-------------------|---------1---1--------4---4----|---------------6---6----|
D|----------------------------------|---------0---0--------5---5----|---------------5---5----|
A|--------------0-----------0---1---|-2---0---1---1-----------------|-----------0------------|
E|-3----4-----------2---3-----------|------------------0-------2----|-3----4------------4----|


E|---------------2---2----|---------------3---3----|-----4------------5---5----|---------------7--------|
B|---------------3---3----|---------------3---3----|-----5------------6---6----|---------------8--------|
G|---------------0---0----|---------------4---4----|-----4------------5---5----|---------------7--------|
D|------------------------|------------------------|---------------------------|------------------------|
A|------------------------|-----------0------------|---------------------------|-----------0------------|
E|-3----2----0-------2----|-3----4------------4----|-3-------2----0-------2----|-3----4------------4----|


E|---------------9--------|---------------5--------|-----4------------3--------|-----2------------1--------|
B|---------------10-------|---------------6--------|-----5------------4--------|-----3------------2--------|
G|---------------9--------|---------------5--------|-----4------------3--------|-----2------------1--------|
D|------------------------|------------------------|---------------------------|---------------------------|
A|------------------------|-----------0------------|---------------------------|--------------0------------|
E|-3----2----0-------2----|-3----4------------4----|-3-------2----0-------2----|-3-------4------------4----|


E|---------------------------|---------------------------|---------------------------|
B|-----5------------4--------|-----3------------2--------|---------1---0---0---------|
G|-----5------------4--------|-----3------------2--------|---------1---0---0---------|
D|-----5------------4--------|-----3------------2--------|-----1---------------------|
A|---------------------------|--------------0------------|---------------------------|
E|-3-------2----0-------2----|-3-------4------------4----|-3-----------0---0----2----|


E|-----------2-----------0---|-0-------3---2---2---------|-----------2-----------0---|
B|-----------3-----------2---|-2-------3---3---3---------|-----------3-----------2---|
G|---------------0-----------|---------2---0---0---------|---------------0-----------|
D|---------------------------|---------------------------|---------------------------|
A|-----------0---------------|-----2---------------------|-----------0---------------|
E|-3----4------------4---3---|-3---------------0----2----|-3----4------------4---3---|


E|-0-------3---2---2---------|-----------2-----------0---|-0-------3---2---2---------|
B|-2-------3---3---3---------|-----------3-----------2---|-2-------3---3---3---------|
G|---------2---0---0---------|---------------0-----------|---------2---0---0---------|
D|---------------------------|---------------------------|---------------------------|
A|-----2---------------------|-----------0---------------|-----2---------------------|
E|-3---------------0----2----|-3----4------------4---3---|-3---------------0----2----|


E|-----------2-----------0---|---------------------------|-------------------------------|
B|-----------3-----------2---|---------------------------|-------------------------------|
G|---------------0-----------|---------------------------|-------------------------------|
D|---------------------------|---------------------------|-------------------------------|
A|-----------0---------------|-------------------0---1---|-2---1---2---0-----------------|
E|-3----4------------4---3---|-----------2---3-----------|-----------------3---0---0-----|


E|-2-----2-----|
B|-3-----3-----|
G|-0-----0-----|
D|-2-----2-----|
A|-2-----2-----|
E|-0-----0-----|





Track 2: Finger Snaps

E|--------|--------|--------|--------|--------|--------|-------------|-------------|
B|--------|--------|--------|--------|--------|--------|-------------|-------------|
G|--------|--------|--------|--------|--------|--------|-0------0----|-------0-----|
D|--------|--------|--------|--------|--------|--------|-------------|-------------|
A|--------|--------|--------|--------|--------|--------|-------------|-------------|
E|--------|--------|--------|--------|--------|--------|-------------|-------------|


E|-------------|-------------|-------------|-------------|-------------|-------------|
B|-------------|-------------|-------------|-------------|-------------|-------------|
G|------0------|-0------0----|-------0-----|------0------|-0------0----|-------0-----|
D|-------------|-------------|-------------|-------------|-------------|-------------|
A|-------------|-------------|-------------|-------------|-------------|-------------|
E|-------------|-------------|-------------|-------------|-------------|-------------|


E|-------------|-------------|-------------|-------------|--------|-------------|--------|
B|-------------|-------------|-------------|-------------|--------|-------------|--------|
G|------0------|-0------0----|-------0-----|------0------|--------|-------------|--------|
D|-------------|-------------|-------------|-------------|--------|-------------|--------|
A|-------------|-------------|-------------|-------------|--------|-------------|--------|
E|-------------|-------------|-------------|-------------|--------|-------------|--------|


E|--------|--------|--------|--------|--------|--------|--------|--------|--------|
B|--------|--------|--------|--------|--------|--------|--------|--------|--------|
G|--------|--------|--------|--------|--------|--------|--------|--------|--------|
D|--------|--------|--------|--------|--------|--------|--------|--------|--------|
A|--------|--------|--------|--------|--------|--------|--------|--------|--------|
E|--------|--------|--------|--------|--------|--------|--------|--------|--------|


E|--------|--------|--------|--------|--------|--------|--------|--------|--------|
B|--------|--------|--------|--------|--------|--------|--------|--------|--------|
G|--------|--------|--------|--------|--------|--------|--------|--------|--------|
D|--------|--------|--------|--------|--------|--------|--------|--------|--------|
A|--------|--------|--------|--------|--------|--------|--------|--------|--------|
E|--------|--------|--------|--------|--------|--------|--------|--------|--------|


E|--------|--------|--------|--------|--------|--------|--------|--------|--------|
B|--------|--------|--------|--------|--------|--------|--------|--------|--------|
G|--------|--------|--------|--------|--------|--------|--------|--------|--------|
D|--------|--------|--------|--------|--------|--------|--------|--------|--------|
A|--------|--------|--------|--------|--------|--------|--------|--------|--------|
E|--------|--------|--------|--------|--------|--------|--------|--------|--------|


E|--------|--------|--------|--------|--------|--------|--------|--------|--------|
B|--------|--------|--------|--------|--------|--------|--------|--------|--------|
G|--------|--------|--------|--------|--------|--------|--------|--------|--------|
D|--------|--------|--------|--------|--------|--------|--------|--------|--------|
A|--------|--------|--------|--------|--------|--------|--------|--------|--------|
E|--------|--------|--------|--------|--------|--------|--------|--------|--------|


E|--------|--------|--------|--------|--------|--------|--------|--------|--------|
B|--------|--------|--------|--------|--------|--------|--------|--------|--------|
G|--------|--------|--------|--------|--------|--------|--------|--------|--------|
D|--------|--------|--------|--------|--------|--------|--------|--------|--------|
A|--------|--------|--------|--------|--------|--------|--------|--------|--------|
E|--------|--------|--------|--------|--------|--------|--------|--------|--------|


E|--------|--------|--------|--------|--------|--------|--------|--------|--------|
B|--------|--------|--------|--------|--------|--------|--------|--------|--------|
G|--------|--------|--------|--------|--------|--------|--------|--------|--------|
D|--------|--------|--------|--------|--------|--------|--------|--------|--------|
A|--------|--------|--------|--------|--------|--------|--------|--------|--------|
E|--------|--------|--------|--------|--------|--------|--------|--------|--------|


E|--------|--------|--------|--------|--------|--------|--------|--------|--------|
B|--------|--------|--------|--------|--------|--------|--------|--------|--------|
G|--------|--------|--------|--------|--------|--------|--------|--------|--------|
D|--------|--------|--------|--------|--------|--------|--------|--------|--------|
A|--------|--------|--------|--------|--------|--------|--------|--------|--------|
E|--------|--------|--------|--------|--------|--------|--------|--------|--------|


E|--------|--------|--------|--------|--------|--------|--------|--------|--------|
B|--------|--------|--------|--------|--------|--------|--------|--------|--------|
G|--------|--------|--------|--------|--------|--------|--------|--------|--------|
D|--------|--------|--------|--------|--------|--------|--------|--------|--------|
A|--------|--------|--------|--------|--------|--------|--------|--------|--------|
E|--------|--------|--------|--------|--------|--------|--------|--------|--------|


E|--------|--------|--------|--------|--------|--------|--------|--------|--------|
B|--------|--------|--------|--------|--------|--------|--------|--------|--------|
G|--------|--------|--------|--------|--------|--------|--------|--------|--------|
D|--------|--------|--------|--------|--------|--------|--------|--------|--------|
A|--------|--------|--------|--------|--------|--------|--------|--------|--------|
E|--------|--------|--------|--------|--------|--------|--------|--------|--------|


E|--------|--------|--------|--------|--------|--------|--------|--------|--------|
B|--------|--------|--------|--------|--------|--------|--------|--------|--------|
G|--------|--------|--------|--------|--------|--------|--------|--------|--------|
D|--------|--------|--------|--------|--------|--------|--------|--------|--------|
A|--------|--------|--------|--------|--------|--------|--------|--------|--------|
E|--------|--------|--------|--------|--------|--------|--------|--------|--------|


E|--------|--------|--------|--------|--------|--------|--------|--------|--------|
B|--------|--------|--------|--------|--------|--------|--------|--------|--------|
G|--------|--------|--------|--------|--------|--------|--------|--------|--------|
D|--------|--------|--------|--------|--------|--------|--------|--------|--------|
A|--------|--------|--------|--------|--------|--------|--------|--------|--------|
E|--------|--------|--------|--------|--------|--------|--------|--------|--------|


E|--------|--------|--------|--------|--------|--------|--------|--------|--------|
B|--------|--------|--------|--------|--------|--------|--------|--------|--------|
G|--------|--------|--------|--------|--------|--------|--------|--------|--------|
D|--------|--------|--------|--------|--------|--------|--------|--------|--------|
A|--------|--------|--------|--------|--------|--------|--------|--------|--------|
E|--------|--------|--------|--------|--------|--------|--------|--------|--------|


E|--------|--------|--------|--------|--------|--------|--------|--------|--------|
B|--------|--------|--------|--------|--------|--------|--------|--------|--------|
G|--------|--------|--------|--------|--------|--------|--------|--------|--------|
D|--------|--------|--------|--------|--------|--------|--------|--------|--------|
A|--------|--------|--------|--------|--------|--------|--------|--------|--------|
E|--------|--------|--------|--------|--------|--------|--------|--------|--------|


E|--------|--------|--------|--------|--------|--------|--------|--------|--------|
B|--------|--------|--------|--------|--------|--------|--------|--------|--------|
G|--------|--------|--------|--------|--------|--------|--------|--------|--------|
D|--------|--------|--------|--------|--------|--------|--------|--------|--------|
A|--------|--------|--------|--------|--------|--------|--------|--------|--------|
E|--------|--------|--------|--------|--------|--------|--------|--------|--------|


E|--------|--------|--------|--------|--------|--------|--------|--------|--------|
B|--------|--------|--------|--------|--------|--------|--------|--------|--------|
G|--------|--------|--------|--------|--------|--------|--------|--------|--------|
D|--------|--------|--------|--------|--------|--------|--------|--------|--------|
A|--------|--------|--------|--------|--------|--------|--------|--------|--------|
E|--------|--------|--------|--------|--------|--------|--------|--------|--------|


E|--------|--------|--------|--------|--------|--------|--------|--------|--------|
B|--------|--------|--------|--------|--------|--------|--------|--------|--------|
G|--------|--------|--------|--------|--------|--------|--------|--------|--------|
D|--------|--------|--------|--------|--------|--------|--------|--------|--------|
A|--------|--------|--------|--------|--------|--------|--------|--------|--------|
E|--------|--------|--------|--------|--------|--------|--------|--------|--------|


E|--------|--------|
B|--------|--------|
G|--------|--------|
D|--------|--------|
A|--------|--------|
E|--------|--------|





Track 3: Untitled

G|--------|--------|--------|--------|--------|--------|--------|--------|--------|
D|--------|--------|--------|--------|--------|--------|--------|--------|--------|
A|--------|--------|--------|--------|--------|--------|--------|--------|--------|
E|--------|--------|--------|--------|--------|--------|--------|--------|--------|


G|--------|--------|--------|--------|--------|--------|--------|--------|--------|
D|--------|--------|--------|--------|--------|--------|--------|--------|--------|
A|--------|--------|--------|--------|--------|--------|--------|--------|--------|
E|--------|--------|--------|--------|--------|--------|--------|--------|--------|


G|--------|--------|--------|--------|--------|--------|--------|--------|--------|
D|--------|--------|--------|--------|--------|--------|--------|--------|--------|
A|--------|--------|--------|--------|--------|--------|--------|--------|--------|
E|--------|--------|--------|--------|--------|--------|--------|--------|--------|


G|--------|--------|--------|--------|--------|--------|--------|--------|--------|
D|--------|--------|--------|--------|--------|--------|--------|--------|--------|
A|--------|--------|--------|--------|--------|--------|--------|--------|--------|
E|--------|--------|--------|--------|--------|--------|--------|--------|--------|


G|--------|--------|--------|--------|--------|--------|--------|--------|--------|
D|--------|--------|--------|--------|--------|--------|--------|--------|--------|
A|--------|--------|--------|--------|--------|--------|--------|--------|--------|
E|--------|--------|--------|--------|--------|--------|--------|--------|--------|


G|--------|--------|--------|--------|--------|--------|--------|--------|--------|
D|--------|--------|--------|--------|--------|--------|--------|--------|--------|
A|--------|--------|--------|--------|--------|--------|--------|--------|--------|
E|--------|--------|--------|--------|--------|--------|--------|--------|--------|


G|--------|--------|--------|--------|--------|--------|--------|--------|--------|
D|--------|--------|--------|--------|--------|--------|--------|--------|--------|
A|--------|--------|--------|--------|--------|--------|--------|--------|--------|
E|--------|--------|--------|--------|--------|--------|--------|--------|--------|


G|--------|--------|--------|--------|--------|--------|--------|--------|--------|
D|--------|--------|--------|--------|--------|--------|--------|--------|--------|
A|--------|--------|--------|--------|--------|--------|--------|--------|--------|
E|--------|--------|--------|--------|--------|--------|--------|--------|--------|


G|--------|--------|--------|--------|--------|--------|--------|--------|--------|
D|--------|--------|--------|--------|--------|--------|--------|--------|--------|
A|--------|--------|--------|--------|--------|--------|--------|--------|--------|
E|--------|--------|--------|--------|--------|--------|--------|--------|--------|


G|--------|--------|--------|--------|--------|--------|--------|--------|--------|
D|--------|--------|--------|--------|--------|--------|--------|--------|--------|
A|--------|--------|--------|--------|--------|--------|--------|--------|--------|
E|--------|--------|--------|--------|--------|--------|--------|--------|--------|


G|--------|--------|--------|--------|--------|--------|--------|--------|--------|
D|--------|--------|--------|--------|--------|--------|--------|--------|--------|
A|--------|--------|--------|--------|--------|--------|--------|--------|--------|
E|--------|--------|--------|--------|--------|--------|--------|--------|--------|


G|--------|--------|--------|--------|--------|--------|--------|--------|--------|
D|--------|--------|--------|--------|--------|--------|--------|--------|--------|
A|--------|--------|--------|--------|--------|--------|--------|--------|--------|
E|--------|--------|--------|--------|--------|--------|--------|--------|--------|


G|--------|--------|--------|--------|--------|--------|--------|--------|--------|
D|--------|--------|--------|--------|--------|--------|--------|--------|--------|
A|--------|--------|--------|--------|--------|--------|--------|--------|--------|
E|--------|--------|--------|--------|--------|--------|--------|--------|--------|


G|--------|--------|--------|--------|--------|--------|--------|--------|--------|
D|--------|--------|--------|--------|--------|--------|--------|--------|--------|
A|--------|--------|--------|--------|--------|--------|--------|--------|--------|
E|--------|--------|--------|--------|--------|--------|--------|--------|--------|


G|--------|--------|--------|--------|--------|--------|--------|--------|--------|
D|--------|--------|--------|--------|--------|--------|--------|--------|--------|
A|--------|--------|--------|--------|--------|--------|--------|--------|--------|
E|--------|--------|--------|--------|--------|--------|--------|--------|--------|


G|--------|--------|--------|--------|--------|--------|--------|--------|--------|
D|--------|--------|--------|--------|--------|--------|--------|--------|--------|
A|--------|--------|--------|--------|--------|--------|--------|--------|--------|
E|--------|--------|--------|--------|--------|--------|--------|--------|--------|


G|--------|--------|--------|--------|--------|--------|--------|--------|--------|
D|--------|--------|--------|--------|--------|--------|--------|--------|--------|
A|--------|--------|--------|--------|--------|--------|--------|--------|--------|
E|--------|--------|--------|--------|--------|--------|--------|--------|--------|


G|--------|--------|--------|--------|--------|--------|--------|--------|--------|
D|--------|--------|--------|--------|--------|--------|--------|--------|--------|
A|--------|--------|--------|--------|--------|--------|--------|--------|--------|
E|--------|--------|--------|--------|--------|--------|--------|--------|--------|


G|--------|--------|--------|--------|--------|
D|--------|--------|--------|--------|--------|
A|--------|--------|--------|--------|--------|
E|--------|--------|--------|--------|--------|