Menu:

 

Search:

 

jason king - dominion:

 



Title: Dominion
Artist: 
Album: 
Author: Jason King


Track 1: Acoustic

E|-0---0---0---0---2---2---2---2---|-3---3---3---3---5---5---5---5---|-0---0---0---0---2---2---2---2---|
B|-0---0---0---0---0---0---0---0---|-0---0---0---0---0---0---0---0---|-1---1---1---1---1---1---1---1---|
G|---------------------------------|---------------------------------|---------------------------------|
D|---------------------------------|---------------------------------|---------------------------------|
A|---------------------------------|---------------------------------|---------------------------------|
E|---------------------------------|---------------------------------|---------------------------------|


E|-3---3---3---3---5---5---5---5---|-0---0---0---0---2---2---2---2---|-3---3---3---3---2---3---2--3--2------|
B|-1---1---1---1---1---1---1---1---|-3---3---3---3---3---3---3---3---|-3---3---3---3---3---3---3--3--3--3---|
G|---------------------------------|---------------------------------|--------------------------------------|
D|---------------------------------|---------------------------------|--------------------------------------|
A|---------------------------------|---------------------------------|--------------------------------------|
E|---------------------------------|---------------------------------|--------------------------------------|


E|-0---0---0---0---2---2---2---2---|-3---3---3---3---5---5---5---5---|-0---0---0---0---2---2---2---2---|
B|-0---0---0---0---0---0---0---0---|-0---0---0---0---0---0---0---0---|-1---1---1---1---1---1---1---1---|
G|---------------------------------|---------------------------------|---------------------------------|
D|---------------------------------|---------------------------------|---------------------------------|
A|---------------------------------|---------------------------------|---------------------------------|
E|---------------------------------|---------------------------------|---------------------------------|


E|-3---3---3---3---5---5---5---5---|-0---0---0---0---2---2---2---2---|-3---3---3---3---2---3---2--3--2------|
B|-1---1---1---1---1---1---1---1---|-3---3---3---3---3---3---3---3---|-3---3---3---3---3---3---3--3--3--3---|
G|---------------------------------|---------------------------------|--------------------------------------|
D|---------------------------------|---------------------------------|--------------------------------------|
A|---------------------------------|---------------------------------|--------------------------------------|
E|---------------------------------|---------------------------------|--------------------------------------|


E|-0---0---0---0---2---2---2---2---|-3---3---3---3---5---5---5---5---|-0---0---0---0---2---2---2---2---|
B|-0---0---0---0---0---0---0---0---|-0---0---0---0---0---0---0---0---|-1---1---1---1---1---1---1---1---|
G|---------------------------------|---------------------------------|---------------------------------|
D|---------------------------------|---------------------------------|---------------------------------|
A|---------------------------------|---------------------------------|---------------------------------|
E|---------------------------------|---------------------------------|---------------------------------|


E|-3---3---3---3---5---5---5---5---|-0---0---0---0---2---2---2---2---|-3---3---3---3---2---3---2--3--2------|
B|-1---1---1---1---1---1---1---1---|-3---3---3---3---3---3---3---3---|-3---3---3---3---3---3---3--3--3--3---|
G|---------------------------------|---------------------------------|--------------------------------------|
D|---------------------------------|---------------------------------|--------------------------------------|
A|---------------------------------|---------------------------------|--------------------------------------|
E|---------------------------------|---------------------------------|--------------------------------------|


E|-0---0---0---0---2---2---2---2---|-3---3---3---3---5---5---5---5---|-0---0---0---0---2---2---2---2---|
B|-0---0---0---0---0---0---0---0---|-0---0---0---0---0---0---0---0---|-1---1---1---1---1---1---1---1---|
G|---------------------------------|---------------------------------|---------------------------------|
D|---------------------------------|---------------------------------|---------------------------------|
A|---------------------------------|---------------------------------|---------------------------------|
E|---------------------------------|---------------------------------|---------------------------------|


E|-3---3---3---3---5---5---5---5---|-0---0---0---0---2---2---2---2---|-3---3---3---3---2---3---2--3--2------|
B|-1---1---1---1---1---1---1---1---|-3---3---3---3---3---3---3---3---|-3---3---3---3---3---3---3--3--3--3---|
G|---------------------------------|---------------------------------|--------------------------------------|
D|---------------------------------|---------------------------------|--------------------------------------|
A|---------------------------------|---------------------------------|--------------------------------------|
E|---------------------------------|---------------------------------|--------------------------------------|


E|-0------|-0-----------|--------|--------|--------|--------|--------|--------|--------|
B|-5------|-5-----------|--------|--------|--------|--------|--------|--------|--------|
G|--------|-------------|--------|--------|--------|--------|--------|--------|--------|
D|--------|-------------|--------|--------|--------|--------|--------|--------|--------|
A|--------|-------------|--------|--------|--------|--------|--------|--------|--------|
E|--------|-------------|--------|--------|--------|--------|--------|--------|--------|


E|--------|--------|--------|--------|--------|--------|--------|--------|--------|
B|--------|--------|--------|--------|--------|--------|--------|--------|--------|
G|--------|--------|--------|--------|--------|--------|--------|--------|--------|
D|--------|--------|--------|--------|--------|--------|--------|--------|--------|
A|--------|--------|--------|--------|--------|--------|--------|--------|--------|
E|--------|--------|--------|--------|--------|--------|--------|--------|--------|


E|--------|--------|--------|--------|--------|--------|--------|--------|--------|
B|--------|--------|--------|--------|--------|--------|--------|--------|--------|
G|--------|--------|--------|--------|--------|--------|--------|--------|--------|
D|--------|--------|--------|--------|--------|--------|--------|--------|--------|
A|--------|--------|--------|--------|--------|--------|--------|--------|--------|
E|--------|--------|--------|--------|--------|--------|--------|--------|--------|


E|--------|--------|--------|--------|--------|--------|--------|--------|--------|
B|--------|--------|--------|--------|--------|--------|--------|--------|--------|
G|--------|--------|--------|--------|--------|--------|--------|--------|--------|
D|--------|--------|--------|--------|--------|--------|--------|--------|--------|
A|--------|--------|--------|--------|--------|--------|--------|--------|--------|
E|--------|--------|--------|--------|--------|--------|--------|--------|--------|


E|--------|--------|--------|--------|--------|--------|--------|--------|--------|
B|--------|--------|--------|--------|--------|--------|--------|--------|--------|
G|--------|--------|--------|--------|--------|--------|--------|--------|--------|
D|--------|--------|--------|--------|--------|--------|--------|--------|--------|
A|--------|--------|--------|--------|--------|--------|--------|--------|--------|
E|--------|--------|--------|--------|--------|--------|--------|--------|--------|


E|--------|--------|--------|--------|--------|--------|--------|--------|--------|
B|--------|--------|--------|--------|--------|--------|--------|--------|--------|
G|--------|--------|--------|--------|--------|--------|--------|--------|--------|
D|--------|--------|--------|--------|--------|--------|--------|--------|--------|
A|--------|--------|--------|--------|--------|--------|--------|--------|--------|
E|--------|--------|--------|--------|--------|--------|--------|--------|--------|


E|--------|--------|--------|--------|--------|--------|--------|--------|--------|
B|--------|--------|--------|--------|--------|--------|--------|--------|--------|
G|--------|--------|--------|--------|--------|--------|--------|--------|--------|
D|--------|--------|--------|--------|--------|--------|--------|--------|--------|
A|--------|--------|--------|--------|--------|--------|--------|--------|--------|
E|--------|--------|--------|--------|--------|--------|--------|--------|--------|


E|--------|--------|--------|--------|--------|-0---0---0---0---2---2---2---2---|-3---3---3---3---5---5---5---5---|
B|--------|--------|--------|--------|--------|-0---0---0---0---0---0---0---0---|-0---0---0---0---0---0---0---0---|
G|--------|--------|--------|--------|--------|---------------------------------|---------------------------------|
D|--------|--------|--------|--------|--------|---------------------------------|---------------------------------|
A|--------|--------|--------|--------|--------|---------------------------------|---------------------------------|
E|--------|--------|--------|--------|--------|---------------------------------|---------------------------------|


E|-0---0---0---0---2---2---2---2---|-3---3---3---3---5---5---5---5---|-0---0---0---0---2---2---2---2---|
B|-1---1---1---1---1---1---1---1---|-1---1---1---1---1---1---1---1---|-3---3---3---3---3---3---3---3---|
G|---------------------------------|---------------------------------|---------------------------------|
D|---------------------------------|---------------------------------|---------------------------------|
A|---------------------------------|---------------------------------|---------------------------------|
E|---------------------------------|---------------------------------|---------------------------------|


E|-3---3---3---3---2---3---2--3--2------|-0---0---0---0---2---2---2---2---|-3---3---3---3---5---5---5---5---|
B|-3---3---3---3---3---3---3--3--3--3---|-0---0---0---0---0---0---0---0---|-0---0---0---0---0---0---0---0---|
G|--------------------------------------|---------------------------------|---------------------------------|
D|--------------------------------------|---------------------------------|---------------------------------|
A|--------------------------------------|---------------------------------|---------------------------------|
E|--------------------------------------|---------------------------------|---------------------------------|


E|-0---0---0---0---2---2---2---2---|-3---3---3---3---5---5---5---5---|-0---0---0---0---2---2---2---2---|
B|-1---1---1---1---1---1---1---1---|-1---1---1---1---1---1---1---1---|-3---3---3---3---3---3---3---3---|
G|---------------------------------|---------------------------------|---------------------------------|
D|---------------------------------|---------------------------------|---------------------------------|
A|---------------------------------|---------------------------------|---------------------------------|
E|---------------------------------|---------------------------------|---------------------------------|


E|-3---3---3---3---2---3---2--3--2------|--------|--------|--------|--------|--------|
B|-3---3---3---3---3---3---3--3--3--3---|--------|--------|--------|--------|--------|
G|--------------------------------------|--------|--------|--------|--------|--------|
D|--------------------------------------|--------|--------|--------|--------|--------|
A|--------------------------------------|--------|--------|--------|--------|--------|
E|--------------------------------------|--------|--------|--------|--------|--------|


E|--------|--------|--------|--------|--------|--------|--------|--------|--------|
B|--------|--------|--------|--------|--------|--------|--------|--------|--------|
G|--------|--------|--------|--------|--------|--------|--------|--------|--------|
D|--------|--------|--------|--------|--------|--------|--------|--------|--------|
A|--------|--------|--------|--------|--------|--------|--------|--------|--------|
E|--------|--------|--------|--------|--------|--------|--------|--------|--------|


E|--------|--------|--------|--------|--------|--------|--------|--------|--------|
B|--------|--------|--------|--------|--------|--------|--------|--------|--------|
G|--------|--------|--------|--------|--------|--------|--------|--------|--------|
D|--------|--------|--------|--------|--------|--------|--------|--------|--------|
A|--------|--------|--------|--------|--------|--------|--------|--------|--------|
E|--------|--------|--------|--------|--------|--------|--------|--------|--------|


E|--------|--------|--------|--------|--------|--------|--------|--------|--------|
B|--------|--------|--------|--------|--------|--------|--------|--------|--------|
G|--------|--------|--------|--------|--------|--------|--------|--------|--------|
D|--------|--------|--------|--------|--------|--------|--------|--------|--------|
A|--------|--------|--------|--------|--------|--------|--------|--------|--------|
E|--------|--------|--------|--------|--------|--------|--------|--------|--------|


E|--------|--------|--------|--------|--------|--------|--------|--------|--------|
B|--------|--------|--------|--------|--------|--------|--------|--------|--------|
G|--------|--------|--------|--------|--------|--------|--------|--------|--------|
D|--------|--------|--------|--------|--------|--------|--------|--------|--------|
A|--------|--------|--------|--------|--------|--------|--------|--------|--------|
E|--------|--------|--------|--------|--------|--------|--------|--------|--------|


E|--------|--------|--------|--------|--------|--------|--------|--------|--------|
B|--------|--------|--------|--------|--------|--------|--------|--------|--------|
G|--------|--------|--------|--------|--------|--------|--------|--------|--------|
D|--------|--------|--------|--------|--------|--------|--------|--------|--------|
A|--------|--------|--------|--------|--------|--------|--------|--------|--------|
E|--------|--------|--------|--------|--------|--------|--------|--------|--------|


E|--------|--------|--------|--------|--------|--------|--------|--------|--------|
B|--------|--------|--------|--------|--------|--------|--------|--------|--------|
G|--------|--------|--------|--------|--------|--------|--------|--------|--------|
D|--------|--------|--------|--------|--------|--------|--------|--------|--------|
A|--------|--------|--------|--------|--------|--------|--------|--------|--------|
E|--------|--------|--------|--------|--------|--------|--------|--------|--------|


E|--------|--------|--------|--------|--------|--------|--------|--------|--------|
B|--------|--------|--------|--------|--------|--------|--------|--------|--------|
G|--------|--------|--------|--------|--------|--------|--------|--------|--------|
D|--------|--------|--------|--------|--------|--------|--------|--------|--------|
A|--------|--------|--------|--------|--------|--------|--------|--------|--------|
E|--------|--------|--------|--------|--------|--------|--------|--------|--------|


E|--------|--------|--------|--------|--------|--------|--------|--------|--------|
B|--------|--------|--------|--------|--------|--------|--------|--------|--------|
G|--------|--------|--------|--------|--------|--------|--------|--------|--------|
D|--------|--------|--------|--------|--------|--------|--------|--------|--------|
A|--------|--------|--------|--------|--------|--------|--------|--------|--------|
E|--------|--------|--------|--------|--------|--------|--------|--------|--------|


E|--------|--------|--------|--------|--------|--------|--------|--------|--------|
B|--------|--------|--------|--------|--------|--------|--------|--------|--------|
G|--------|--------|--------|--------|--------|--------|--------|--------|--------|
D|--------|--------|--------|--------|--------|--------|--------|--------|--------|
A|--------|--------|--------|--------|--------|--------|--------|--------|--------|
E|--------|--------|--------|--------|--------|--------|--------|--------|--------|


E|--------|--------|--------|--------|--------|--------|--------|--------|--------|
B|--------|--------|--------|--------|--------|--------|--------|--------|--------|
G|--------|--------|--------|--------|--------|--------|--------|--------|--------|
D|--------|--------|--------|--------|--------|--------|--------|--------|--------|
A|--------|--------|--------|--------|--------|--------|--------|--------|--------|
E|--------|--------|--------|--------|--------|--------|--------|--------|--------|


E|--------|--------|--------|--------|-0---0---0---0---2---2---2---2---|-3---3---3---3---5---5---5---5---|
B|--------|--------|--------|--------|-0---0---0---0---0---0---0---0---|-0---0---0---0---0---0---0---0---|
G|--------|--------|--------|--------|---------------------------------|---------------------------------|
D|--------|--------|--------|--------|---------------------------------|---------------------------------|
A|--------|--------|--------|--------|---------------------------------|---------------------------------|
E|--------|--------|--------|--------|---------------------------------|---------------------------------|


E|-0---0---0---0---2---2---2---2---|-3---3---3---3---5---5---5---5---|-0---0---0---0---2---2---2---2---|
B|-1---1---1---1---1---1---1---1---|-1---1---1---1---1---1---1---1---|-3---3---3---3---3---3---3---3---|
G|---------------------------------|---------------------------------|---------------------------------|
D|---------------------------------|---------------------------------|---------------------------------|
A|---------------------------------|---------------------------------|---------------------------------|
E|---------------------------------|---------------------------------|---------------------------------|


E|-3---3---3---3---2---3---2--3--2------|-0------|-0------|
B|-3---3---3---3---3---3---3--3--3--3---|-5------|-5------|
G|--------------------------------------|--------|--------|
D|--------------------------------------|--------|--------|
A|--------------------------------------|--------|--------|
E|--------------------------------------|--------|--------|





Track 2: Rhythm

E|--------|--------|--------|--------|--------|--------|--------|--------|--------|
B|--------|--------|--------|--------|--------|--------|--------|--------|--------|
G|--------|--------|--------|--------|--------|--------|--------|--------|--------|
D|--------|--------|--------|--------|--------|--------|--------|--------|--------|
A|--------|--------|--------|--------|--------|--------|--------|--------|--------|
E|--------|--------|--------|--------|--------|--------|--------|--------|--------|


E|--------|--------|--------|---------------------------|---------------------------|
B|--------|--------|--------|---------------------------|---------------------------|
G|--------|--------|--------|---------------------------|---------------------------|
D|--------|--------|--------|-2---2--------2---2--------|-5---5--------5---5--------|
A|--------|--------|--------|-2---2--------2---2--------|-5---5--------5---5--------|
E|--------|--------|--------|-0---0--------0---0--------|-3---3--------3---3--------|


E|---------------------------|------------------------------|---------------------------|
B|---------------------------|------------------------------|---------------------------|
G|-5---5--------5---5--------|------------------------------|-7---7--------7---7--------|
D|-5---5--------5---5--------|-7---7--------7---7---7---7---|-7---7--------7---7--------|
A|-3---3--------3---3--------|-7---7--------7---7---7---7---|-5---5--------5---5--------|
E|---------------------------|-5---5--------5---5---5---5---|---------------------------|


E|------------------------|---------------------------|---------------------------|
B|------------------------|---------------------------|---------------------------|
G|-9---9--------9---------|---------------------------|---------------------------|
D|-9---9--------9---------|-2---2--------2---2--------|-5---5--------5---5--------|
A|-7---7--------7---------|-2---2--------2---2--------|-5---5--------5---5--------|
E|------------------------|-0---0--------0---0--------|-3---3--------3---3--------|


E|---------------------------|------------------------------|---------------------------|
B|---------------------------|------------------------------|---------------------------|
G|-5---5--------5---5--------|------------------------------|-7---7--------7---7--------|
D|-5---5--------5---5--------|-7---7--------7---7---7---7---|-7---7--------7---7--------|
A|-3---3--------3---3--------|-7---7--------7---7---7---7---|-5---5--------5---5--------|
E|---------------------------|-5---5--------5---5---5---5---|---------------------------|


E|------------------------|--------|--------|-----------------------------------------|
B|------------------------|--------|--------|-----------------------------------------|
G|-9---9--------9---------|--------|--------|-----------------------------------------|
D|-9---9--------9---------|--------|--------|-2---------------------------------------|
A|-7---7--------7---------|--------|--------|-2---------------------------------------|
E|------------------------|--------|--------|-0---0---0---0---0--0--0--0--0--0--0--0--|


E|---------------------------|-----------------------------------------|------------------------------|
B|---------------------------|-----------------------------------------|------------------------------|
G|-4-----------0----0----0---|-----------------------------------------|-0-----------2------------4---|
D|-4-----------2----2----2---|-5---------------------------------------|-2-----------2----4---5-------|
A|-2-----------3----3----3---|-5---------------------------------------|-3-----------0----------------|
E|-----0---0-----------------|-3---3---3---3---3--3--3--3--3--3--3--3--|-----0---0--------------------|


E|-----------------------------------------|---------------------------|-----------------------------------------|
B|-----------------------------------------|---------------------------|-----------------------------------------|
G|-----------------------------------------|-4-----------0----0----0---|-----------------------------------------|
D|-2---------------------------------------|-4-----------2----2----2---|-5---------------------------------------|
A|-2---------------------------------------|-2-----------3----3----3---|-5---------------------------------------|
E|-0---0---0---0---0--0--0--0--0--0--0--0--|-----0---0-----------------|-3---3---3---3---3--3--3--3--3--3--3--3--|


E|------------------------------|-----------------------------------------|---------------------------|
B|------------------------------|-----------------------------------------|---------------------------|
G|-0-----------2------------4---|-----------------------------------------|-4-----------0----0----0---|
D|-2-----------2----4---5-------|-2---------------------------------------|-4-----------2----2----2---|
A|-3-----------0----------------|-2---------------------------------------|-2-----------3----3----3---|
E|-----0---0--------------------|-0---0---0---0---0--0--0--0--0--0--0--0--|-----0---0-----------------|


E|-----------------------------------------|------------------------------|-----------------------------------------|
B|-----------------------------------------|------------------------------|-----------------------------------------|
G|-----------------------------------------|-0-----------2------------4---|-----------------------------------------|
D|-5---------------------------------------|-2-----------2----4---5-------|-2---------------------------------------|
A|-5---------------------------------------|-3-----------0----------------|-2---------------------------------------|
E|-3---3---3---3---3--3--3--3--3--3--3--3--|-----0---0--------------------|-0---0---0---0---0--0--0--0--0--0--0--0--|


E|---------------------------|-----------------------------------------|------------------------------|
B|---------------------------|-----------------------------------------|------------------------------|
G|-4-----------0----0----0---|-----------------------------------------|-0-----------2------------4---|
D|-4-----------2----2----2---|-5---------------------------------------|-2-----------2----4---5-------|
A|-2-----------3----3----3---|-5---------------------------------------|-3-----------0----------------|
E|-----0---0-----------------|-3---3---3---3---3--3--3--3--3--3--3--3--|-----0---0--------------------|


E|------------------|---------------------------------|------------------|---------------------------------|
B|------------------|---------------------------------|------------------|---------------------------------|
G|-2-----4-----5----|-5-------------------------------|-2-----4-----9----|-9-------------------------------|
D|-2-----4-----5----|-5-----------0---2---4---0---2---|-2-----4-----9----|-9---4---2-----------------------|
A|-0-----2-----3----|-3---2---3-----------------------|-0-----2-----7----|-7-----------3---2---------------|
E|------------------|---------------------------------|------------------|---------------------3---2---3---|


E|------------------|---------------------------------|------------------|---------------------------------|
B|------------------|---------------------------------|------------------|---------------------------------|
G|-2-----4-----5----|-5-------------------------------|-2-----4-----9----|-9-------------------------------|
D|-2-----4-----5----|-5-----------0---2---4---0---2---|-2-----4-----9----|-9---4---2-----------------------|
A|-0-----2-----3----|-3---2---3-----------------------|-0-----2-----7----|-7-----------3---2---------------|
E|------------------|---------------------------------|------------------|---------------------3---2---3---|


E|--------|------------------------------|------------------------------|------------------------------|
B|-0------|------------------------------|------------------------------|------------------------------|
G|-0------|-------------5----5-------7---|-7---7------------------------|-------------5----5-------7---|
D|-0------|-2-----------5----5-------7---|-7---7-------5----4-----------|-2-----------5----5-------7---|
A|--------|-2-----------3----3-------5---|-5---5----------------5---0---|-2-----------3----3-------5---|
E|--------|-0---0---0------------0-------|---------0--------------------|-0---0---0------------0-------|


E|------------------------------|------------------------------|------------------------------|
B|------------------------------|------------------------------|------------------------------|
G|-7---7------------------------|-------------5----5-------7---|-7---7------------------------|
D|-7---7------------2---4---5---|-2-----------5----5-------7---|-7---7-------5----4-----------|
A|-5---5-------5----------------|-2-----------3----3-------5---|-5---5----------------5---0---|
E|---------0--------------------|-0---0---0------------0-------|---------0--------------------|


E|------------------------------|------------------------------|-----------------------------------------|
B|------------------------------|------------------------------|-----------------------------------------|
G|-------------5----5-------7---|-7---7------------------------|-----------------------------------------|
D|-2-----------5----5-------7---|-7---7------------2---4---5---|-2---------------------------------------|
A|-2-----------3----3-------5---|-5---5-------5----------------|-2---------------------------------------|
E|-0---0---0------------0-------|---------0--------------------|-0---0---0---0---0--0--0--0--0--0--0--0--|


E|---------------------------|-----------------------------------------|------------------------------|
B|---------------------------|-----------------------------------------|------------------------------|
G|-4-----------0----0----0---|-----------------------------------------|-0-----------2------------4---|
D|-4-----------2----2----2---|-5---------------------------------------|-2-----------2----4---5-------|
A|-2-----------3----3----3---|-5---------------------------------------|-3-----------0----------------|
E|-----0---0-----------------|-3---3---3---3---3--3--3--3--3--3--3--3--|-----0---0--------------------|


E|-----------------------------------------|---------------------------|-----------------------------------------|
B|-----------------------------------------|---------------------------|-----------------------------------------|
G|-----------------------------------------|-4-----------0----0----0---|-----------------------------------------|
D|-2---------------------------------------|-4-----------2----2----2---|-5---------------------------------------|
A|-2---------------------------------------|-2-----------3----3----3---|-5---------------------------------------|
E|-0---0---0---0---0--0--0--0--0--0--0--0--|-----0---0-----------------|-3---3---3---3---3--3--3--3--3--3--3--3--|


E|------------------------------|-----------------------------------------|---------------------------|
B|------------------------------|-----------------------------------------|---------------------------|
G|-0-----------2------------4---|-----------------------------------------|-4-----------0----0----0---|
D|-2-----------2----4---5-------|-2---------------------------------------|-4-----------2----2----2---|
A|-3-----------0----------------|-2---------------------------------------|-2-----------3----3----3---|
E|-----0---0--------------------|-0---0---0---0---0--0--0--0--0--0--0--0--|-----0---0-----------------|


E|-----------------------------------------|------------------------------|-----------------------------------------|
B|-----------------------------------------|------------------------------|-----------------------------------------|
G|-----------------------------------------|-0-----------2------------4---|-----------------------------------------|
D|-5---------------------------------------|-2-----------2----4---5-------|-2---------------------------------------|
A|-5---------------------------------------|-3-----------0----------------|-2---------------------------------------|
E|-3---3---3---3---3--3--3--3--3--3--3--3--|-----0---0--------------------|-0---0---0---0---0--0--0--0--0--0--0--0--|


E|---------------------------|-----------------------------------------|------------------------------|
B|---------------------------|-----------------------------------------|------------------------------|
G|-4-----------0----0----0---|-----------------------------------------|-0-----------2------------4---|
D|-4-----------2----2----2---|-5---------------------------------------|-2-----------2----4---5-------|
A|-2-----------3----3----3---|-5---------------------------------------|-3-----------0----------------|
E|-----0---0-----------------|-3---3---3---3---3--3--3--3--3--3--3--3--|-----0---0--------------------|


E|------------------|---------------------------------|------------------|---------------------------------|
B|------------------|---------------------------------|------------------|---------------------------------|
G|-2-----4-----5----|-5-------------------------------|-2-----4-----9----|-9-------------------------------|
D|-2-----4-----5----|-5-----------0---2---4---0---2---|-2-----4-----9----|-9---4---2-----------------------|
A|-0-----2-----3----|-3---2---3-----------------------|-0-----2-----7----|-7-----------3---2---------------|
E|------------------|---------------------------------|------------------|---------------------3---2---3---|


E|------------------|---------------------------------|------------------|---------------------------------|
B|------------------|---------------------------------|------------------|---------------------------------|
G|-2-----4-----5----|-5-------------------------------|-2-----4-----9----|-9-------------------------------|
D|-2-----4-----5----|-5-----------0---2---4---0---2---|-2-----4-----9----|-9---4---2-----------------------|
A|-0-----2-----3----|-3---2---3-----------------------|-0-----2-----7----|-7-----------3---2---------------|
E|------------------|---------------------------------|------------------|---------------------3---2---3---|


E|--------|------------------------------|------------------------------|------------------------------|
B|-0------|------------------------------|------------------------------|------------------------------|
G|-0------|-------------5----5-------7---|-7---7------------------------|-------------5----5-------7---|
D|-0------|-2-----------5----5-------7---|-7---7-------5----4-----------|-2-----------5----5-------7---|
A|--------|-2-----------3----3-------5---|-5---5----------------5---0---|-2-----------3----3-------5---|
E|--------|-0---0---0------------0-------|---------0--------------------|-0---0---0------------0-------|


E|------------------------------|------------------------------|------------------------------|
B|------------------------------|------------------------------|------------------------------|
G|-7---7------------------------|-------------5----5-------7---|-7---7------------------------|
D|-7---7------------2---4---5---|-2-----------5----5-------7---|-7---7-------5----4-----------|
A|-5---5-------5----------------|-2-----------3----3-------5---|-5---5----------------5---0---|
E|---------0--------------------|-0---0---0------------0-------|---------0--------------------|


E|------------------------------|------------------------------|---------------------------|
B|------------------------------|------------------------------|---------------------------|
G|-------------5----5-------7---|-7---7------------------------|---------------------------|
D|-2-----------5----5-------7---|-7---7------------2---4---5---|-2---2--------2---2--------|
A|-2-----------3----3-------5---|-5---5-------5----------------|-2---2--------2---2--------|
E|-0---0---0------------0-------|---------0--------------------|-0---0--------0---0--------|


E|---------------------------|---------------------------|------------------------------|
B|---------------------------|---------------------------|------------------------------|
G|---------------------------|-5---5--------5---5--------|------------------------------|
D|-5---5--------5---5--------|-5---5--------5---5--------|-7---7--------7---7---7---7---|
A|-5---5--------5---5--------|-3---3--------3---3--------|-7---7--------7---7---7---7---|
E|-3---3--------3---3--------|---------------------------|-5---5--------5---5---5---5---|


E|---------------------------|------------------------|---------------------------|
B|---------------------------|------------------------|---------------------------|
G|-7---7--------7---7--------|-9---9--------9---------|---------------------------|
D|-7---7--------7---7--------|-9---9--------9---------|-2---2--------2---2--------|
A|-5---5--------5---5--------|-7---7--------7---------|-2---2--------2---2--------|
E|---------------------------|------------------------|-0---0--------0---0--------|


E|---------------------------|---------------------------|------------------------------|
B|---------------------------|---------------------------|------------------------------|
G|---------------------------|-5---5--------5---5--------|------------------------------|
D|-5---5--------5---5--------|-5---5--------5---5--------|-7---7--------7---7---7---7---|
A|-5---5--------5---5--------|-3---3--------3---3--------|-7---7--------7---7---7---7---|
E|-3---3--------3---3--------|---------------------------|-5---5--------5---5---5---5---|


E|---------------------------|------------------------|--------|--------|--------|
B|---------------------------|------------------------|--------|--------|--------|
G|-7---7--------7---7--------|-9---9--------9---------|--------|--------|--------|
D|-7---7--------7---7--------|-9---9--------9---------|--------|--------|--------|
A|-5---5--------5---5--------|-7---7--------7---------|--------|--------|--------|
E|---------------------------|------------------------|--------|--------|--------|


E|--------|--------|--------|--------|--------|--------|--------|--------|--------|
B|--------|--------|--------|--------|--------|--------|--------|--------|--------|
G|--------|--------|--------|--------|--------|--------|--------|--------|--------|
D|--------|--------|--------|--------|--------|--------|--------|--------|--------|
A|--------|--------|--------|--------|--------|--------|--------|--------|--------|
E|--------|--------|--------|--------|--------|--------|--------|--------|--------|


E|--------|--------|--------|--------|--------|-----------------------------------------|
B|--------|--------|--------|--------|--------|-----------------------------------------|
G|--------|--------|--------|--------|--------|-----------------------------------------|
D|--------|--------|--------|--------|--------|-2---------------------------------------|
A|--------|--------|--------|--------|--------|-2---------------------------------------|
E|--------|--------|--------|--------|--------|-0---0---0---0---0--0--0--0--0--0--0--0--|


E|---------------------------|-----------------------------------------|------------------------------|
B|---------------------------|-----------------------------------------|------------------------------|
G|-4-----------0----0----0---|-----------------------------------------|-0-----------2------------4---|
D|-4-----------2----2----2---|-5---------------------------------------|-2-----------2----4---5-------|
A|-2-----------3----3----3---|-5---------------------------------------|-3-----------0----------------|
E|-----0---0-----------------|-3---3---3---3---3--3--3--3--3--3--3--3--|-----0---0--------------------|


E|-----------------------------------------|---------------------------|-----------------------------------------|
B|-----------------------------------------|---------------------------|-----------------------------------------|
G|-----------------------------------------|-4-----------0----0----0---|-----------------------------------------|
D|-2---------------------------------------|-4-----------2----2----2---|-5---------------------------------------|
A|-2---------------------------------------|-2-----------3----3----3---|-5---------------------------------------|
E|-0---0---0---0---0--0--0--0--0--0--0--0--|-----0---0-----------------|-3---3---3---3---3--3--3--3--3--3--3--3--|


E|------------------------------|-----------------------------------------|---------------------------|
B|------------------------------|-----------------------------------------|---------------------------|
G|-0-----------2------------4---|-----------------------------------------|-4-----------0----0----0---|
D|-2-----------2----4---5-------|-2---------------------------------------|-4-----------2----2----2---|
A|-3-----------0----------------|-2---------------------------------------|-2-----------3----3----3---|
E|-----0---0--------------------|-0---0---0---0---0--0--0--0--0--0--0--0--|-----0---0-----------------|


E|-----------------------------------------|------------------------------|-----------------------------------------|
B|-----------------------------------------|------------------------------|-----------------------------------------|
G|-----------------------------------------|-0-----------2------------4---|-----------------------------------------|
D|-5---------------------------------------|-2-----------2----4---5-------|-2---------------------------------------|
A|-5---------------------------------------|-3-----------0----------------|-2---------------------------------------|
E|-3---3---3---3---3--3--3--3--3--3--3--3--|-----0---0--------------------|-0---0---0---0---0--0--0--0--0--0--0--0--|


E|---------------------------|-----------------------------------------|------------------------------|
B|---------------------------|-----------------------------------------|------------------------------|
G|-4-----------0----0----0---|-----------------------------------------|-0-----------2------------4---|
D|-4-----------2----2----2---|-5---------------------------------------|-2-----------2----4---5-------|
A|-2-----------3----3----3---|-5---------------------------------------|-3-----------0----------------|
E|-----0---0-----------------|-3---3---3---3---3--3--3--3--3--3--3--3--|-----0---0--------------------|


E|------------------|---------------------------------|------------------|---------------------------------|
B|------------------|---------------------------------|------------------|---------------------------------|
G|-2-----4-----5----|-5-------------------------------|-2-----4-----9----|-9-------------------------------|
D|-2-----4-----5----|-5-----------0---2---4---0---2---|-2-----4-----9----|-9---4---2-----------------------|
A|-0-----2-----3----|-3---2---3-----------------------|-0-----2-----7----|-7-----------3---2---------------|
E|------------------|---------------------------------|------------------|---------------------3---2---3---|


E|------------------|---------------------------------|------------------|---------------------------------|
B|------------------|---------------------------------|------------------|---------------------------------|
G|-2-----4-----5----|-5-------------------------------|-2-----4-----9----|-9-------------------------------|
D|-2-----4-----5----|-5-----------0---2---4---0---2---|-2-----4-----9----|-9---4---2-----------------------|
A|-0-----2-----3----|-3---2---3-----------------------|-0-----2-----7----|-7-----------3---2---------------|
E|------------------|---------------------------------|------------------|---------------------3---2---3---|


E|--------|------------------------------|------------------------------|------------------------------|
B|-0------|------------------------------|------------------------------|------------------------------|
G|-0------|-------------5----5-------7---|-7---7------------------------|-------------5----5-------7---|
D|-0------|-2-----------5----5-------7---|-7---7-------5----4-----------|-2-----------5----5-------7---|
A|--------|-2-----------3----3-------5---|-5---5----------------5---0---|-2-----------3----3-------5---|
E|--------|-0---0---0------------0-------|---------0--------------------|-0---0---0------------0-------|


E|------------------------------|------------------------------|------------------------------|
B|------------------------------|------------------------------|------------------------------|
G|-7---7------------------------|-------------5----5-------7---|-7---7------------------------|
D|-7---7------------2---4---5---|-2-----------5----5-------7---|-7---7-------5----4-----------|
A|-5---5-------5----------------|-2-----------3----3-------5---|-5---5----------------5---0---|
E|---------0--------------------|-0---0---0------------0-------|---------0--------------------|


E|------------------------------|------------------------------|------------------------------|
B|------------------------------|------------------------------|------------------------------|
G|-------------5----5-------7---|-7---7------------------------|-------------5----5-------7---|
D|-2-----------5----5-------7---|-7---7------------2---4---5---|-2-----------5----5-------7---|
A|-2-----------3----3-------5---|-5---5-------5----------------|-2-----------3----3-------5---|
E|-0---0---0------------0-------|---------0--------------------|-0---0---0------------0-------|


E|------------------------------|------------------------------|------------------------------|
B|------------------------------|------------------------------|------------------------------|
G|-7---7------------------------|-------------5----5-------7---|-7---7------------------------|
D|-7---7-------5----4-----------|-2-----------5----5-------7---|-7---7------------2---4---5---|
A|-5---5----------------5---0---|-2-----------3----3-------5---|-5---5-------5----------------|
E|---------0--------------------|-0---0---0------------0-------|---------0--------------------|


E|------------------------------|------------------------------|------------------------------|
B|------------------------------|------------------------------|------------------------------|
G|-------------5----5-------7---|-7---7------------------------|-------------5----5-------7---|
D|-2-----------5----5-------7---|-7---7-------5----4-----------|-2-----------5----5-------7---|
A|-2-----------3----3-------5---|-5---5----------------5---0---|-2-----------3----3-------5---|
E|-0---0---0------------0-------|---------0--------------------|-0---0---0------------0-------|


E|------------------------------|--------|--------|--------|--------|--------|--------|
B|------------------------------|--------|--------|--------|--------|--------|--------|
G|-7---7------------------------|--------|--------|--------|--------|--------|--------|
D|-7---7------------2---4---5---|--------|--------|--------|--------|--------|--------|
A|-5---5-------5----------------|--------|--------|--------|--------|--------|--------|
E|---------0--------------------|--------|--------|--------|--------|--------|--------|


E|--------|--------|--------|--------|--------|--------|--------|--------|--------|
B|--------|--------|--------|--------|--------|--------|--------|--------|--------|
G|--------|--------|--------|--------|--------|--------|--------|--------|--------|
D|--------|--------|--------|--------|--------|--------|--------|--------|--------|
A|--------|--------|--------|--------|--------|--------|--------|--------|--------|
E|--------|--------|--------|--------|--------|--------|--------|--------|--------|


E|--------|--------|--------|--------|--------|--------|--------|--------|--------|
B|--------|--------|--------|--------|--------|--------|--------|--------|--------|
G|--------|--------|--------|--------|--------|--------|--------|--------|--------|
D|--------|--------|--------|--------|--------|--------|--------|--------|--------|
A|--------|--------|--------|--------|--------|--------|--------|--------|--------|
E|--------|--------|--------|--------|--------|--------|--------|--------|--------|


E|--------|--------|--------|--------|--------|--------|--------|--------|--------|
B|--------|--------|--------|--------|--------|--------|--------|--------|--------|
G|--------|--------|--------|--------|--------|--------|--------|--------|--------|
D|--------|--------|--------|--------|--------|--------|--------|--------|--------|
A|--------|--------|--------|--------|--------|--------|--------|--------|--------|
E|--------|--------|--------|--------|--------|--------|--------|--------|--------|


E|--------|--------|--------|--------|--------|--------|--------|--------|--------|
B|--------|--------|--------|--------|--------|--------|--------|--------|--------|
G|--------|--------|--------|--------|--------|--------|--------|--------|--------|
D|--------|--------|--------|--------|--------|--------|--------|--------|--------|
A|--------|--------|--------|--------|--------|--------|--------|--------|--------|
E|--------|--------|--------|--------|--------|--------|--------|--------|--------|


E|--------|--------|--------|--------|--------|--------|--------|
B|--------|--------|--------|--------|--------|--------|--------|
G|--------|--------|--------|--------|--------|--------|--------|
D|--------|--------|--------|--------|--------|--------|--------|
A|--------|--------|--------|--------|--------|--------|--------|
E|--------|--------|--------|--------|--------|--------|--------|





Track 3: Acoustic

E|--------|--------|--------|--------|--------|--------|--------|--------|--------|
B|--------|--------|--------|--------|--------|--------|--------|--------|--------|
G|--------|--------|--------|--------|--------|--------|--------|--------|--------|
D|--------|--------|--------|--------|--------|--------|--------|--------|--------|
A|--------|--------|--------|--------|--------|--------|--------|--------|--------|
E|--------|--------|--------|--------|--------|--------|--------|--------|--------|


E|--------|--------|--------|--------|--------|--------|--------|--------|--------|
B|--------|--------|--------|--------|--------|--------|--------|--------|--------|
G|--------|--------|--------|--------|--------|--------|--------|--------|--------|
D|--------|--------|--------|--------|--------|--------|--------|--------|--------|
A|--------|--------|--------|--------|--------|--------|--------|--------|--------|
E|--------|--------|--------|--------|--------|--------|--------|--------|--------|


E|--------|--------|--------|--------|--------|--------|--------|-------------|--------|
B|--------|--------|--------|--------|--------|--------|--------|-------------|--------|
G|--------|--------|--------|--------|--------|--------|-9------|-9-----------|--------|
D|--------|--------|--------|--------|--------|--------|-9------|-9-----------|--------|
A|--------|--------|--------|--------|--------|--------|-7------|-7-----------|--------|
E|--------|--------|--------|--------|--------|--------|-0------|-0-----------|--------|


E|--------|--------|--------|--------|--------|--------|--------|--------|--------|
B|--------|--------|--------|--------|--------|--------|--------|--------|--------|
G|--------|--------|--------|--------|--------|--------|--------|--------|--------|
D|--------|--------|--------|--------|--------|--------|--------|--------|--------|
A|--------|--------|--------|--------|--------|--------|--------|--------|--------|
E|--------|--------|--------|--------|--------|--------|--------|--------|--------|


E|--------|--------|--------|--------|--------|--------|--------|--------|--------|
B|--------|--------|--------|--------|--------|--------|--------|--------|--------|
G|--------|--------|--------|--------|--------|--------|--------|--------|--------|
D|--------|--------|--------|--------|--------|--------|--------|--------|--------|
A|--------|--------|--------|--------|--------|--------|--------|--------|--------|
E|--------|--------|--------|--------|--------|--------|--------|--------|--------|


E|--------|--------|--------|--------|--------|--------|--------|--------|--------|
B|--------|--------|--------|--------|--------|--------|--------|--------|--------|
G|--------|--------|--------|--------|--------|--------|--------|--------|--------|
D|--------|--------|--------|--------|--------|--------|--------|--------|--------|
A|--------|--------|--------|--------|--------|--------|--------|--------|--------|
E|--------|--------|--------|--------|--------|--------|--------|--------|--------|


E|--------|--------|--------|--------|--------|--------|--------|--------|--------|
B|--------|--------|--------|--------|--------|--------|--------|--------|--------|
G|--------|--------|--------|--------|--------|--------|--------|--------|--------|
D|--------|--------|--------|--------|--------|--------|--------|--------|--------|
A|--------|--------|--------|--------|--------|--------|--------|--------|--------|
E|--------|--------|--------|--------|--------|--------|--------|--------|--------|


E|--------|--------|--------|--------|--------|--------|--------|--------|--------|
B|--------|--------|--------|--------|--------|--------|--------|--------|--------|
G|--------|--------|--------|--------|--------|--------|--------|--------|--------|
D|--------|--------|--------|--------|--------|--------|--------|--------|--------|
A|--------|--------|--------|--------|--------|--------|--------|--------|--------|
E|--------|--------|--------|--------|--------|--------|--------|--------|--------|


E|--------|--------|--------|--------|--------|--------|--------|--------|--------|
B|--------|--------|--------|--------|--------|--------|--------|--------|--------|
G|--------|--------|--------|--------|--------|--------|--------|--------|--------|
D|--------|--------|--------|--------|--------|--------|--------|--------|--------|
A|--------|--------|--------|--------|--------|--------|--------|--------|--------|
E|--------|--------|--------|--------|--------|--------|--------|--------|--------|


E|--------|--------|--------|--------|--------|--------|--------|--------|--------|
B|--------|--------|--------|--------|--------|--------|--------|--------|--------|
G|--------|--------|--------|--------|--------|--------|--------|--------|--------|
D|--------|--------|--------|--------|--------|--------|--------|--------|--------|
A|--------|--------|--------|--------|--------|--------|--------|--------|--------|
E|--------|--------|--------|--------|--------|--------|--------|--------|--------|


E|--------|--------|--------|--------|--------|--------|--------|--------|--------|
B|--------|--------|--------|--------|--------|--------|--------|--------|--------|
G|--------|--------|--------|--------|--------|--------|--------|--------|--------|
D|--------|--------|--------|--------|--------|--------|--------|--------|--------|
A|--------|--------|--------|--------|--------|--------|--------|--------|--------|
E|--------|--------|--------|--------|--------|--------|--------|--------|--------|


E|--------|--------|--------|--------|--------|--------|--------|--------|--------|
B|--------|--------|--------|--------|--------|--------|--------|--------|--------|
G|--------|--------|--------|--------|--------|--------|--------|--------|--------|
D|--------|--------|--------|--------|--------|--------|--------|--------|--------|
A|--------|--------|--------|--------|--------|--------|--------|--------|--------|
E|--------|--------|--------|--------|--------|--------|--------|--------|--------|


E|--------|--------|--------|--------|--------|--------|--------|--------|--------|
B|--------|--------|--------|--------|--------|--------|--------|--------|--------|
G|--------|--------|--------|--------|--------|--------|--------|--------|--------|
D|--------|--------|--------|--------|--------|--------|--------|--------|--------|
A|--------|--------|--------|--------|--------|--------|--------|--------|--------|
E|--------|--------|--------|--------|--------|--------|--------|--------|--------|


E|--------|--------|--------|--------|--------|--------|--------|--------|--------|
B|--------|--------|--------|--------|--------|--------|--------|--------|--------|
G|--------|--------|--------|--------|--------|--------|--------|--------|--------|
D|--------|--------|--------|--------|--------|--------|--------|--------|--------|
A|--------|--------|--------|--------|--------|--------|--------|--------|--------|
E|--------|--------|--------|--------|--------|--------|--------|--------|--------|


E|--------|--------|--------|--------|--------|--------|--------|--------|--------|
B|--------|--------|--------|--------|--------|--------|--------|--------|--------|
G|--------|--------|--------|--------|--------|--------|--------|--------|--------|
D|--------|--------|--------|--------|--------|--------|--------|--------|--------|
A|--------|--------|--------|--------|--------|--------|--------|--------|--------|
E|--------|--------|--------|--------|--------|--------|--------|--------|--------|


E|--------|--------|--------|--------|--------|--------|--------|--------|--------|
B|--------|--------|--------|--------|--------|--------|--------|--------|--------|
G|--------|--------|--------|--------|--------|--------|--------|--------|--------|
D|--------|--------|--------|--------|--------|--------|--------|--------|--------|
A|--------|--------|--------|--------|--------|--------|--------|--------|--------|
E|--------|--------|--------|--------|--------|--------|--------|--------|--------|


E|--------|--------|--------|--------|--------|--------|--------|--------|--------|
B|--------|--------|--------|--------|--------|--------|--------|--------|--------|
G|--------|--------|--------|--------|--------|--------|--------|--------|--------|
D|--------|--------|--------|--------|--------|--------|--------|--------|--------|
A|--------|--------|--------|--------|--------|--------|--------|--------|--------|
E|--------|--------|--------|--------|--------|--------|--------|--------|--------|


E|--------|--------|--------|--------|--------|--------|--------|--------|--------|
B|--------|--------|--------|--------|--------|--------|--------|--------|--------|
G|--------|--------|--------|--------|--------|--------|--------|--------|--------|
D|--------|--------|--------|--------|--------|--------|--------|--------|--------|
A|--------|--------|--------|--------|--------|--------|--------|--------|--------|
E|--------|--------|--------|--------|--------|--------|--------|--------|--------|


E|--------|--------|--------|--------|--------|--------|--------|--------|--------|
B|--------|--------|--------|--------|--------|--------|--------|--------|--------|
G|--------|--------|--------|--------|--------|--------|--------|--------|--------|
D|--------|--------|--------|--------|--------|--------|--------|--------|--------|
A|--------|--------|--------|--------|--------|--------|--------|--------|--------|
E|--------|--------|--------|--------|--------|--------|--------|--------|--------|


E|--------|--------|--------|--------|--------|--------|--------|--------|--------|
B|--------|--------|--------|--------|--------|--------|--------|--------|--------|
G|--------|--------|--------|--------|--------|--------|--------|--------|--------|
D|--------|--------|--------|--------|--------|--------|--------|--------|--------|
A|--------|--------|--------|--------|--------|--------|--------|--------|--------|
E|--------|--------|--------|--------|--------|--------|--------|--------|--------|


E|--------|--------|--------|--------|--------|--------|--------|--------|--------|
B|--------|--------|--------|--------|--------|--------|--------|--------|--------|
G|--------|--------|--------|--------|--------|--------|--------|--------|--------|
D|--------|--------|--------|--------|--------|--------|--------|--------|--------|
A|--------|--------|--------|--------|--------|--------|--------|--------|--------|
E|--------|--------|--------|--------|--------|--------|--------|--------|--------|


E|--------|--------|--------|--------|--------|--------|--------|--------|--------|
B|--------|--------|--------|--------|--------|--------|--------|--------|--------|
G|--------|--------|--------|--------|--------|--------|--------|--------|--------|
D|--------|--------|--------|--------|--------|--------|--------|--------|--------|
A|--------|--------|--------|--------|--------|--------|--------|--------|--------|
E|--------|--------|--------|--------|--------|--------|--------|--------|--------|


E|--------|--------|--------|--------|--------|--------|--------|--------|--------|
B|--------|--------|--------|--------|--------|--------|--------|--------|--------|
G|--------|--------|--------|--------|--------|--------|--------|--------|--------|
D|--------|--------|--------|--------|--------|--------|--------|--------|--------|
A|--------|--------|--------|--------|--------|--------|--------|--------|--------|
E|--------|--------|--------|--------|--------|--------|--------|--------|--------|


E|--------|--------|--------|--------|
B|--------|--------|--------|--------|
G|--------|--------|--------|--------|
D|--------|--------|--------|--------|
A|--------|--------|--------|--------|
E|--------|--------|--------|--------|





Track 4: Lead

E|--------|--------|--------|--------|--------|--------|--------|--------|--------|
B|--------|--------|--------|--------|--------|--------|--------|--------|--------|
G|--------|--------|--------|--------|--------|--------|--------|--------|--------|
D|--------|--------|--------|--------|--------|--------|--------|--------|--------|
A|--------|--------|--------|--------|--------|--------|--------|--------|--------|
E|--------|--------|--------|--------|--------|--------|--------|--------|--------|


E|--------|--------|--------|--------|--------|--------|--------|--------|--------|
B|--------|--------|--------|--------|--------|--------|--------|--------|--------|
G|--------|--------|--------|--------|--------|--------|--------|--------|--------|
D|--------|--------|--------|--------|--------|--------|--------|--------|--------|
A|--------|--------|--------|--------|--------|--------|--------|--------|--------|
E|--------|--------|--------|--------|--------|--------|--------|--------|--------|


E|--------|--------|--------|--------|--------|--------|--------|--------|-----------------------------------------|
B|--------|--------|--------|--------|--------|--------|--------|--------|-----------------------------------------|
G|--------|--------|--------|--------|--------|--------|--------|--------|-----------------------------------------|
D|--------|--------|--------|--------|--------|--------|--------|--------|-2---------------------------------------|
A|--------|--------|--------|--------|--------|--------|--------|--------|-2---------------------------------------|
E|--------|--------|--------|--------|--------|--------|--------|--------|-0---0---0---0---0--0--0--0--0--0--0--0--|


E|---------------------------|-----------------------------------------|------------------------------|
B|---------------------------|-----------------------------------------|------------------------------|
G|-4-----------0----0----0---|-----------------------------------------|-0-----------2----------------|
D|-4-----------2----2----2---|-5---------------------------------------|-2-----------2------------5---|
A|-2-----------3----3----3---|-5---------------------------------------|-3-----------0----5---7-------|
E|-----0---0-----------------|-3---3---3---3---3--3--3--3--3--3--3--3--|-----0---0--------------------|


E|-----------------------------------------|---------------------------|-----------------------------------------|
B|-----------------------------------------|---------------------------|-----------------------------------------|
G|-----------------------------------------|-4-----------0----0----0---|-----------------------------------------|
D|-2---------------------------------------|-4-----------2----2----2---|-5---------------------------------------|
A|-2---------------------------------------|-2-----------3----3----3---|-5---------------------------------------|
E|-0---0---0---0---0--0--0--0--0--0--0--0--|-----0---0-----------------|-3---3---3---3---3--3--3--3--3--3--3--3--|


E|------------------------------|-----------------------------------------|---------------------------|
B|------------------------------|-----------------------------------------|---------------------------|
G|-0-----------2----------------|-----------------------------------------|-4-----------0----0----0---|
D|-2-----------2------------5---|-2---------------------------------------|-4-----------2----2----2---|
A|-3-----------0----5---7-------|-2---------------------------------------|-2-----------3----3----3---|
E|-----0---0--------------------|-0---0---0---0---0--0--0--0--0--0--0--0--|-----0---0-----------------|


E|-----------------------------------------|------------------------------|-----------------------------------------|
B|-----------------------------------------|------------------------------|-----------------------------------------|
G|-----------------------------------------|-0-----------2----------------|-----------------------------------------|
D|-5---------------------------------------|-2-----------2------------5---|-2---------------------------------------|
A|-5---------------------------------------|-3-----------0----5---7-------|-2---------------------------------------|
E|-3---3---3---3---3--3--3--3--3--3--3--3--|-----0---0--------------------|-0---0---0---0---0--0--0--0--0--0--0--0--|


E|---------------------------|-----------------------------------------|------------------------------|
B|---------------------------|-----------------------------------------|------------------------------|
G|-4-----------0----0----0---|-----------------------------------------|-0-----------2----------------|
D|-4-----------2----2----2---|-5---------------------------------------|-2-----------2------------5---|
A|-2-----------3----3----3---|-5---------------------------------------|-3-----------0----5---7-------|
E|-----0---0-----------------|-3---3---3---3---3--3--3--3--3--3--3--3--|-----0---0--------------------|


E|------------------|---------------------------------|------------------|---------------------------------|
B|------------------|---------------------------------|------------------|---------------------------------|
G|-2-----4-----5----|-5-------------------2-----------|-2-----4-----9----|-9---2---0-----------------------|
D|-2-----4-----5----|-5---0---2---4---5---------------|-2-----4-----9----|-9-----------2---0---------------|
A|-0-----2-----3----|-3-----------------------2---3---|-0-----2-----7----|-7-------------------2---0---2---|
E|------------------|---------------------------------|------------------|-----------------------------3---|


E|------------------|---------------------------------|------------------|---------------------------------|
B|------------------|---------------------------------|------------------|---------------------------------|
G|-2-----4-----5----|-5-------------------2-----------|-2-----4-----9----|-9---2---0-----------------------|
D|-2-----4-----5----|-5---0---2---4---5---------------|-2-----4-----9----|-9-----------2---0---------------|
A|-0-----2-----3----|-3-----------------------2---3---|-0-----2-----7----|-7-------------------2---0---2---|
E|------------------|---------------------------------|------------------|-----------------------------3---|


E|--------|------------------------------|------------------------------|------------------------------|
B|--------|------------------------------|------------------------------|------------------------------|
G|--------|-------------5----5-------7---|-7---7-------4----2-----------|-------------5----5-------7---|
D|-0------|-2-----------5----5-------7---|-7---7----------------4---0---|-2-----------5----5-------7---|
A|-2------|-2-----------3----3-------5---|-5---5------------------------|-2-----------3----3-------5---|
E|-3------|-0---0---0------------0-------|---------0--------------------|-0---0---0------------0-------|


E|------------------------------|------------------------------|------------------------------|
B|------------------------------|------------------------------|------------------------------|
G|-7---7------------0---2---4---|-------------5----5-------7---|-7---7-------4----2-----------|
D|-7---7-------4----------------|-2-----------5----5-------7---|-7---7----------------4---0---|
A|-5---5------------------------|-2-----------3----3-------5---|-5---5------------------------|
E|---------0--------------------|-0---0---0------------0-------|---------0--------------------|


E|------------------------------|------------------------------|-----------------------------------------|
B|------------------------------|------------------------------|-----------------------------------------|
G|-------------5----5-------7---|-7---7------------0---2---4---|-----------------------------------------|
D|-2-----------5----5-------7---|-7---7-------4----------------|-2---------------------------------------|
A|-2-----------3----3-------5---|-5---5------------------------|-2---------------------------------------|
E|-0---0---0------------0-------|---------0--------------------|-0---0---0---0---0--0--0--0--0--0--0--0--|


E|---------------------------|-----------------------------------------|------------------------------|
B|---------------------------|-----------------------------------------|------------------------------|
G|-4-----------0----0----0---|-----------------------------------------|-0-----------2----------------|
D|-4-----------2----2----2---|-5---------------------------------------|-2-----------2------------5---|
A|-2-----------3----3----3---|-5---------------------------------------|-3-----------0----5---7-------|
E|-----0---0-----------------|-3---3---3---3---3--3--3--3--3--3--3--3--|-----0---0--------------------|


E|-----------------------------------------|---------------------------|-----------------------------------------|
B|-----------------------------------------|---------------------------|-----------------------------------------|
G|-----------------------------------------|-4-----------0----0----0---|-----------------------------------------|
D|-2---------------------------------------|-4-----------2----2----2---|-5---------------------------------------|
A|-2---------------------------------------|-2-----------3----3----3---|-5---------------------------------------|
E|-0---0---0---0---0--0--0--0--0--0--0--0--|-----0---0-----------------|-3---3---3---3---3--3--3--3--3--3--3--3--|


E|------------------------------|-----------------------------------------|---------------------------|
B|------------------------------|-----------------------------------------|---------------------------|
G|-0-----------2----------------|-----------------------------------------|-4-----------0----0----0---|
D|-2-----------2------------5---|-2---------------------------------------|-4-----------2----2----2---|
A|-3-----------0----5---7-------|-2---------------------------------------|-2-----------3----3----3---|
E|-----0---0--------------------|-0---0---0---0---0--0--0--0--0--0--0--0--|-----0---0-----------------|


E|-----------------------------------------|------------------------------|-----------------------------------------|
B|-----------------------------------------|------------------------------|-----------------------------------------|
G|-----------------------------------------|-0-----------2----------------|-----------------------------------------|
D|-5---------------------------------------|-2-----------2------------5---|-2---------------------------------------|
A|-5---------------------------------------|-3-----------0----5---7-------|-2---------------------------------------|
E|-3---3---3---3---3--3--3--3--3--3--3--3--|-----0---0--------------------|-0---0---0---0---0--0--0--0--0--0--0--0--|


E|---------------------------|-----------------------------------------|------------------------------|
B|---------------------------|-----------------------------------------|------------------------------|
G|-4-----------0----0----0---|-----------------------------------------|-0-----------2----------------|
D|-4-----------2----2----2---|-5---------------------------------------|-2-----------2------------5---|
A|-2-----------3----3----3---|-5---------------------------------------|-3-----------0----5---7-------|
E|-----0---0-----------------|-3---3---3---3---3--3--3--3--3--3--3--3--|-----0---0--------------------|


E|------------------|---------------------------------|------------------|---------------------------------|
B|------------------|---------------------------------|------------------|---------------------------------|
G|-2-----4-----5----|-5-------------------2-----------|-2-----4-----9----|-9---2---0-----------------------|
D|-2-----4-----5----|-5---0---2---4---5---------------|-2-----4-----9----|-9-----------2---0---------------|
A|-0-----2-----3----|-3-----------------------2---3---|-0-----2-----7----|-7-------------------2---0---2---|
E|------------------|---------------------------------|------------------|-----------------------------3---|


E|------------------|---------------------------------|------------------|---------------------------------|
B|------------------|---------------------------------|------------------|---------------------------------|
G|-2-----4-----5----|-5-------------------2-----------|-2-----4-----9----|-9---2---0-----------------------|
D|-2-----4-----5----|-5---0---2---4---5---------------|-2-----4-----9----|-9-----------2---0---------------|
A|-0-----2-----3----|-3-----------------------2---3---|-0-----2-----7----|-7-------------------2---0---2---|
E|------------------|---------------------------------|------------------|-----------------------------3---|


E|--------|------------------------------|------------------------------|------------------------------|
B|--------|------------------------------|------------------------------|------------------------------|
G|--------|-------------5----5-------7---|-7---7-------4----2-----------|-------------5----5-------7---|
D|-0------|-2-----------5----5-------7---|-7---7----------------4---0---|-2-----------5----5-------7---|
A|-2------|-2-----------3----3-------5---|-5---5------------------------|-2-----------3----3-------5---|
E|-3------|-0---0---0------------0-------|---------0--------------------|-0---0---0------------0-------|


E|------------------------------|------------------------------|------------------------------|
B|------------------------------|------------------------------|------------------------------|
G|-7---7------------0---2---4---|-------------5----5-------7---|-7---7-------4----2-----------|
D|-7---7-------4----------------|-2-----------5----5-------7---|-7---7----------------4---0---|
A|-5---5------------------------|-2-----------3----3-------5---|-5---5------------------------|
E|---------0--------------------|-0---0---0------------0-------|---------0--------------------|


E|------------------------------|------------------------------|--------|--------|
B|------------------------------|------------------------------|--------|--------|
G|-------------5----5-------7---|-7---7------------0---2---4---|--------|--------|
D|-2-----------5----5-------7---|-7---7-------4----------------|--------|--------|
A|-2-----------3----3-------5---|-5---5------------------------|--------|--------|
E|-0---0---0------------0-------|---------0--------------------|--------|--------|


E|--------|--------|--------|--------|--------|--------|--------|--------|--------|
B|--------|--------|--------|--------|--------|--------|--------|--------|--------|
G|--------|--------|--------|--------|--------|--------|--------|--------|--------|
D|--------|--------|--------|--------|--------|--------|--------|--------|--------|
A|--------|--------|--------|--------|--------|--------|--------|--------|--------|
E|--------|--------|--------|--------|--------|--------|--------|--------|--------|


E|--------|--------|--------|--------|--------|--------|--------|--------|--------|
B|--------|--------|--------|--------|--------|--------|--------|--------|--------|
G|--------|--------|--------|--------|--------|--------|--------|--------|--------|
D|--------|--------|--------|--------|--------|--------|--------|--------|--------|
A|--------|--------|--------|--------|--------|--------|--------|--------|--------|
E|--------|--------|--------|--------|--------|--------|--------|--------|--------|


E|--------|--------|--------|--------|--------|--------|--------|--------|--------|
B|--------|--------|--------|--------|--------|--------|--------|--------|--------|
G|--------|--------|--------|--------|--------|--------|--------|--------|--------|
D|--------|--------|--------|--------|--------|--------|--------|--------|--------|
A|--------|--------|--------|--------|--------|--------|--------|--------|--------|
E|--------|--------|--------|--------|--------|--------|--------|--------|--------|


E|-----------------------------------------|---------------------------|-----------------------------------------|
B|-----------------------------------------|---------------------------|-----------------------------------------|
G|-----------------------------------------|-4-----------0----0----0---|-----------------------------------------|
D|-2---------------------------------------|-4-----------2----2----2---|-5---------------------------------------|
A|-2---------------------------------------|-2-----------3----3----3---|-5---------------------------------------|
E|-0---0---0---0---0--0--0--0--0--0--0--0--|-----0---0-----------------|-3---3---3---3---3--3--3--3--3--3--3--3--|


E|------------------------------|-----------------------------------------|---------------------------|
B|------------------------------|-----------------------------------------|---------------------------|
G|-0-----------2----------------|-----------------------------------------|-4-----------0----0----0---|
D|-2-----------2------------5---|-2---------------------------------------|-4-----------2----2----2---|
A|-3-----------0----5---7-------|-2---------------------------------------|-2-----------3----3----3---|
E|-----0---0--------------------|-0---0---0---0---0--0--0--0--0--0--0--0--|-----0---0-----------------|


E|-----------------------------------------|------------------------------|-----------------------------------------|
B|-----------------------------------------|------------------------------|-----------------------------------------|
G|-----------------------------------------|-0-----------2----------------|-----------------------------------------|
D|-5---------------------------------------|-2-----------2------------5---|-2---------------------------------------|
A|-5---------------------------------------|-3-----------0----5---7-------|-2---------------------------------------|
E|-3---3---3---3---3--3--3--3--3--3--3--3--|-----0---0--------------------|-0---0---0---0---0--0--0--0--0--0--0--0--|


E|---------------------------|-----------------------------------------|------------------------------|
B|---------------------------|-----------------------------------------|------------------------------|
G|-4-----------0----0----0---|-----------------------------------------|-0-----------2----------------|
D|-4-----------2----2----2---|-5---------------------------------------|-2-----------2------------5---|
A|-2-----------3----3----3---|-5---------------------------------------|-3-----------0----5---7-------|
E|-----0---0-----------------|-3---3---3---3---3--3--3--3--3--3--3--3--|-----0---0--------------------|


E|-----------------------------------------|---------------------------|-----------------------------------------|
B|-----------------------------------------|---------------------------|-----------------------------------------|
G|-----------------------------------------|-4-----------0----0----0---|-----------------------------------------|
D|-2---------------------------------------|-4-----------2----2----2---|-5---------------------------------------|
A|-2---------------------------------------|-2-----------3----3----3---|-5---------------------------------------|
E|-0---0---0---0---0--0--0--0--0--0--0--0--|-----0---0-----------------|-3---3---3---3---3--3--3--3--3--3--3--3--|


E|------------------------------|------------------|---------------------------------|
B|------------------------------|------------------|---------------------------------|
G|-0-----------2----------------|-2-----4-----5----|-5-------------------2-----------|
D|-2-----------2------------5---|-2-----4-----5----|-5---0---2---4---5---------------|
A|-3-----------0----5---7-------|-0-----2-----3----|-3-----------------------2---3---|
E|-----0---0--------------------|------------------|---------------------------------|


E|------------------|---------------------------------|------------------|---------------------------------|
B|------------------|---------------------------------|------------------|---------------------------------|
G|-2-----4-----9----|-9---2---0-----------------------|-2-----4-----5----|-5-------------------2-----------|
D|-2-----4-----9----|-9-----------2---0---------------|-2-----4-----5----|-5---0---2---4---5---------------|
A|-0-----2-----7----|-7-------------------2---0---2---|-0-----2-----3----|-3-----------------------2---3---|
E|------------------|-----------------------------3---|------------------|---------------------------------|


E|------------------|---------------------------------|--------|------------------------------|
B|------------------|---------------------------------|--------|------------------------------|
G|-2-----4-----9----|-9---2---0-----------------------|--------|-------------5----5-------7---|
D|-2-----4-----9----|-9-----------2---0---------------|-0------|-2-----------5----5-------7---|
A|-0-----2-----7----|-7-------------------2---0---2---|-2------|-2-----------3----3-------5---|
E|------------------|-----------------------------3---|-3------|-0---0---0------------0-------|


E|------------------------------|------------------------------|------------------------------|
B|------------------------------|------------------------------|------------------------------|
G|-7---7-------4----2-----------|-------------5----5-------7---|-7---7------------0---2---4---|
D|-7---7----------------4---0---|-2-----------5----5-------7---|-7---7-------4----------------|
A|-5---5------------------------|-2-----------3----3-------5---|-5---5------------------------|
E|---------0--------------------|-0---0---0------------0-------|---------0--------------------|


E|------------------------------|------------------------------|------------------------------|
B|------------------------------|------------------------------|------------------------------|
G|-------------5----5-------7---|-7---7-------4----2-----------|-------------5----5-------7---|
D|-2-----------5----5-------7---|-7---7----------------4---0---|-2-----------5----5-------7---|
A|-2-----------3----3-------5---|-5---5------------------------|-2-----------3----3-------5---|
E|-0---0---0------------0-------|---------0--------------------|-0---0---0------------0-------|


E|------------------------------|------------------------------|------------------------------|
B|------------------------------|------------------------------|------------------------------|
G|-7---7------------0---2---4---|-------------5----5-------7---|-7---7-------4----2-----------|
D|-7---7-------4----------------|-2-----------5----5-------7---|-7---7----------------4---0---|
A|-5---5------------------------|-2-----------3----3-------5---|-5---5------------------------|
E|---------0--------------------|-0---0---0------------0-------|---------0--------------------|


E|------------------------------|------------------------------|------------------------------|
B|------------------------------|------------------------------|------------------------------|
G|-------------5----5-------7---|-7---7------------0---2---4---|-------------5----5-------7---|
D|-2-----------5----5-------7---|-7---7-------4----------------|-2-----------5----5-------7---|
A|-2-----------3----3-------5---|-5---5------------------------|-2-----------3----3-------5---|
E|-0---0---0------------0-------|---------0--------------------|-0---0---0------------0-------|


E|------------------------------|------------------------------|------------------------------|
B|------------------------------|------------------------------|------------------------------|
G|-7---7-------4----2-----------|-------------5----5-------7---|-7---7------------0---2---4---|
D|-7---7----------------4---0---|-2-----------5----5-------7---|-7---7-------4----------------|
A|-5---5------------------------|-2-----------3----3-------5---|-5---5------------------------|
E|---------0--------------------|-0---0---0------------0-------|---------0--------------------|


E|-----------------------------0---|--------|--------|--------|--------|--------|--------|
B|-----------------0---2---3-------|--------|--------|--------|--------|--------|--------|
G|---------0---2-------------------|--------|--------|--------|--------|--------|--------|
D|-2---4---------------------------|--------|--------|--------|--------|--------|--------|
A|---------------------------------|--------|--------|--------|--------|--------|--------|
E|---------------------------------|--------|--------|--------|--------|--------|--------|


E|--------|--------|--------|--------|--------|--------|--------|--------|--------|
B|--------|--------|--------|--------|--------|--------|--------|--------|--------|
G|--------|--------|--------|--------|--------|--------|--------|--------|--------|
D|--------|--------|--------|--------|--------|--------|--------|--------|--------|
A|--------|--------|--------|--------|--------|--------|--------|--------|--------|
E|--------|--------|--------|--------|--------|--------|--------|--------|--------|


E|--------|--------|--------|--------|--------|--------|--------|--------|--------|
B|--------|--------|--------|--------|--------|--------|--------|--------|--------|
G|--------|--------|--------|--------|--------|--------|--------|--------|--------|
D|--------|--------|--------|--------|--------|--------|--------|--------|--------|
A|--------|--------|--------|--------|--------|--------|--------|--------|--------|
E|--------|--------|--------|--------|--------|--------|--------|--------|--------|


E|--------|--------|--------|--------|--------|--------|--------|--------|--------|
B|--------|--------|--------|--------|--------|--------|--------|--------|--------|
G|--------|--------|--------|--------|--------|--------|--------|--------|--------|
D|--------|--------|--------|--------|--------|--------|--------|--------|--------|
A|--------|--------|--------|--------|--------|--------|--------|--------|--------|
E|--------|--------|--------|--------|--------|--------|--------|--------|--------|


E|--------|--------|--------|--------|--------|--------|--------|--------|--------|
B|--------|--------|--------|--------|--------|--------|--------|--------|--------|
G|--------|--------|--------|--------|--------|--------|--------|--------|--------|
D|--------|--------|--------|--------|--------|--------|--------|--------|--------|
A|--------|--------|--------|--------|--------|--------|--------|--------|--------|
E|--------|--------|--------|--------|--------|--------|--------|--------|--------|


E|--------|--------|--------|--------|--------|--------|
B|--------|--------|--------|--------|--------|--------|
G|--------|--------|--------|--------|--------|--------|
D|--------|--------|--------|--------|--------|--------|
A|--------|--------|--------|--------|--------|--------|
E|--------|--------|--------|--------|--------|--------|





Track 5: Rhythm2

E|--------|--------|--------|--------|--------|--------|--------|--------|--------|
B|--------|--------|--------|--------|--------|--------|--------|--------|--------|
G|--------|--------|--------|--------|--------|--------|--------|--------|--------|
D|--------|--------|--------|--------|--------|--------|--------|--------|--------|
A|--------|--------|--------|--------|--------|--------|--------|--------|--------|
E|--------|--------|--------|--------|--------|--------|--------|--------|--------|


E|--------|--------|--------|--------|--------|--------|--------|--------|--------|
B|--------|--------|--------|--------|--------|--------|--------|--------|--------|
G|--------|--------|--------|--------|--------|--------|--------|--------|--------|
D|--------|--------|--------|--------|--------|--------|--------|--------|--------|
A|--------|--------|--------|--------|--------|--------|--------|--------|--------|
E|--------|--------|--------|--------|--------|--------|--------|--------|--------|


E|--------|--------|--------|--------|--------|--------|--------|--------|--------|
B|--------|--------|--------|--------|--------|--------|--------|--------|--------|
G|--------|--------|--------|--------|--------|--------|--------|--------|--------|
D|--------|--------|--------|--------|--------|--------|--------|--------|--------|
A|--------|--------|--------|--------|--------|--------|--------|--------|--------|
E|--------|--------|--------|--------|--------|--------|--------|--------|--------|


E|--------|--------|--------|--------|--------|--------|--------|--------|--------|
B|--------|--------|--------|--------|--------|--------|--------|--------|--------|
G|--------|--------|--------|--------|--------|--------|--------|--------|--------|
D|--------|--------|--------|--------|--------|--------|--------|--------|--------|
A|--------|--------|--------|--------|--------|--------|--------|--------|--------|
E|--------|--------|--------|--------|--------|--------|--------|--------|--------|


E|--------|--------|--------|--------|--------|--------|--------|--------|--------|
B|--------|--------|--------|--------|--------|--------|--------|--------|--------|
G|--------|--------|--------|--------|--------|--------|--------|--------|--------|
D|--------|--------|--------|--------|--------|--------|--------|--------|--------|
A|--------|--------|--------|--------|--------|--------|--------|--------|--------|
E|--------|--------|--------|--------|--------|--------|--------|--------|--------|


E|--------|--------|--------|--------|--------|--------|--------|--------|--------|
B|--------|--------|--------|--------|--------|--------|--------|--------|--------|
G|--------|--------|--------|--------|--------|--------|--------|--------|--------|
D|--------|--------|--------|--------|--------|--------|--------|--------|--------|
A|--------|--------|--------|--------|--------|--------|--------|--------|--------|
E|--------|--------|--------|--------|--------|--------|--------|--------|--------|


E|--------|--------|--------|--------|--------|--------|--------|--------|--------|
B|--------|--------|--------|--------|--------|--------|--------|--------|--------|
G|--------|--------|--------|--------|--------|--------|--------|--------|--------|
D|--------|--------|--------|--------|--------|--------|--------|--------|--------|
A|--------|--------|--------|--------|--------|--------|--------|--------|--------|
E|--------|--------|--------|--------|--------|--------|--------|--------|--------|


E|--------|--------|--------|--------|--------|--------|--------|--------|--------|
B|--------|--------|--------|--------|--------|--------|--------|--------|--------|
G|--------|--------|--------|--------|--------|--------|--------|--------|--------|
D|--------|--------|--------|--------|--------|--------|--------|--------|--------|
A|--------|--------|--------|--------|--------|--------|--------|--------|--------|
E|--------|--------|--------|--------|--------|--------|--------|--------|--------|


E|--------|--------|--------|--------|--------|--------|--------|--------|--------|
B|--------|--------|--------|--------|--------|--------|--------|--------|--------|
G|--------|--------|--------|--------|--------|--------|--------|--------|--------|
D|--------|--------|--------|--------|--------|--------|--------|--------|--------|
A|--------|--------|--------|--------|--------|--------|--------|--------|--------|
E|--------|--------|--------|--------|--------|--------|--------|--------|--------|


E|--------|--------|--------|--------|--------|--------|--------|--------|--------|
B|--------|--------|--------|--------|--------|--------|--------|--------|--------|
G|--------|--------|--------|--------|--------|--------|--------|--------|--------|
D|--------|--------|--------|--------|--------|--------|--------|--------|--------|
A|--------|--------|--------|--------|--------|--------|--------|--------|--------|
E|--------|--------|--------|--------|--------|--------|--------|--------|--------|


E|--------|--------|--------|--------|--------|--------|--------|--------|--------|
B|--------|--------|--------|--------|--------|--------|--------|--------|--------|
G|--------|--------|--------|--------|--------|--------|--------|--------|--------|
D|--------|--------|--------|--------|--------|--------|--------|--------|--------|
A|--------|--------|--------|--------|--------|--------|--------|--------|--------|
E|--------|--------|--------|--------|--------|--------|--------|--------|--------|


E|--------|--------|--------|--------|--------|-----------------------------------------|
B|--------|--------|--------|--------|--------|-----------------------------------------|
G|--------|--------|--------|--------|--------|-----------------------------------------|
D|--------|--------|--------|--------|--------|-2---------------------------------------|
A|--------|--------|--------|--------|--------|-2---------------------------------------|
E|--------|--------|--------|--------|--------|-0---0---0---0---0--0--0--0--0--0--0--0--|


E|---------------------------|-----------------------------------------|------------------------------|
B|---------------------------|-----------------------------------------|------------------------------|
G|-4-----------0----0----0---|-----------------------------------------|-0-----------2------------4---|
D|-4-----------2----2----2---|-5---------------------------------------|-2-----------2----4---5---5---|
A|-2-----------3----3----3---|-5---------------------------------------|-3-----------0----5---7-------|
E|-----0---0-----------------|-3---3---3---3---3--3--3--3--3--3--3--3--|-----0---0--------------------|


E|-----------------------------------------|---------------------------|-----------------------------------------|
B|-----------------------------------------|---------------------------|-----------------------------------------|
G|-----------------------------------------|-4-----------0----0----0---|-----------------------------------------|
D|-2---------------------------------------|-4-----------2----2----2---|-5---------------------------------------|
A|-2---------------------------------------|-2-----------3----3----3---|-5---------------------------------------|
E|-0---0---0---0---0--0--0--0--0--0--0--0--|-----0---0-----------------|-3---3---3---3---3--3--3--3--3--3--3--3--|


E|------------------------------|-----------------|-----------------|-----------------------------------------|
B|------------------------------|-----------------|-----------------|-----------------------------------------|
G|-0-----------2------------4---|-----------------|-6-----6---6-----|-----------------------------------------|
D|-2-----------2----4---5---5---|-4-----4---4-----|-6-----6---6-----|-5---------------------------------------|
A|-3-----------0----5---7-------|-4-----4---4-----|-4-----4---4-----|-5---------------------------------------|
E|-----0---0--------------------|-2-----2---2-----|-----------------|-3---3---3---3---3--3--3--3--3--3--3--3--|


E|------------------------------|-----------------------------------------|---------------------------|
B|------------------------------|-----------------------------------------|---------------------------|
G|-0-----------2------------4---|-----------------------------------------|-4-----------0----0----0---|
D|-2-----------2----4---5---5---|-2---------------------------------------|-4-----------2----2----2---|
A|-3-----------0----5---7-------|-2---------------------------------------|-2-----------3----3----3---|
E|-----0---0--------------------|-0---0---0---0---0--0--0--0--0--0--0--0--|-----0---0-----------------|


E|-----------------------------------------|-----------------------|--------|--------|
B|-----------------------------------------|-----------------------|--------|--------|
G|-----------------------------------------|-0-----------2-----2---|-2------|--------|
D|-5---------------------------------------|-2-----------2-----2---|-2------|--------|
A|-5---------------------------------------|-3-----------0-----0---|-0------|--------|
E|-3---3---3---3---3--3--3--3--3--3--3--3--|-----0---0-------------|--------|--------|


E|--------|--------|--------|--------|--------|--------|--------|--------|--------|
B|--------|--------|--------|--------|--------|--------|--------|--------|--------|
G|--------|--------|--------|--------|--------|--------|--------|--------|--------|
D|--------|--------|--------|--------|--------|--------|--------|--------|--------|
A|--------|--------|--------|--------|--------|--------|--------|--------|--------|
E|--------|--------|--------|--------|--------|--------|--------|--------|--------|


E|--------|--------|--------|--------|--------|--------|--------|--------|--------|
B|--------|--------|--------|--------|--------|--------|--------|--------|--------|
G|--------|--------|--------|--------|--------|--------|--------|--------|--------|
D|--------|--------|--------|--------|--------|--------|--------|--------|--------|
A|--------|--------|--------|--------|--------|--------|--------|--------|--------|
E|--------|--------|--------|--------|--------|--------|--------|--------|--------|


E|--------|--------|--------|--------|--------|--------|--------|--------|--------|
B|--------|--------|--------|--------|--------|--------|--------|--------|--------|
G|--------|--------|--------|--------|--------|--------|--------|--------|--------|
D|--------|--------|--------|--------|--------|--------|--------|--------|--------|
A|--------|--------|--------|--------|--------|--------|--------|--------|--------|
E|--------|--------|--------|--------|--------|--------|--------|--------|--------|


E|--------|--------|--------|--------|--------|--------|--------|--------|--------|
B|--------|--------|--------|--------|--------|--------|--------|--------|--------|
G|--------|--------|--------|--------|--------|--------|--------|--------|--------|
D|--------|--------|--------|--------|--------|--------|--------|--------|--------|
A|--------|--------|--------|--------|--------|--------|--------|--------|--------|
E|--------|--------|--------|--------|--------|--------|--------|--------|--------|


E|--------|--------|--------|--------|--------|------------------------------|-----------------------|
B|--------|--------|--------|--------|--------|------------------------------|-----------------------|
G|--------|--------|--------|--------|--------|-------------5----5-------7---|-7---7-----------------|
D|--------|--------|--------|--------|--------|-2-----------5----5-------7---|-7---7-----------------|
A|--------|--------|--------|--------|--------|-2-----------3----3-------5---|-5---5-----------------|
E|--------|--------|--------|--------|--------|-0---0---0------------0-------|---------0---0---------|


E|------------------------------|--------------------------------|------------------------------|
B|------------------------------|--------------------------------|------------------------------|
G|-------------5----5-------7---|-7---7--------------------------|-------------5----5-------7---|
D|-2-----------5----5-------7---|-7---7-------2----------2-------|-2-----------5----5-------7---|
A|-2-----------3----3-------5---|-5---5-------3----------3-------|-2-----------3----3-------5---|
E|-0---0---0------------0-------|---------0--------0--0------0---|-0---0---0------------0-------|


E|--------------------------------|------------------------------|--------------------------------|
B|--------------------------------|------------------------------|--------------------------------|
G|-7---7--------------------------|-------------5----5-------7---|-7---7--------------------------|
D|-7---7-------2----------2-------|-2-----------5----5-------7---|-7---7-------2----------2-------|
A|-5---5-------3----------3-------|-2-----------3----3-------5---|-5---5-------3----------3-------|
E|---------0--------0--0------0---|-0---0---0------------0-------|---------0--------0--0------0---|


E|------------------------------|--------------------------------|------------------------------|
B|------------------------------|--------------------------------|------------------------------|
G|-------------5----5-------7---|-7---7--------------------------|-------------5----5-------7---|
D|-2-----------5----5-------7---|-7---7-------2----------2-------|-2-----------5----5-------7---|
A|-2-----------3----3-------5---|-5---5-------3----------3-------|-2-----------3----3-------5---|
E|-0---0---0------------0-------|---------0--------0--0------0---|-0---0---0------------0-------|


E|--------------------------------|------------------------------|--------------------------------|
B|--------------------------------|------------------------------|--------------------------------|
G|-7---7--------------------------|-------------5----5-------7---|-7---7--------------------------|
D|-7---7-------2----------2-------|-2-----------5----5-------7---|-7---7-------2----------2-------|
A|-5---5-------3----------3-------|-2-----------3----3-------5---|-5---5-------3----------3-------|
E|---------0--------0--0------0---|-0---0---0------------0-------|---------0--------0--0------0---|


E|------------------------------|--------------------------------|------------------------------|
B|------------------------------|--------------------------------|------------------------------|
G|-------------5----5-------7---|-7---7--------------------------|-------------5----5-------7---|
D|-2-----------5----5-------7---|-7---7-------2----------2-------|-2-----------5----5-------7---|
A|-2-----------3----3-------5---|-5---5-------3----------3-------|-2-----------3----3-------5---|
E|-0---0---0------------0-------|---------0--------0--0------0---|-0---0---0------------0-------|


E|--------------------------------|------------------------------|--------------------------------|
B|--------------------------------|------------------------------|--------------------------------|
G|-7---7--------------------------|-------------5----5-------7---|-7---7--------------------------|
D|-7---7-------2----------2-------|-2-----------5----5-------7---|-7---7-------2----------2-------|
A|-5---5-------3----------3-------|-2-----------3----3-------5---|-5---5-------3----------3-------|
E|---------0--------0--0------0---|-0---0---0------------0-------|---------0--------0--0------0---|


E|------------------------------|--------------------------------|------------------------------|
B|------------------------------|--------------------------------|------------------------------|
G|-------------5----5-------7---|-7---7--------------------------|-------------5----5-------7---|
D|-2-----------5----5-------7---|-7---7-------2----------2-------|-2-----------5----5-------7---|
A|-2-----------3----3-------5---|-5---5-------3----------3-------|-2-----------3----3-------5---|
E|-0---0---0------------0-------|---------0--------0--0------0---|-0---0---0------------0-------|


E|--------------------------------|------------------------------|--------------------------------|
B|--------------------------------|------------------------------|--------------------------------|
G|-7---7--------------------------|-------------5----5-------7---|-7---7--------------------------|
D|-7---7-------2----------2-------|-2-----------5----5-------7---|-7---7-------2----------2-------|
A|-5---5-------3----------3-------|-2-----------3----3-------5---|-5---5-------3----------3-------|
E|---------0--------0--0------0---|-0---0---0------------0-------|---------0--------0--0------0---|


E|------------------------------|--------------------------------|---------------------|
B|------------------------------|--------------------------------|---------------------|
G|-------------5----5-------7---|-7---7--------------------------|---------------------|
D|-2-----------5----5-------7---|-7---7-------2----------2-------|-2---------2---------|
A|-2-----------3----3-------5---|-5---5-------3----------3-------|-2---------2---------|
E|-0---0---0------------0-------|---------0--------0--0------0---|-0-----0---0-----0---|


E|---------------------------|---------------------|---------------------------|-----------------|
B|---------------------------|---------------------|---------------------------|-----------------|
G|---------------------------|---------------------|---------------------------|-----------------|
D|-2---------2---------------|-2---------2---------|-2---------2---------------|-2-----2---------|
A|-2---------2---------------|-2---------2---------|-2---------2---------------|-2-----2---------|
E|-0-----0---0---0---0---0---|-0-----0---0-----0---|-0-----0---0---0---0---0---|-0-----0-----0---|


E|-----------------------|-----------------|---------------------------------|-----------------|
B|-----------------------|-----------------|---------------------------------|-----------------|
G|-----------------------|-----------------|---------------------------------|-----------------|
D|-5-----5---------------|-7-----7---------|-7---7---7---5---5---5-----------|-2-----2---------|
A|-5-----5---------------|-7-----7---------|-7---7---7---5---5---5-----------|-3-----3---------|
E|-3-----3---3---3---3---|-5-----5-----5---|-5---5---5---3---3---3---3---3---|-0-----0-----0---|


E|-----------------------|-----------------|---------------------------------|--------|
B|-----------------------|-----------------|---------------------------------|--------|
G|-----------------------|-----------------|---------------------------------|--------|
D|-5-----5---------------|-7-----7---------|-7---7---7---5---5---5-----------|--------|
A|-5-----5---------------|-7-----7---------|-7---7---7---5---5---5-----------|--------|
E|-3-----3---3---3---3---|-5-----5-----5---|-5---5---5---3---3---3---3---3---|--------|


E|--------|--------|--------|--------|--------|--------|--------|
B|--------|--------|--------|--------|--------|--------|--------|
G|--------|--------|--------|--------|--------|--------|--------|
D|--------|--------|--------|--------|--------|--------|--------|
A|--------|--------|--------|--------|--------|--------|--------|
E|--------|--------|--------|--------|--------|--------|--------|





Track 6: Lead solo

E|--------|--------|--------|--------|--------|--------|--------|--------|--------|
B|--------|--------|--------|--------|--------|--------|--------|--------|--------|
G|--------|--------|--------|--------|--------|--------|--------|--------|--------|
D|--------|--------|--------|--------|--------|--------|--------|--------|--------|
A|--------|--------|--------|--------|--------|--------|--------|--------|--------|
E|--------|--------|--------|--------|--------|--------|--------|--------|--------|


E|--------|--------|--------|--------|--------|--------|--------|--------|--------|
B|--------|--------|--------|--------|--------|--------|--------|--------|--------|
G|--------|--------|--------|--------|--------|--------|--------|--------|--------|
D|--------|--------|--------|--------|--------|--------|--------|--------|--------|
A|--------|--------|--------|--------|--------|--------|--------|--------|--------|
E|--------|--------|--------|--------|--------|--------|--------|--------|--------|


E|--------|--------|--------|--------|--------|--------|--------|--------|--------|
B|--------|--------|--------|--------|--------|--------|--------|--------|--------|
G|--------|--------|--------|--------|--------|--------|--------|--------|--------|
D|--------|--------|--------|--------|--------|--------|--------|--------|--------|
A|--------|--------|--------|--------|--------|--------|--------|--------|--------|
E|--------|--------|--------|--------|--------|--------|--------|--------|--------|


E|--------|--------|--------|--------|--------|--------|--------|--------|--------|
B|--------|--------|--------|--------|--------|--------|--------|--------|--------|
G|--------|--------|--------|--------|--------|--------|--------|--------|--------|
D|--------|--------|--------|--------|--------|--------|--------|--------|--------|
A|--------|--------|--------|--------|--------|--------|--------|--------|--------|
E|--------|--------|--------|--------|--------|--------|--------|--------|--------|


E|--------|--------|--------|--------|--------|--------|--------|--------|--------|
B|--------|--------|--------|--------|--------|--------|--------|--------|--------|
G|--------|--------|--------|--------|--------|--------|--------|--------|--------|
D|--------|--------|--------|--------|--------|--------|--------|--------|--------|
A|--------|--------|--------|--------|--------|--------|--------|--------|--------|
E|--------|--------|--------|--------|--------|--------|--------|--------|--------|


E|--------|--------|--------|--------|--------|--------|--------|--------|--------|
B|--------|--------|--------|--------|--------|--------|--------|--------|--------|
G|--------|--------|--------|--------|--------|--------|--------|--------|--------|
D|--------|--------|--------|--------|--------|--------|--------|--------|--------|
A|--------|--------|--------|--------|--------|--------|--------|--------|--------|
E|--------|--------|--------|--------|--------|--------|--------|--------|--------|


E|--------|--------|--------|--------|--------|--------|--------|--------|--------|
B|--------|--------|--------|--------|--------|--------|--------|--------|--------|
G|--------|--------|--------|--------|--------|--------|--------|--------|--------|
D|--------|--------|--------|--------|--------|--------|--------|--------|--------|
A|--------|--------|--------|--------|--------|--------|--------|--------|--------|
E|--------|--------|--------|--------|--------|--------|--------|--------|--------|


E|--------|--------|--------|--------|--------|--------|--------|--------|--------|
B|--------|--------|--------|--------|--------|--------|--------|--------|--------|
G|--------|--------|--------|--------|--------|--------|--------|--------|--------|
D|--------|--------|--------|--------|--------|--------|--------|--------|--------|
A|--------|--------|--------|--------|--------|--------|--------|--------|--------|
E|--------|--------|--------|--------|--------|--------|--------|--------|--------|


E|--------|--------|--------|--------|--------|--------|--------|--------|--------|
B|--------|--------|--------|--------|--------|--------|--------|--------|--------|
G|--------|--------|--------|--------|--------|--------|--------|--------|--------|
D|--------|--------|--------|--------|--------|--------|--------|--------|--------|
A|--------|--------|--------|--------|--------|--------|--------|--------|--------|
E|--------|--------|--------|--------|--------|--------|--------|--------|--------|


E|--------|--------|--------|--------|--------|--------|--------|--------|--------|
B|--------|--------|--------|--------|--------|--------|--------|--------|--------|
G|--------|--------|--------|--------|--------|--------|--------|--------|--------|
D|--------|--------|--------|--------|--------|--------|--------|--------|--------|
A|--------|--------|--------|--------|--------|--------|--------|--------|--------|
E|--------|--------|--------|--------|--------|--------|--------|--------|--------|


E|--------|--------|--------|--------|--------|--------|--------|--------|--------|
B|--------|--------|--------|--------|--------|--------|--------|--------|--------|
G|--------|--------|--------|--------|--------|--------|--------|--------|--------|
D|--------|--------|--------|--------|--------|--------|--------|--------|--------|
A|--------|--------|--------|--------|--------|--------|--------|--------|--------|
E|--------|--------|--------|--------|--------|--------|--------|--------|--------|


E|--------|--------|--------|--------|--------|--------|---------------------------------|
B|--------|--------|--------|--------|--------|--------|---------------------10--12------|
G|--------|--------|--------|--------|--------|--------|---------9---11--12----------12--|
D|--------|--------|--------|--------|--------|-9------|-9---12--------------------------|
A|--------|--------|--------|--------|--------|--------|---------------------------------|
E|--------|--------|--------|--------|--------|-7------|---------------------------------|


E|--------------------------|----------------------------|-------10-12-15-12----12-15-12----12-15-12-----|
B|-10-------15-12-10---12---|-12---12--------------------|-10-12-------------12----------12----------12--|
G|-----11---------11---12---|-14---14--------------10-12-|-----------------------------------------------|
D|--------------------------|----------------10-12-------|-----------------------------------------------|
A|--------------------------|----------------------------|-----------------------------------------------|
E|--------------------------|----------------------------|-----------------------------------------------|


E|------------------------|----------------------------------|---------------------12---12---|
B|-15---15-------15-------|----------------------------------|---------------------15---15---|
G|-14---14---12--14---12--|-12----12-9-----12-9-----12-9-----|-12-9-----12-9-----------------|
D|------------------------|-------------9--------9--------9--|-------9---------9-------------|
A|------------------------|----------------------------------|-------------------------------|
E|------------------------|----------------------------------|-------------------------------|


E|-9-----9---------9---|-12-9-----9--12-9-----9--12-9-----9--12-9-----9--|-8----8----10--8---7-------|
B|-12----12----12------|-------12----------12----------12----------12----|-----------------------10--|
G|---------------------|-------------------------------------------------|---------------------------|
D|---------------------|-------------------------------------------------|---------------------------|
A|---------------------|-------------------------------------------------|---------------------------|
E|---------------------|-------------------------------------------------|---------------------------|


E|------------------------------------|------------------------------------|------------------------------------|
B|-8---7---7--8--7--------------------|-8---7---7--8--7--------------------|-8---7---7--8--7--------------7--8--|
G|------------------9-----------7--9--|------------------9-----------7--9--|------------------7-----7--9--------|
D|------------------------7--9--------|------------------------7--9--------|------------------------------------|
A|------------------------------------|------------------------------------|------------------------------------|
E|------------------------------------|------------------------------------|------------------------------------|


E|----------------------------|---------------------------------|--------|--------|
B|-10---10--10----------7--8--|-7-------------------------------|--------|--------|
G|----------------7--9--------|-----9---7---6-------------------|--------|--------|
D|----------------------------|-----------------9---7---6---7---|-4------|--------|
A|----------------------------|---------------------------------|--------|--------|
E|----------------------------|---------------------------------|--------|--------|


E|--------|--------|--------|--------|--------|--------|--------|--------|--------|
B|--------|--------|--------|--------|--------|--------|--------|--------|--------|
G|--------|--------|--------|--------|--------|--------|--------|--------|--------|
D|--------|--------|--------|--------|--------|--------|--------|--------|--------|
A|--------|--------|--------|--------|--------|--------|--------|--------|--------|
E|--------|--------|--------|--------|--------|--------|--------|--------|--------|


E|--------|--------|--------|--------|--------|--------|--------|--------|--------|
B|--------|--------|--------|--------|--------|--------|--------|--------|--------|
G|--------|--------|--------|--------|--------|--------|--------|--------|--------|
D|--------|--------|--------|--------|--------|--------|--------|--------|--------|
A|--------|--------|--------|--------|--------|--------|--------|--------|--------|
E|--------|--------|--------|--------|--------|--------|--------|--------|--------|


E|--------|--------|--------|--------|--------|--------|--------|--------|--------|
B|--------|--------|--------|--------|--------|--------|--------|--------|--------|
G|--------|--------|--------|--------|--------|--------|--------|--------|--------|
D|--------|--------|--------|--------|--------|--------|--------|--------|--------|
A|--------|--------|--------|--------|--------|--------|--------|--------|--------|
E|--------|--------|--------|--------|--------|--------|--------|--------|--------|


E|--------|--------|--------|--------|--------|--------|--------|--------|--------|
B|--------|--------|--------|--------|--------|--------|--------|--------|--------|
G|--------|--------|--------|--------|--------|--------|--------|--------|--------|
D|--------|--------|--------|--------|--------|--------|--------|--------|--------|
A|--------|--------|--------|--------|--------|--------|--------|--------|--------|
E|--------|--------|--------|--------|--------|--------|--------|--------|--------|


E|--------|--------|--------|--------|--------|-------------7---8---10--12--14--|-14-----|
B|--------|--------|--------|--------|--------|-7---8---10----------------------|--------|
G|--------|--------|--------|--------|--------|---------------------------------|--------|
D|--------|--------|--------|--------|--------|---------------------------------|--------|
A|--------|--------|--------|--------|--------|---------------------------------|--------|
E|--------|--------|--------|--------|--------|---------------------------------|--------|


E|--------|--------|--------|--------|--------|--------|--------|--------|--------|
B|--------|--------|--------|--------|--------|--------|--------|--------|--------|
G|--------|--------|--------|--------|--------|--------|--------|--------|--------|
D|--------|--------|--------|--------|--------|--------|--------|--------|--------|
A|--------|--------|--------|--------|--------|--------|--------|--------|--------|
E|--------|--------|--------|--------|--------|--------|--------|--------|--------|


E|--------|--------|--------|--------|--------|--------|--------|--------|--------|
B|--------|--------|--------|--------|--------|--------|--------|--------|--------|
G|--------|--------|--------|--------|--------|--------|--------|--------|--------|
D|--------|--------|--------|--------|--------|--------|--------|--------|--------|
A|--------|--------|--------|--------|--------|--------|--------|--------|--------|
E|--------|--------|--------|--------|--------|--------|--------|--------|--------|


E|--------|--------|--------|--------|--------|--------|--------|--------|--------|
B|--------|--------|--------|--------|--------|--------|--------|--------|--------|
G|--------|--------|--------|--------|--------|--------|--------|--------|--------|
D|--------|--------|--------|--------|--------|--------|--------|--------|--------|
A|--------|--------|--------|--------|--------|--------|--------|--------|--------|
E|--------|--------|--------|--------|--------|--------|--------|--------|--------|


E|--------|--------|--------|--------|--------|--------|--------|--------|--------|
B|--------|--------|--------|--------|--------|--------|--------|--------|--------|
G|--------|--------|--------|--------|--------|--------|--------|--------|--------|
D|--------|--------|--------|--------|--------|--------|--------|--------|--------|
A|--------|--------|--------|--------|--------|--------|--------|--------|--------|
E|--------|--------|--------|--------|--------|--------|--------|--------|--------|


E|--------|--------|--------|--------|--------|--------|--------|--------|--------|
B|--------|--------|--------|--------|--------|--------|--------|--------|--------|
G|--------|--------|--------|--------|--------|--------|--------|--------|--------|
D|--------|--------|--------|--------|--------|--------|--------|--------|--------|
A|--------|--------|--------|--------|--------|--------|--------|--------|--------|
E|--------|--------|--------|--------|--------|--------|--------|--------|--------|


E|--------|
B|--------|
G|--------|
D|--------|
A|--------|
E|--------|





Track 7: Pick Slide

E|--------|--------|--------|--------|--------|--------|--------|--------|--------|
B|--------|--------|--------|--------|--------|--------|--------|--------|--------|
G|--------|--------|--------|--------|--------|--------|--------|--------|--------|
D|--------|--------|--------|--------|--------|--------|--------|--------|--------|
A|--------|--------|--------|--------|--------|--------|--------|--------|--------|
E|--------|--------|--------|--------|--------|--------|--------|--------|--------|


E|--------|--------|--------|--------|--------|--------|--------|--------|--------|
B|--------|--------|--------|--------|--------|--------|--------|--------|--------|
G|--------|--------|--------|--------|--------|--------|--------|--------|--------|
D|--------|--------|--------|--------|--------|--------|--------|--------|--------|
A|--------|--------|--------|--------|--------|--------|--------|--------|--------|
E|--------|--------|--------|--------|--------|--------|--------|--------|--------|


E|--------|--------|--------|--------|--------|--------|--------|--------|--------|
B|--------|--------|--------|--------|--------|--------|--------|--------|--------|
G|--------|--------|--------|--------|--------|--------|--------|--------|--------|
D|--------|--------|--------|--------|--------|--------|--------|--------|--------|
A|--------|--------|--------|--------|--------|--------|--------|--------|--------|
E|--------|--------|--------|--------|--------|--------|--------|--------|--------|


E|--------|--------|--------|--------|--------|--------|--------|--------|--------|
B|--------|--------|--------|--------|--------|--------|--------|--------|--------|
G|--------|--------|--------|--------|--------|--------|--------|--------|--------|
D|--------|--------|--------|--------|--------|--------|--------|--------|--------|
A|--------|--------|--------|--------|--------|--------|--------|--------|--------|
E|--------|--------|--------|--------|--------|--------|--------|--------|--------|


E|--------|--------|--------|--------|--------|--------|--------|--------|--------|
B|--------|--------|--------|--------|--------|--------|--------|--------|--------|
G|--------|--------|--------|--------|--------|--------|--------|--------|--------|
D|--------|--------|--------|--------|--------|--------|--------|--------|--------|
A|--------|--------|--------|--------|--------|--------|--------|--------|--------|
E|--------|--------|--------|--------|--------|--------|--------|--------|--------|


E|--------|--------|--------|--------|--------|--------|--------|--------|--------|
B|--------|--------|--------|--------|--------|--------|--------|--------|--------|
G|--------|--------|--------|--------|--------|--------|--------|--------|--------|
D|--------|--------|--------|--------|--------|--------|--------|--------|--------|
A|--------|--------|--------|--------|--------|--------|--------|--------|--------|
E|--------|--------|--------|--------|--------|--------|--------|--------|--------|


E|--------|--------|--------|--------|--------|--------|--------|--------|--------|
B|--------|--------|--------|--------|--------|--------|--------|--------|--------|
G|--------|--------|--------|--------|--------|--------|--------|--------|--------|
D|--------|--------|--------|--------|--------|--------|--------|--------|--------|
A|--------|--------|--------|--------|--------|--------|--------|--------|--------|
E|--------|--------|--------|--------|--------|--------|--------|--------|--------|


E|--------|--------|--------|--------|--------|--------|--------|--------|--------|
B|--------|--------|--------|--------|--------|--------|--------|--------|--------|
G|--------|--------|--------|--------|--------|--------|--------|--------|--------|
D|--------|--------|--------|--------|--------|--------|--------|--------|--------|
A|--------|--------|--------|--------|--------|--------|--------|--------|--------|
E|--------|--------|--------|--------|--------|--------|--------|--------|--------|


E|--------|--------|--------|--------|--------|--------|--------|--------|--------|
B|--------|--------|--------|--------|--------|--------|--------|--------|--------|
G|--------|--------|--------|--------|--------|--------|--------|--------|--------|
D|--------|--------|--------|--------|--------|--------|--------|--------|--------|
A|--------|--------|--------|--------|--------|--------|--------|--------|--------|
E|--------|--------|--------|--------|--------|--------|--------|--------|--------|


E|--------|--------|--------|--------|--------|--------|--------|--------|--------|
B|--------|--------|--------|--------|--------|--------|--------|--------|--------|
G|--------|--------|--------|--------|--------|--------|--------|--------|--------|
D|--------|--------|--------|--------|--------|--------|--------|--------|--------|
A|--------|--------|--------|--------|--------|--------|--------|--------|--------|
E|--------|--------|--------|--------|--------|--------|--------|--------|--------|


E|--------|--------|--------|--------|--------|--------|--------|--------|--------|
B|--------|--------|--------|--------|--------|--------|--------|--------|--------|
G|--------|--------|--------|--------|--------|--------|--------|--------|--------|
D|--------|--------|--------|--------|--------|--------|--------|--------|--------|
A|--------|--------|--------|--------|--------|--------|--------|--------|--------|
E|--------|--------|--------|--------|--------|--------|--------|--------|--------|


E|--------|--------|--------|--------|--------|--------|--------|--------|--------|
B|--------|--------|--------|--------|--------|--------|--------|--------|--------|
G|--------|--------|--------|--------|--------|--------|--------|--------|--------|
D|--------|--------|--------|--------|--------|--------|--------|--------|--------|
A|--------|--------|--------|--------|--------|--------|--------|--------|--------|
E|--------|--------|--------|--------|--------|--------|--------|--------|--------|


E|--------|--------|--------|--------|--------|--------|--------|--------|--------|
B|--------|--------|--------|--------|--------|--------|--------|--------|--------|
G|--------|--------|--------|--------|--------|--------|--------|--------|--------|
D|--------|--------|--------|--------|--------|--------|--------|--------|--------|
A|--------|--------|--------|--------|--------|--------|--------|--------|--------|
E|--------|--------|--------|--------|--------|--------|--------|--------|--------|


E|--------|--------|--------|--------|--------|--------|--------|--------|--------|
B|--------|--------|--------|--------|--------|--------|--------|--------|--------|
G|--------|--------|--------|--------|--------|--------|--------|--------|--------|
D|--------|--------|--------|--------|--------|--------|--------|--------|--------|
A|--------|--------|--------|--------|--------|--------|--------|--------|--------|
E|--------|--------|--------|--------|--------|--------|--------|--------|--------|


E|--------|--------|--------|--------|--------|--------|--------|--------|--------|
B|--------|--------|--------|--------|--------|--------|--------|--------|--------|
G|--------|--------|--------|--------|--------|--------|--------|--------|--------|
D|--------|--------|--------|--------|--------|--------|--------|--------|--------|
A|--------|--------|--------|--------|--------|--------|--------|--------|--------|
E|--------|--------|--------|--------|--------|--------|--------|--------|--------|


E|--------|--------|--------|--------|--------|--------|--------|--------|--------|
B|--------|--------|--------|--------|--------|--------|--------|--------|--------|
G|--------|--------|--------|--------|--------|--------|--------|--------|--------|
D|--------|--------|--------|--------|--------|--------|--------|--------|--------|
A|--------|--------|--------|--------|--------|--------|--------|--------|--------|
E|--------|--------|--------|--------|--------|--------|--------|--------|--------|


E|--------|--------|--------|--------|--------|--------|--------|--------|--------|
B|--------|--------|--------|--------|--------|--------|--------|--------|--------|
G|--------|--------|--------|--------|--------|--------|--------|--------|--------|
D|--------|--------|--------|--------|--------|--------|--------|--------|--------|
A|--------|--------|--------|--------|--------|--------|--------|--------|--------|
E|--------|--------|--------|--------|--------|--------|--------|--------|--------|


E|--------|--------|--------|--------|--------|--------|--------|--------|--------|
B|--------|--------|--------|--------|--------|--------|--------|--------|--------|
G|--------|--------|--------|--------|--------|--------|--------|--------|--------|
D|--------|--------|--------|--------|--------|--------|--------|--------|--------|
A|--------|--------|--------|--------|--------|--------|--------|--------|--------|
E|--------|--------|--------|--------|--------|--------|--------|--------|--------|


E|--------|--------|-------------|--------|--------|--------|--------|--------|--------|
B|--------|--------|-------------|--------|--------|--------|--------|--------|--------|
G|--------|--------|-------------|--------|--------|--------|--------|--------|--------|
D|--------|--------|-------14----|--------|--------|--------|--------|--------|--------|
A|--------|--------|-------14----|--------|--------|--------|--------|--------|--------|
E|--------|--------|-------12----|--------|--------|--------|--------|--------|--------|


E|--------|--------|--------|--------|--------|--------|--------|--------|--------|
B|--------|--------|--------|--------|--------|--------|--------|--------|--------|
G|--------|--------|--------|--------|--------|--------|--------|--------|--------|
D|--------|--------|--------|--------|--------|--------|--------|--------|--------|
A|--------|--------|--------|--------|--------|--------|--------|--------|--------|
E|--------|--------|--------|--------|--------|--------|--------|--------|--------|


E|--------|--------|--------|--------|--------|--------|--------|--------|--------|
B|--------|--------|--------|--------|--------|--------|--------|--------|--------|
G|--------|--------|--------|--------|--------|--------|--------|--------|--------|
D|--------|--------|--------|--------|--------|--------|--------|--------|--------|
A|--------|--------|--------|--------|--------|--------|--------|--------|--------|
E|--------|--------|--------|--------|--------|--------|--------|--------|--------|


E|--------|--------|--------|--------|--------|--------|--------|--------|--------|
B|--------|--------|--------|--------|--------|--------|--------|--------|--------|
G|--------|--------|--------|--------|--------|--------|--------|--------|--------|
D|--------|--------|--------|--------|--------|--------|--------|--------|--------|
A|--------|--------|--------|--------|--------|--------|--------|--------|--------|
E|--------|--------|--------|--------|--------|--------|--------|--------|--------|


E|--------|--------|--------|--------|--------|--------|--------|--------|--------|
B|--------|--------|--------|--------|--------|--------|--------|--------|--------|
G|--------|--------|--------|--------|--------|--------|--------|--------|--------|
D|--------|--------|--------|--------|--------|--------|--------|--------|--------|
A|--------|--------|--------|--------|--------|--------|--------|--------|--------|
E|--------|--------|--------|--------|--------|--------|--------|--------|--------|


E|--------|--------|--------|--------|
B|--------|--------|--------|--------|
G|--------|--------|--------|--------|
D|--------|--------|--------|--------|
A|--------|--------|--------|--------|
E|--------|--------|--------|--------|





Track 8: Acoustic

E|--------|--------|--------|--------|--------|--------|--------|--------|--------|
B|--------|--------|--------|--------|--------|--------|--------|--------|--------|
G|--------|--------|--------|--------|--------|--------|--------|--------|--------|
D|--------|--------|--------|--------|--------|--------|--------|--------|--------|
A|--------|--------|--------|--------|--------|--------|--------|--------|--------|
E|--------|--------|--------|--------|--------|--------|--------|--------|--------|


E|--------|--------|--------|--------|--------|--------|--------|--------|--------|
B|--------|--------|--------|--------|--------|--------|--------|--------|--------|
G|--------|--------|--------|--------|--------|--------|--------|--------|--------|
D|--------|--------|--------|--------|--------|--------|--------|--------|--------|
A|--------|--------|--------|--------|--------|--------|--------|--------|--------|
E|--------|--------|--------|--------|--------|--------|--------|--------|--------|


E|--------|--------|--------|--------|--------|--------|--------|--------|--------|
B|--------|--------|--------|--------|--------|--------|--------|--------|--------|
G|--------|--------|--------|--------|--------|--------|--------|--------|--------|
D|--------|--------|--------|--------|--------|--------|--------|--------|--------|
A|--------|--------|--------|--------|--------|--------|--------|--------|--------|
E|--------|--------|--------|--------|--------|--------|--------|--------|--------|


E|--------|--------|--------|--------|--------|--------|--------|--------|--------|
B|--------|--------|--------|--------|--------|--------|--------|--------|--------|
G|--------|--------|--------|--------|--------|--------|--------|--------|--------|
D|--------|--------|--------|--------|--------|--------|--------|--------|--------|
A|--------|--------|--------|--------|--------|--------|--------|--------|--------|
E|--------|--------|--------|--------|--------|--------|--------|--------|--------|


E|--------|--------|--------|--------|--------|--------|--------|--------|--------|
B|--------|--------|--------|--------|--------|--------|--------|--------|--------|
G|--------|--------|--------|--------|--------|--------|--------|--------|--------|
D|--------|--------|--------|--------|--------|--------|--------|--------|--------|
A|--------|--------|--------|--------|--------|--------|--------|--------|--------|
E|--------|--------|--------|--------|--------|--------|--------|--------|--------|


E|--------|--------|--------|--------|--------|--------|--------|--------|--------|
B|--------|--------|--------|--------|--------|--------|--------|--------|--------|
G|--------|--------|--------|--------|--------|--------|--------|--------|--------|
D|--------|--------|--------|--------|--------|--------|--------|--------|--------|
A|--------|--------|--------|--------|--------|--------|--------|--------|--------|
E|--------|--------|--------|--------|--------|--------|--------|--------|--------|


E|--------|--------|--------|--------|--------|--------|--------|--------|--------|
B|--------|--------|--------|--------|--------|--------|--------|--------|--------|
G|--------|--------|--------|--------|--------|--------|--------|--------|--------|
D|--------|--------|--------|--------|--------|--------|--------|--------|--------|
A|--------|--------|--------|--------|--------|--------|--------|--------|--------|
E|--------|--------|--------|--------|--------|--------|--------|--------|--------|


E|--------|--------|--------|--------|--------|--------|--------|--------|--------|
B|--------|--------|--------|--------|--------|--------|--------|--------|--------|
G|--------|--------|--------|--------|--------|--------|--------|--------|--------|
D|--------|--------|--------|--------|--------|--------|--------|--------|--------|
A|--------|--------|--------|--------|--------|--------|--------|--------|--------|
E|--------|--------|--------|--------|--------|--------|--------|--------|--------|


E|--------|--------|--------|--------|--------|--------|--------|--------|--------|
B|--------|--------|--------|--------|--------|--------|--------|--------|--------|
G|--------|--------|--------|--------|--------|--------|--------|--------|--------|
D|--------|--------|--------|--------|--------|--------|--------|--------|--------|
A|--------|--------|--------|--------|--------|--------|--------|--------|--------|
E|--------|--------|--------|--------|--------|--------|--------|--------|--------|


E|--------|--------|--------|--------|--------|--------|--------|--------|--------|
B|--------|--------|--------|--------|--------|--------|--------|--------|--------|
G|--------|--------|--------|--------|--------|--------|--------|--------|--------|
D|--------|--------|--------|--------|--------|--------|--------|--------|--------|
A|--------|--------|--------|--------|--------|--------|--------|--------|--------|
E|--------|--------|--------|--------|--------|--------|--------|--------|--------|


E|--------|--------|--------|--------|--------|--------|--------|--------|--------|
B|--------|--------|--------|--------|--------|--------|--------|--------|--------|
G|--------|--------|--------|--------|--------|--------|--------|--------|--------|
D|--------|--------|--------|--------|--------|--------|--------|--------|--------|
A|--------|--------|--------|--------|--------|--------|--------|--------|--------|
E|--------|--------|--------|--------|--------|--------|--------|--------|--------|


E|--------|--------|--------|--------|--------|--------|--------|--------|--------|
B|--------|--------|--------|--------|--------|--------|--------|--------|--------|
G|--------|--------|--------|--------|--------|--------|--------|--------|--------|
D|--------|--------|--------|--------|--------|--------|--------|--------|--------|
A|--------|--------|--------|--------|--------|--------|--------|--------|--------|
E|--------|--------|--------|--------|--------|--------|--------|--------|--------|


E|--------|--------|--------|--------|--------|--------|--------|--------|--------|
B|--------|--------|--------|--------|--------|--------|--------|--------|--------|
G|--------|--------|--------|--------|--------|--------|--------|--------|--------|
D|--------|--------|--------|--------|--------|--------|--------|--------|--------|
A|--------|--------|--------|--------|--------|--------|--------|--------|--------|
E|--------|--------|--------|--------|--------|--------|--------|--------|--------|


E|--------|--------|--------|--------|--------|--------|--------|--------|--------|
B|--------|--------|--------|--------|--------|--------|--------|--------|--------|
G|--------|--------|--------|--------|--------|--------|--------|--------|--------|
D|--------|--------|--------|--------|--------|--------|--------|--------|--------|
A|--------|--------|--------|--------|--------|--------|--------|--------|--------|
E|--------|--------|--------|--------|--------|--------|--------|--------|--------|


E|--------|--------|--------|--------|--------|--------|--------|--------|--------|
B|--------|--------|--------|--------|--------|--------|--------|--------|--------|
G|--------|--------|--------|--------|--------|--------|--------|--------|--------|
D|--------|--------|--------|--------|--------|--------|--------|--------|--------|
A|--------|--------|--------|--------|--------|--------|--------|--------|--------|
E|--------|--------|--------|--------|--------|--------|--------|--------|--------|


E|--------|--------|--------|--------|--------|--------|--------|--------|--------|
B|--------|--------|--------|--------|--------|--------|--------|--------|--------|
G|--------|--------|--------|--------|--------|--------|--------|--------|--------|
D|--------|--------|--------|--------|--------|--------|--------|--------|--------|
A|--------|--------|--------|--------|--------|--------|--------|--------|--------|
E|--------|--------|--------|--------|--------|--------|--------|--------|--------|


E|--------|--------|--------|--------|--------|--------|--------|--------|--------|
B|--------|--------|--------|--------|--------|--------|--------|--------|--------|
G|--------|--------|--------|--------|--------|--------|--------|--------|--------|
D|--------|--------|--------|--------|--------|--------|--------|--------|--------|
A|--------|--------|--------|--------|--------|--------|--------|--------|--------|
E|--------|--------|--------|--------|--------|--------|--------|--------|--------|


E|--------|--------|--------|--------|--------|--------|--------|--------|--------|
B|--------|--------|--------|--------|--------|--------|--------|--------|--------|
G|--------|--------|--------|--------|--------|--------|--------|--------|--------|
D|--------|--------|--------|--------|--------|--------|--------|--------|--------|
A|--------|--------|--------|--------|--------|--------|--------|--------|--------|
E|--------|--------|--------|--------|--------|--------|--------|--------|--------|


E|--------|--------|--------|-14-----|--------|-----------------------------------------|
B|--------|--------|--------|--------|--------|-----------------------------------------|
G|--------|--------|--------|--------|--------|-------------------------12--------------|
D|--------|--------|--------|--------|--------|-------------------12-14-----14--12--14--|
A|--------|--------|--------|--------|--------|----------12-14-15-----------------------|
E|--------|--------|--------|--------|--------|-12-14-15--------------------------------|


E|--------------------------------|---------------------------15--14--|-14------14--15--17--15--14--12--|
B|-------------------12---12--12--|-12--13-12-10----------12----------|-----17--------------------------|
G|-----------12--14---------------|---------------12--11--------------|---------------------------------|
D|-14--14-16----------------------|-----------------------------------|---------------------------------|
A|--------------------------------|-----------------------------------|---------------------------------|
E|--------------------------------|-----------------------------------|---------------------------------|


E|-14---14---14--14--12---|-----12-----------------------15--|-17---15---14---12---|
B|------------------------|-15------13--12--12---12--13------|---------------------|
G|------------------------|----------------------------------|---------------------|
D|------------------------|----------------------------------|---------------------|
A|------------------------|----------------------------------|---------------------|
E|------------------------|----------------------------------|---------------------|


E|------10-12-10-----------------17-19-------|----------------------------|-------10-------------------------------|
B|-12------------12--15-17-19-20-------19----|-12---------12---------12---|-12-10-----13--12--10-------------------|
G|----------------------------------------21-|-14---14-14-14---14-14-14---|-----------------------12--11-12-11-----|
D|-------------------------------------------|----------------------------|------------------------------------14--|
A|-------------------------------------------|----------------------------|----------------------------------------|
E|-------------------------------------------|----------------------------|----------------------------------------|


E|----------------------------|---------------14-15--14--12--10--|----------------------------|
B|-12---------12---------12---|-12---12-15-17--------------------|-12---------12---------12---|
G|-14---14-14-14---14-14-14---|-14-------------------------------|-14---14-14-14---14-14-14---|
D|----------------------------|----------------------------------|----------------------------|
A|----------------------------|----------------------------------|----------------------------|
E|----------------------------|----------------------------------|----------------------------|


E|------------14--15--14--12--------|----------------------------|-----------------19-12-10-19-10-19-12-22---|
B|-------12------------------12-----|-12---------12---------12---|-------------17----------------------------|
G|-14-14-14---------------------12--|-14---14-14-14---14-14-14---|----14-16-17-------------------------------|
D|----------------------------------|----------------------------|-17----------------------------------------|
A|----------------------------------|----------------------------|-------------------------------------------|
E|----------------------------------|----------------------------|-------------------------------------------|


E|------------------------------|-------------------------------------|-----8---10--12--14--15--17--19--|
B|------------------------------|-------------------------------12----|-----10--12--13--15--17--19--20--|
G|------------------------------|----------------------------12-------|---------------------------------|
D|---------------------14-12----|----------------------12-14----------|---------------------------------|
A|---------------12-14----------|-------------12-14-15----------------|---------------------------------|
E|------12-14-15----------------|----12-14-15-------------------------|---------------------------------|


E|-19----------|-------------------------------------------------|-------------------------------------------------|
B|-20----------|----------7--------7--------7--------7--------7--|-7--------8--------8--------8--------8--------8--|
G|-------------|-------7--------7--------7--------7--------7-----|-------7--------7--------7--------7--------7-----|
D|-------------|----9--------9--------9--------9--------9--------|----9--------9--------9--------9--------9--------|
A|-------12----|-------------------------------------------------|-------------------------------------------------|
E|-------12----|-------------------------------------------------|-------------------------------------------------|


E|---------------------------------|------------------------------|---------------------------------|
B|-8---8---7-----------------------|------------------------------|---------------------------------|
G|-------------9---7---------------|------------------------------|-9---9---9---9---9---9---9---9---|
D|---------------------9---7---9---|-9---7---9---7---10--9---7----|---------------------------------|
A|---------------------------------|------------------------------|-7---7---7---7---7---7---7---7---|
E|---------------------------------|------------------------------|---------------------------------|


E|---------------------------------|---------------------------------|---------------------------------|
B|---------------------------------|---------------------------------|---------------------------------|
G|-12--12--12--12--12--12--12--12--|-14--14--14--14--14--14--14--14--|-17--17--17--16--16--16--16--16--|
D|---------------------------------|---------------------------------|---------------------------------|
A|-10--10--10--10--10--10--10--10--|-12--12--12--12--12--12--12--12--|-15--15--15--14--14--14--14--14--|
E|---------------------------------|---------------------------------|---------------------------------|


E|---------------------------------|---------------------------------|---------------------------------|
B|---------------------------------|---------------------------------|---------------------------------|
G|-9---9---9---9---9---9---9---9---|-12--12--12--12--12--12--12--12--|-14--14--14--14--14--14--14--14--|
D|---------------------------------|---------------------------------|---------------------------------|
A|-7---7---7---7---7---7---7---7---|-10--10--10--10--10--10--10--10--|-12--12--12--12--12--12--12--12--|
E|---------------------------------|---------------------------------|---------------------------------|


E|---------------------------------|---------------------------------|---------------------------------|
B|---------------------------------|---------------------------------|---------------------------------|
G|-17--17--17--16--16--16--16--16--|-17--17--17--17--17--17--17--17--|-16--16--16--16--16--16--16--16--|
D|---------------------------------|---------------------------------|---------------------------------|
A|-15--15--15--14--14--14--14--14--|-15--15--15--15--15--15--15--15--|-14--14--14--14--14--14--14--14--|
E|---------------------------------|---------------------------------|---------------------------------|


E|---------------------------------|---------------------------------|--------|--------|
B|---------------------------------|---------------------------------|--------|--------|
G|-14--14--14--14--14--14--14--14--|-14--14--14--12--12--12--11--11--|--------|--------|
D|---------------------------------|---------------------------------|--------|--------|
A|-12--12--12--12--12--12--12--12--|-12--12--12--10--10--10--9---9---|--------|--------|
E|---------------------------------|---------------------------------|--------|--------|


E|--------|--------|--------|--------|--------|--------|
B|--------|--------|--------|--------|--------|--------|
G|--------|--------|--------|--------|--------|--------|
D|--------|--------|--------|--------|--------|--------|
A|--------|--------|--------|--------|--------|--------|
E|--------|--------|--------|--------|--------|--------|





Track 9: Acoustic

E|--------|--------|--------|--------|--------|--------|--------|--------|--------|
B|--------|--------|--------|--------|--------|--------|--------|--------|--------|
G|--------|--------|--------|--------|--------|--------|--------|--------|--------|
D|--------|--------|--------|--------|--------|--------|--------|--------|--------|
A|--------|--------|--------|--------|--------|--------|--------|--------|--------|
E|--------|--------|--------|--------|--------|--------|--------|--------|--------|


E|--------|--------|--------|--------|--------|--------|--------|--------|--------|
B|--------|--------|--------|--------|--------|--------|--------|--------|--------|
G|--------|--------|--------|--------|--------|--------|--------|--------|--------|
D|--------|--------|--------|--------|--------|--------|--------|--------|--------|
A|--------|--------|--------|--------|--------|--------|--------|--------|--------|
E|--------|--------|--------|--------|--------|--------|--------|--------|--------|


E|--------|--------|--------|--------|--------|--------|--------|--------|--------|
B|--------|--------|--------|--------|--------|--------|--------|--------|--------|
G|--------|--------|--------|--------|--------|--------|--------|--------|--------|
D|--------|--------|--------|--------|--------|--------|--------|--------|--------|
A|--------|--------|--------|--------|--------|--------|--------|--------|--------|
E|--------|--------|--------|--------|--------|--------|--------|--------|--------|


E|--------|--------|--------|--------|--------|--------|--------|--------|--------|
B|--------|--------|--------|--------|--------|--------|--------|--------|--------|
G|--------|--------|--------|--------|--------|--------|--------|--------|--------|
D|--------|--------|--------|--------|--------|--------|--------|--------|--------|
A|--------|--------|--------|--------|--------|--------|--------|--------|--------|
E|--------|--------|--------|--------|--------|--------|--------|--------|--------|


E|--------|--------|--------|--------|--------|--------|--------|--------|--------|
B|--------|--------|--------|--------|--------|--------|--------|--------|--------|
G|--------|--------|--------|--------|--------|--------|--------|--------|--------|
D|--------|--------|--------|--------|--------|--------|--------|--------|--------|
A|--------|--------|--------|--------|--------|--------|--------|--------|--------|
E|--------|--------|--------|--------|--------|--------|--------|--------|--------|


E|--------|--------|--------|--------|--------|--------|--------|--------|--------|
B|--------|--------|--------|--------|--------|--------|--------|--------|--------|
G|--------|--------|--------|--------|--------|--------|--------|--------|--------|
D|--------|--------|--------|--------|--------|--------|--------|--------|--------|
A|--------|--------|--------|--------|--------|--------|--------|--------|--------|
E|--------|--------|--------|--------|--------|--------|--------|--------|--------|


E|--------|--------|--------|--------|--------|--------|--------|--------|--------|
B|--------|--------|--------|--------|--------|--------|--------|--------|--------|
G|--------|--------|--------|--------|--------|--------|--------|--------|--------|
D|--------|--------|--------|--------|--------|--------|--------|--------|--------|
A|--------|--------|--------|--------|--------|--------|--------|--------|--------|
E|--------|--------|--------|--------|--------|--------|--------|--------|--------|


E|--------|--------|--------|--------|--------|--------|--------|--------|--------|
B|--------|--------|--------|--------|--------|--------|--------|--------|--------|
G|--------|--------|--------|--------|--------|--------|--------|--------|--------|
D|--------|--------|--------|--------|--------|--------|--------|--------|--------|
A|--------|--------|--------|--------|--------|--------|--------|--------|--------|
E|--------|--------|--------|--------|--------|--------|--------|--------|--------|


E|--------|--------|--------|--------|--------|--------|--------|--------|--------|
B|--------|--------|--------|--------|--------|--------|--------|--------|--------|
G|--------|--------|--------|--------|--------|--------|--------|--------|--------|
D|--------|--------|--------|--------|--------|--------|--------|--------|--------|
A|--------|--------|--------|--------|--------|--------|--------|--------|--------|
E|--------|--------|--------|--------|--------|--------|--------|--------|--------|


E|--------|--------|--------|--------|--------|--------|--------|--------|--------|
B|--------|--------|--------|--------|--------|--------|--------|--------|--------|
G|--------|--------|--------|--------|--------|--------|--------|--------|--------|
D|--------|--------|--------|--------|--------|--------|--------|--------|--------|
A|--------|--------|--------|--------|--------|--------|--------|--------|--------|
E|--------|--------|--------|--------|--------|--------|--------|--------|--------|


E|--------|--------|--------|--------|--------|--------|--------|--------|--------|
B|--------|--------|--------|--------|--------|--------|--------|--------|--------|
G|--------|--------|--------|--------|--------|--------|--------|--------|--------|
D|--------|--------|--------|--------|--------|--------|--------|--------|--------|
A|--------|--------|--------|--------|--------|--------|--------|--------|--------|
E|--------|--------|--------|--------|--------|--------|--------|--------|--------|


E|--------|--------|--------|--------|--------|--------|--------|--------|--------|
B|--------|--------|--------|--------|--------|--------|--------|--------|--------|
G|--------|--------|--------|--------|--------|--------|--------|--------|--------|
D|--------|--------|--------|--------|--------|--------|--------|--------|--------|
A|--------|--------|--------|--------|--------|--------|--------|--------|--------|
E|--------|--------|--------|--------|--------|--------|--------|--------|--------|


E|--------|--------|--------|--------|--------|--------|--------|--------|--------|
B|--------|--------|--------|--------|--------|--------|--------|--------|--------|
G|--------|--------|--------|--------|--------|--------|--------|--------|--------|
D|--------|--------|--------|--------|--------|--------|--------|--------|--------|
A|--------|--------|--------|--------|--------|--------|--------|--------|--------|
E|--------|--------|--------|--------|--------|--------|--------|--------|--------|


E|--------|--------|--------|--------|--------|--------|--------|--------|--------|
B|--------|--------|--------|--------|--------|--------|--------|--------|--------|
G|--------|--------|--------|--------|--------|--------|--------|--------|--------|
D|--------|--------|--------|--------|--------|--------|--------|--------|--------|
A|--------|--------|--------|--------|--------|--------|--------|--------|--------|
E|--------|--------|--------|--------|--------|--------|--------|--------|--------|


E|--------|--------|--------|--------|--------|--------|--------|--------|--------|
B|--------|--------|--------|--------|--------|--------|--------|--------|--------|
G|--------|--------|--------|--------|--------|--------|--------|--------|--------|
D|--------|--------|--------|--------|--------|--------|--------|--------|--------|
A|--------|--------|--------|--------|--------|--------|--------|--------|--------|
E|--------|--------|--------|--------|--------|--------|--------|--------|--------|


E|--------|--------|--------|--------|--------|--------|--------|--------|--------|
B|--------|--------|--------|--------|--------|--------|--------|--------|--------|
G|--------|--------|--------|--------|--------|--------|--------|--------|--------|
D|--------|--------|--------|--------|--------|--------|--------|--------|--------|
A|--------|--------|--------|--------|--------|--------|--------|--------|--------|
E|--------|--------|--------|--------|--------|--------|--------|--------|--------|


E|--------|--------|--------|--------|--------|--------|--------|--------|--------|
B|--------|--------|--------|--------|--------|--------|--------|--------|--------|
G|--------|--------|--------|--------|--------|--------|--------|--------|--------|
D|--------|--------|--------|--------|--------|--------|--------|--------|--------|
A|--------|--------|--------|--------|--------|--------|--------|--------|--------|
E|--------|--------|--------|--------|--------|--------|--------|--------|--------|


E|--------|--------|--------|--------|--------|--------|--------|--------|--------|
B|--------|--------|--------|--------|--------|--------|--------|--------|--------|
G|--------|--------|--------|--------|--------|--------|--------|--------|--------|
D|--------|--------|--------|--------|--------|--------|--------|--------|--------|
A|--------|--------|--------|--------|--------|--------|--------|--------|--------|
E|--------|--------|--------|--------|--------|--------|--------|--------|--------|


E|--------|--------|--------|--------|--------|--------|--------|--------|--------|
B|--------|--------|--------|--------|--------|--------|--------|--------|--------|
G|--------|--------|--------|--------|--------|--------|--------|--------|--------|
D|--------|--------|--------|--------|--------|--------|--------|--------|--------|
A|--------|--------|--------|--------|--------|--------|--------|--------|--------|
E|--------|--------|--------|--------|--------|--------|--------|--------|--------|


E|--------|--------|--------|--------|--------|--------|--------|--------|--------|
B|--------|--------|--------|--------|--------|--------|--------|--------|--------|
G|--------|--------|--------|--------|--------|--------|--------|--------|--------|
D|--------|--------|--------|--------|--------|--------|--------|--------|--------|
A|--------|--------|--------|--------|--------|--------|--------|--------|--------|
E|--------|--------|--------|--------|--------|--------|--------|--------|--------|


E|--------|--------|--------|--------|--------|--------|--------|--------|--------|
B|--------|--------|--------|--------|--------|--------|--------|--------|--------|
G|--------|--------|--------|--------|--------|--------|--------|--------|--------|
D|--------|--------|--------|--------|--------|--------|--------|--------|--------|
A|--------|--------|--------|--------|--------|--------|--------|--------|--------|
E|--------|--------|--------|--------|--------|--------|--------|--------|--------|


E|--------|--------|--------|--------|--------|--------|--------|--------|--------|
B|--------|--------|--------|--------|--------|--------|--------|--------|--------|
G|--------|--------|--------|--------|--------|--------|--------|--------|--------|
D|--------|--------|--------|--------|--------|--------|--------|--------|--------|
A|--------|--------|--------|--------|--------|--------|--------|--------|--------|
E|--------|--------|--------|--------|--------|--------|--------|--------|--------|


E|--------|--------|--------|--------|--------|--------|--------|--------|--------|
B|--------|--------|--------|--------|--------|--------|--------|--------|--------|
G|--------|--------|--------|--------|--------|-9------|-9------|-9------|-9------|
D|--------|--------|--------|--------|--------|--------|--------|--------|--------|
A|--------|--------|--------|--------|--------|-7------|-7------|-7------|-7------|
E|--------|--------|--------|--------|--------|-0------|-0------|-0------|-0------|


E|--------|--------|--------|-------------|
B|--------|--------|--------|-------------|
G|-11-----|-12-----|-12-----|-9-----9-----|
D|--------|--------|--------|-------------|
A|-9------|-10-----|-10-----|-7-----7-----|
E|-0------|-0------|-0------|-0-----0-----|





Track 10: Untitled

G|--------|--------|--------|--------|--------|--------|--------|--------|--------|
D|--------|--------|--------|--------|--------|--------|--------|--------|--------|
A|--------|--------|--------|--------|--------|--------|--------|--------|--------|
E|--------|--------|--------|--------|--------|--------|--------|--------|--------|


G|--------|--------|--------|--------|--------|--------|--------|--------|--------|
D|--------|--------|--------|--------|--------|--------|--------|--------|--------|
A|--------|--------|--------|--------|--------|--------|--------|--------|--------|
E|--------|--------|--------|--------|--------|--------|--------|--------|--------|


G|--------|--------|--------|--------|--------|--------|--------|--------|--------|
D|--------|--------|--------|--------|--------|--------|--------|--------|--------|
A|--------|--------|--------|--------|--------|--------|--------|--------|--------|
E|--------|--------|--------|--------|--------|--------|--------|--------|--------|


G|--------|--------|--------|--------|--------|--------|--------|--------|--------|
D|--------|--------|--------|--------|--------|--------|--------|--------|--------|
A|--------|--------|--------|--------|--------|--------|--------|--------|--------|
E|--------|--------|--------|--------|--------|--------|--------|--------|--------|


G|--------|--------|--------|--------|--------|--------|--------|--------|--------|
D|--------|--------|--------|--------|--------|--------|--------|--------|--------|
A|--------|--------|--------|--------|--------|--------|--------|--------|--------|
E|--------|--------|--------|--------|--------|--------|--------|--------|--------|


G|--------|--------|--------|--------|--------|--------|--------|--------|--------|
D|--------|--------|--------|--------|--------|--------|--------|--------|--------|
A|--------|--------|--------|--------|--------|--------|--------|--------|--------|
E|--------|--------|--------|--------|--------|--------|--------|--------|--------|


G|--------|--------|--------|--------|--------|--------|--------|--------|--------|
D|--------|--------|--------|--------|--------|--------|--------|--------|--------|
A|--------|--------|--------|--------|--------|--------|--------|--------|--------|
E|--------|--------|--------|--------|--------|--------|--------|--------|--------|


G|--------|--------|--------|--------|--------|--------|--------|--------|--------|
D|--------|--------|--------|--------|--------|--------|--------|--------|--------|
A|--------|--------|--------|--------|--------|--------|--------|--------|--------|
E|--------|--------|--------|--------|--------|--------|--------|--------|--------|


G|--------|--------|--------|--------|--------|--------|--------|--------|--------|
D|--------|--------|--------|--------|--------|--------|--------|--------|--------|
A|--------|--------|--------|--------|--------|--------|--------|--------|--------|
E|--------|--------|--------|--------|--------|--------|--------|--------|--------|


G|--------|--------|--------|--------|--------|--------|--------|--------|--------|
D|--------|--------|--------|--------|--------|--------|--------|--------|--------|
A|--------|--------|--------|--------|--------|--------|--------|--------|--------|
E|--------|--------|--------|--------|--------|--------|--------|--------|--------|


G|--------|--------|--------|--------|--------|--------|--------|--------|--------|
D|--------|--------|--------|--------|--------|--------|--------|--------|--------|
A|--------|--------|--------|--------|--------|--------|--------|--------|--------|
E|--------|--------|--------|--------|--------|--------|--------|--------|--------|


G|--------|--------|--------|--------|--------|--------|--------|--------|--------|
D|--------|--------|--------|--------|--------|--------|--------|--------|--------|
A|--------|--------|--------|--------|--------|--------|--------|--------|--------|
E|--------|--------|--------|--------|--------|--------|--------|--------|--------|


G|--------|--------|--------|--------|--------|--------|--------|--------|--------|
D|--------|--------|--------|--------|--------|--------|--------|--------|--------|
A|--------|--------|--------|--------|--------|--------|--------|--------|--------|
E|--------|--------|--------|--------|--------|--------|--------|--------|--------|


G|--------|--------|--------|--------|--------|--------|--------|--------|--------|
D|--------|--------|--------|--------|--------|--------|--------|--------|--------|
A|--------|--------|--------|--------|--------|--------|--------|--------|--------|
E|--------|--------|--------|--------|--------|--------|--------|--------|--------|


G|--------|--------|--------|--------|--------|--------|--------|--------|--------|
D|--------|--------|--------|--------|--------|--------|--------|--------|--------|
A|--------|--------|--------|--------|--------|--------|--------|--------|--------|
E|--------|--------|--------|--------|--------|--------|--------|--------|--------|


G|--------|--------|--------|--------|--------|--------|--------|--------|--------|
D|--------|--------|--------|--------|--------|--------|--------|--------|--------|
A|--------|--------|--------|--------|--------|--------|--------|--------|--------|
E|--------|--------|--------|--------|--------|--------|--------|--------|--------|


G|--------|--------|--------|--------|--------|--------|--------|--------|--------|
D|--------|--------|--------|--------|--------|--------|--------|--------|--------|
A|--------|--------|--------|--------|--------|--------|--------|--------|--------|
E|--------|--------|--------|--------|--------|--------|--------|--------|--------|


G|--------|--------|--------|--------|--------|--------|--------|--------|--------|
D|--------|--------|--------|--------|--------|--------|--------|--------|--------|
A|--------|--------|--------|--------|--------|--------|--------|--------|--------|
E|--------|--------|--------|--------|--------|--------|--------|--------|--------|


G|--------|--------|--------|--------|--------|--------|--------|--------|--------|
D|--------|--------|--------|--------|--------|--------|--------|--------|--------|
A|--------|--------|--------|--------|--------|--------|--------|--------|--------|
E|--------|--------|--------|--------|--------|--------|--------|--------|--------|


G|--------|--------|--------|--------|--------|--------|--------|--------|--------|
D|--------|--------|--------|--------|--------|--------|--------|--------|--------|
A|--------|--------|--------|--------|--------|--------|--------|--------|--------|
E|--------|--------|--------|--------|--------|--------|--------|--------|--------|


G|--------|--------|--------|--------|--------|--------|--------|--------|--------|
D|--------|--------|--------|--------|--------|--------|--------|--------|--------|
A|--------|--------|--------|--------|--------|--------|--------|--------|--------|
E|--------|--------|--------|--------|--------|--------|--------|--------|--------|


G|--------|--------|--------|--------|--------|--------|--------|--------|--------|
D|--------|--------|--------|--------|--------|--------|--------|--------|--------|
A|--------|--------|--------|--------|--------|--------|--------|--------|--------|
E|--------|--------|--------|--------|--------|--------|--------|--------|--------|


G|--------|--------|--------|--------|--------|--------|--------|--------|--------|
D|--------|--------|--------|--------|--------|--------|--------|--------|--------|
A|--------|--------|--------|--------|--------|--------|--------|--------|--------|
E|--------|--------|--------|--------|--------|--------|--------|--------|--------|


G|--------|--------|--------|--------|
D|--------|--------|--------|--------|
A|--------|--------|--------|--------|
E|--------|--------|--------|--------|