Menu:

 

Search:

 

howlin wolf - dont dog me around:

 



Title: Dog Me Around
Artist: 
Album: Howlin' Wolf Rides Again
Author: Chester Burnette and Jules Taub


Track 1: Guitar

E|------------3----0------|-------------------------------------|-3---0------------------------------------------|
B|--------------------3---|-0-----------------------0---0---0---|--------3---0-----------------------------------|
G|------------------------|-----3---2---2-------2---2---2-------|----------------3---2---1---------------1-------|
D|------------------------|-----------------2---1-------1-------|----------------------------2---0---2-------2---|
A|------------------------|---------------------2-------2-------|------------------------------------------------|
E|------------------------|-------------------------------------|------------------------------------------------|


E|-----0-----------0---------------------------|-0----------------------------|---------------------------------|
B|-------------0-------3---0-------------------|-----0-------0-------0---0----|---------------------------------|
G|---------1-------------------3---2---1-------|---------2-------2---2---2----|---------------------------------|
D|-----------------------------------------2---|-2-------1-------1---1---1----|---------------------------------|
A|---------------------------------------------|---------2-------2-------2----|-----------------2---2---4---4---|
E|-0-------------------------------------------|------------------------------|-0---0---4---4-------------------|


E|-----------------------------------|-----0---3---0--------------------------|---------0-------0---0---0---------------|
B|-----------------------------------|----------------3---0-------------------|-------------3---------------------------|
G|-----------------------------------|------------------------3---2---0-------|-----1-----------------------------------|
D|-2------------2---5----0---1---2---|------------------------------------2---|-2---------------------------------------|
A|-0----3---4------------------------|----------------------------------------|-----------------------------------------|
E|-----------------------------------|-0--------------------------------------|-----------------------------0---2---4---|


E|-----------------------------------------|-----------------------------------|-----0---3---0-------------------------------|
B|-----------------------------------------|-----------------------------------|-----------------3---0-----------------------|
G|-----------------------------------------|-----------------------------------|-------------------------3---2---0-2-0-2-----|
D|-2---2-----------2---5---5---2-------2---|-2------------2---5----0---1---2---|-2---------------------------------------2---|
A|-0-------3---4-------------------4-------|-0----3---4------------------------|---------------------------------------------|
E|-----------------------------------------|-----------------------------------|---------------------------------------------|


E|---------0-------0---0---0---------------|------------------2--------|---------------------------|
B|-------------3---------------------------|-----0----------------2----|---------------------------|
G|-----1-----------------------------------|---------2----2-------2----|---------------------------|
D|-2---------------------------------------|-1-------1----1------------|--------------0----1---2---|
A|-----------------------------0---1---2---|--------------2------------|-0----3---4----------------|
E|-0---------------------------------------|---------------------------|---------------------------|


E|-----0---3---0---------------------------|-0----------------------------|-------12----12----12----12----12----12----12----|
B|-----------------3---0-------------------|-----0-------0-------0---0----|-10-12----12----12----12----12----12----12----12-|
G|-------------------------3---2---0-------|---------2-------2---2---2----|-------------------------------------------------|
D|-2-----------------------------------2---|-2-------1-------1---1---1----|-------------------------------------------------|
A|-----------------------------------------|-0-------2-----------2---2----|-------------------------------------------------|
E|-----------------------------------------|------------------------------|-------------------------------------------------|


E|-------12----12----12----12----12----12---|----12----12----12----12----12----12----12----12-|
B|-10-12----12----12----12----12----12------|-12----12----12----12----12----12----12----12----|
G|------------------------------------------|-------------------------------------------------|
D|------------------------------------------|-------------------------------------------------|
A|------------------------------------------|-------------------------------------------------|
E|------------------------------------------|-------------------------------------------------|


E|----12----12----12------------8-----7-----5------0-------|-5--------------------------------|
B|-12----12----12----10--9---8-----7-----5-----4-------2---|-5--------------------------------|
G|---------------------------------------------------------|-2--------------------------------|
D|---------------------------------------------------------|------0---2---5---5---2-------2---|
A|---------------------------------------------------------|--------------------------4-------|
E|---------------------------------------------------------|----------------------------------|


E|-----------------------------------|------3---0---------------------------|---------0-------0---0---0---------------|
B|-----------------------------------|--------------3---0-------------------|-------------3---------------------------|
G|-----------------------------------|----------------------3---2---0-------|-----1-----------------------------------|
D|-2------------2---5----0---1---2---|-2--------------------------------2---|-2---------------------------------------|
A|-0----3---4------------------------|--------------------------------------|-----------------------------0---1---2---|
E|-----------------------------------|-0------------------------------------|-0---------------------------------------|


E|------------------------------|-3---0---------------------------------------|--------------0-----------0-----------0---|
B|-----0---0--------0-------0---|---------3---0-------------------------------|----------3-----------2-----------1-------|
G|---------2----2-------2-------|-----------------3---2---0-------0---0-------|------4-----------3-----------2-----------|
D|-1-------1----1-------1-------|-----------------------------2-----------2---|-2----------------------------------------|
A|---------2----2-------2-------|---------------------------------------------|------------------------------------------|
E|------------------------------|---------------------------------------------|-0----------------------------------------|


E|------------------------------|-------12----12----12----12----12----12----12----|
B|-0---0---0---0-------0---0----|-10-12----12----12----12----12----12----12----12-|
G|-1-------2-------2---2---2----|-------------------------------------------------|
D|---------1-------1-------1----|-------------------------------------------------|
A|---------2-------2-------2----|-------------------------------------------------|
E|------------------------------|-------------------------------------------------|


E|-------12----12----12----12----12----12---|----12----12----12----12----12----12----12----12-|
B|-10-12----12----12----12----12----12------|-12----12----12----12----12----12----12----12----|
G|------------------------------------------|-------------------------------------------------|
D|------------------------------------------|-------------------------------------------------|
A|------------------------------------------|-------------------------------------------------|
E|------------------------------------------|-------------------------------------------------|


E|----12----12----12------------8-----7-----5------0-------|-5--------------------------------|
B|-12----12----12----10--9---8-----7-----5-----4-------2---|-5--------------------------------|
G|---------------------------------------------------------|-2--------------------------------|
D|---------------------------------------------------------|------0---2---5---5---2-------2---|
A|---------------------------------------------------------|--------------------------4-------|
E|---------------------------------------------------------|----------------------------------|


E|-----------------------------------|------3---0---------------------------|---------0-------0---0---0---------------|
B|-----------------------------------|--------------3---0-------------------|-------------3---------------------------|
G|-----------------------------------|----------------------3---2---0-------|-----1-----------------------------------|
D|-2------------2---5----0---1---2---|-2--------------------------------2---|-2---------------------------------------|
A|-0----3---4------------------------|--------------------------------------|-----------------------------0---1---2---|
E|-----------------------------------|-0------------------------------------|-0---------------------------------------|


E|------------------------------|-3---0---------------------------------------|--------------0-----------0-----------0---|
B|-----0---0--------0-------0---|---------3---0-------------------------------|----------3-----------2-----------1-------|
G|---------2----2-------2-------|-----------------3---2---0-------0---0-------|------4-----------3-----------2-----------|
D|-1-------1----1-------1-------|-----------------------------2-----------2---|-2----------------------------------------|
A|---------2----2-------2-------|---------------------------------------------|------------------------------------------|
E|------------------------------|---------------------------------------------|-0----------------------------------------|


E|------------------------------|---------------------------------|---------------------------------|
B|-0---0---0---0-------0---0----|---------------------------------|---------------------------------|
G|-1-------2-------2---2---2----|---------------------------------|---------------------------------|
D|---------1-------1-------1----|---------------------------------|-2---2---------------------------|
A|---------2-------2-------2----|-----------------2---2---4---4---|---------4---4---2---2-----------|
E|------------------------------|-0---0---3---4-------------------|-------------------------4---4---|


E|---------------------------------|-------------------------------------------------|
B|---------------------------------|-------------------------------------------------|
G|---------------------------------|-------------------------------------------------|
D|---------------------------------|-2---4---2-------2-------------------------------|
A|-----------------2---2---4---4---|-------------4-------4---2---4---2-------2---4---|
E|-0---0---4---4-------------------|-------------------------------------4-----------|


E|--------------------------------------|-----------------------------------|-----0---3---0---------------------------|
B|--------------------------------------|-----------------------------------|-----------------3---0-------------------|
G|--------------------------------------|-----------------------------------|-------------------------3---2---0-------|
D|--------------2---5---5---2-------2---|-2------------2---5----0---1---2---|-2-----------------------------------2---|
A|-0----3---4-------------------4-------|-0----3---4------------------------|-----------------------------------------|
E|--------------------------------------|-----------------------------------|-0---------------------------------------|


E|---------0-------0---0---0---------------|---------------------2-----------|---------------------------|
B|-------------3---------------------------|-----0-------------------2-------|---------------------------|
G|-----1-----------------------------------|---------2-------2-------2-------|---------------------------|
D|-2---------------------------------------|-1-------1-------1---------------|--------------0----1---2---|
A|-----------------------------0---1---2---|---------2-------2---------------|-0----3---4----------------|
E|-----------------------------------------|-------------2---------------4---|---------------------------|


E|-----0---3---0-----------------------|---------------------3-----|-3-----------|
B|-----------------3---0---------------|---------------------3-----|-3-----------|
G|-------------------------3---2-------|---------------------1-----|-1-----------|
D|-2-------------------------------5---|-2-------1---2-------2-----|-2-----------|
A|-------------------------------------|-----2---------------2-----|-2-----------|
E|-0-----------------------------------|---------------------0-----|-0-----------|





Track 2: Untitled

G|--------|--------|--------|--------|--------|--------|--------|--------|--------|
D|--------|--------|--------|--------|--------|--------|--------|--------|--------|
A|--------|--------|--------|--------|--------|--------|--------|--------|--------|
E|--------|--------|--------|--------|--------|--------|--------|--------|--------|


G|--------|--------|--------|--------|--------|--------|--------|--------|--------|
D|--------|--------|--------|--------|--------|--------|--------|--------|--------|
A|--------|--------|--------|--------|--------|--------|--------|--------|--------|
E|--------|--------|--------|--------|--------|--------|--------|--------|--------|


G|--------|--------|--------|--------|--------|--------|--------|--------|--------|
D|--------|--------|--------|--------|--------|--------|--------|--------|--------|
A|--------|--------|--------|--------|--------|--------|--------|--------|--------|
E|--------|--------|--------|--------|--------|--------|--------|--------|--------|


G|--------|--------|--------|--------|--------|--------|--------|--------|--------|
D|--------|--------|--------|--------|--------|--------|--------|--------|--------|
A|--------|--------|--------|--------|--------|--------|--------|--------|--------|
E|--------|--------|--------|--------|--------|--------|--------|--------|--------|


G|--------|--------|--------|--------|--------|--------|--------|--------|--------|
D|--------|--------|--------|--------|--------|--------|--------|--------|--------|
A|--------|--------|--------|--------|--------|--------|--------|--------|--------|
E|--------|--------|--------|--------|--------|--------|--------|--------|--------|


G|--------|--------|--------|--------|--------|--------|--------|--------|--------|
D|--------|--------|--------|--------|--------|--------|--------|--------|--------|
A|--------|--------|--------|--------|--------|--------|--------|--------|--------|
E|--------|--------|--------|--------|--------|--------|--------|--------|--------|