Menu:

 

Search:

 

hot hot heat - talk to me dance with me:

 



Title: Talk To Me, Dance With Me
Artist: 
Album: Make Up The Breakdown
Author: Hot Hot Heat


Track 1: Lead Guitar - Overdriven

E|-------------------------------|-------------------------------|-------------------------------|
B|-------------------------------|-------------------------------|-------------------------------|
G|-------------------------------|-------------------------------|-------------------------------|
D|-8----8----6---8---6---8---6---|-8----8----6---8---6---8---6---|-8----8----6---8---6---8---6---|
A|-------------------------------|-------------------------------|-------------------------------|
E|-------------------------------|-------------------------------|-------------------------------|


E|----------------------------|-------------------------------|-------------------------------|
B|----------------------------|-------------------------------|-------------------------------|
G|----------------------------|-------------------------------|-------------------------------|
D|-8----8----6---8------------|-8----8----6---8---6---8---6---|-8----8----6---8---6---8---6---|
A|----------------------------|-------------------------------|-------------------------------|
E|----------------------------|-------------------------------|-------------------------------|


E|-------------------------------|----------------------------|-------------------------------|
B|-------------------------------|----------------------------|-------------------------------|
G|-------------------------------|----------------------------|-------------------------------|
D|-8----8----6---8---6---8---6---|-8----8----6---8------------|-8----8----6---8---6---8---6---|
A|-------------------------------|----------------------------|-------------------------------|
E|-------------------------------|----------------------------|-------------------------------|


E|-------------------------------|-------------------------------|--------|-------------------------------|
B|-------------------------------|-------------------------------|--------|-------------------------------|
G|-------------------------------|-------------------------------|--------|-------------------------------|
D|-8----8----6---8---6---8---6---|-8----8----6---8---6---8---6---|--------|-8----8----6---8---6---8---6---|
A|-------------------------------|-------------------------------|--------|-------------------------------|
E|-------------------------------|-------------------------------|--------|-------------------------------|


E|-------------------------------|-------------------------------|-------------------------------|
B|-------------------------------|-------------------------------|-------------------------------|
G|-------------------------------|-------------------------------|-------------------------------|
D|-8----8----6---8---6---8---6---|-8----8----6---8---6---8---6---|-8----8----6---8---6---8---6---|
A|-------------------------------|-------------------------------|-------------------------------|
E|-------------------------------|-------------------------------|-------------------------------|


E|-------------------------------|-------------------------------|-------------------------------|
B|-------------------------------|-------------------------------|-------------------------------|
G|-------------------------------|-------------------------------|-------------------------------|
D|-8----8----6---8---6---8---6---|-8----8----6---8---6---8---6---|-8----8----6---8---6---8---6---|
A|-------------------------------|-------------------------------|-------------------------------|
E|-------------------------------|-------------------------------|-------------------------------|


E|-------------------------------|-------------------------------|-------------------------------|
B|-------------------------------|-------------------------------|-------------------------------|
G|-------------------------------|-------------------------------|-------------------------------|
D|-8----8----6---8---6---8---6---|-8----8----6---8---6---8---6---|-8----8----6---8---6---8---6---|
A|-------------------------------|-------------------------------|-------------------------------|
E|-------------------------------|-------------------------------|-------------------------------|


E|-------------------------------|-------------------------------|-------------------------------|
B|-------------------------------|-------------------------------|-------------------------------|
G|-------------------------------|-------------------------------|-------------------------------|
D|-8----8----6---8---6---8---6---|-8----8----6---8-------8-------|-8----8----6---8---6---8---6---|
A|-------------------------------|-------------------------------|-------------------------------|
E|-------------------------------|-------------------------------|-------------------------------|


E|-------------------------------|-------------------------------|-------------------------------|
B|-------------------------------|-------------------------------|-------------------------------|
G|-------------------------------|-------------------------------|-------------------------------|
D|-8----8----6---8---6---8---6---|-8----8----6---8---6---8---6---|-8----8----6---8-------8-------|
A|-------------------------------|-------------------------------|-------------------------------|
E|-------------------------------|-------------------------------|-------------------------------|


E|-6---6--6--6---6---6---6--6--6---6---|-6---6--6--6--6--6---6---6--6--6--6--6---|
B|-6---6--6--6---6---6---6--6--6---6---|-6---6--6--6--6--6---6---6--6--6--6--6---|
G|-7---7--7--7---7---7---7--7--7---7---|-7---7--7--7--7--7---7---7--7--7--7--7---|
D|-8---8--8--8---8---8---8--8--8---8---|-8---8--8--8--8--8---8---8--8--8--8--8---|
A|-8---8--8--8---8---8---8--8--8---8---|-8---8--8--8--8--8---8---8--8--8--8--8---|
E|-6---6--6--6---6---6---6--6--6---6---|-6---6--6--6--6--6---6---6--6--6--6--6---|


E|-6---6--6--6--6--6---6--6--6--6--6--6--6---|-6--6--6--6--6--6--6--6--6--6--6--6--6--6--6--6--|
B|-6---6--6--6--6--6---6--6--6--6--6--6--6---|-6--6--6--6--6--6--6--6--6--6--6--6--6--6--6--6--|
G|-7---7--7--7--7--7---7--7--7--7--7--7--7---|-7--7--7--7--7--7--7--7--7--7--7--7--7--7--7--7--|
D|-8---8--8--8--8--8---8--8--8--8--8--8--8---|-8--8--8--8--8--8--8--8--8--8--8--8--8--8--8--8--|
A|-8---8--8--8--8--8---8--8--8--8--8--8--8---|-8--8--8--8--8--8--8--8--8--8--8--8--8--8--8--8--|
E|-6---6--6--6--6--6---6--6--6--6--6--6--6---|-6--6--6--6--6--6--6--6--6--6--6--6--6--6--6--6--|


E|--------|--------|--------|--------|--------|--------|--------|--------|--------|
B|--------|--------|--------|--------|--------|--------|--------|--------|--------|
G|--------|--------|--------|--------|--------|--------|--------|--------|--------|
D|--------|--------|--------|--------|--------|--------|--------|--------|--------|
A|--------|--------|--------|--------|--------|--------|--------|--------|--------|
E|--------|--------|--------|--------|--------|--------|--------|--------|--------|


E|--------|--------|--------|--------|--------|--------|--------|-------------------------------|
B|--------|--------|--------|--------|--------|--------|--------|-------------------------------|
G|--------|--------|--------|--------|--------|--------|--------|-------------------------------|
D|--------|--------|--------|--------|--------|--------|--------|-8----8----6---8---6---8---6---|
A|--------|--------|--------|--------|--------|--------|--------|-------------------------------|
E|--------|--------|--------|--------|--------|--------|--------|-------------------------------|


E|-------------------------------|-------------------------------|-------------------------------|
B|-------------------------------|-------------------------------|-------------------------------|
G|-------------------------------|-------------------------------|-------------------------------|
D|-8----8----6---8---6---8---6---|-8----8----6---8---6---8---6---|-8----8----6---8-------8-------|
A|-------------------------------|-------------------------------|-------------------------------|
E|-------------------------------|-------------------------------|-------------------------------|


E|-------------------------------|-------------------------------|-6----6----6----6---6-------|
B|-------------------------------|-------------------------------|-6----6----6----6---6-------|
G|-------------------------------|-------------------------------|-6----6----6----6---6-------|
D|-8----8----6---8---6---8---6---|-8----8----6---8---6---8---6---|-8----8----8----8---8-------|
A|-------------------------------|-------------------------------|----------------------------|
E|-------------------------------|-------------------------------|----------------------------|


E|-6----6----6----6---6----|--------|--------|--------|--------|--------|--------|
B|-6----6----6----6---6----|--------|--------|--------|--------|--------|--------|
G|-6----6----6----6---6----|--------|--------|--------|--------|--------|--------|
D|-8----8----8----8---8----|--------|--------|--------|--------|--------|--------|
A|-------------------------|--------|--------|--------|--------|--------|--------|
E|-------------------------|--------|--------|--------|--------|--------|--------|


E|--------|--------|--------|--------|--------------------|--------------------|--------------------|
B|--------|--------|--------|--------|----------------6---|--------------------|--------------------|
G|--------|--------|--------|--------|-8------------------|-6--------------8---|----------------8---|
D|--------|--------|--------|--------|--------------------|--------------------|-8------------------|
A|--------|--------|--------|--------|--------------------|--------------------|--------------------|
E|--------|--------|--------|--------|--------------------|--------------------|--------------------|


E|--------------------|--------------------|--------------------|--------------------|
B|--------------------|----------------6---|--------------------|--------------------|
G|--------------------|-8------------------|-6--------------8---|--------------------|
D|-8------------------|--------------------|--------------------|-8------------------|
A|--------------------|--------------------|--------------------|--------------------|
E|--------------------|--------------------|--------------------|--------------------|


E|--------|-------------------------------|-------------------------------|-------------------------------|
B|--------|-------------------------------|-------------------------------|-------------------------------|
G|--------|-------------------------------|-------------------------------|-------------------------------|
D|--------|-8----8----6---8---6---8---6---|-8----8----6---8---6---8---6---|-8----8----6---8---6---8---6---|
A|--------|-------------------------------|-------------------------------|-------------------------------|
E|--------|-------------------------------|-------------------------------|-------------------------------|


E|-------------------------------|-------------------------------|-------------------------------|
B|-------------------------------|-------------------------------|-------------------------------|
G|-------------------------------|-------------------------------|-------------------------------|
D|-8----8----6---8-------8-------|-8----8----6---8---6---8---6---|-8----8----6---8---6---8---6---|
A|-------------------------------|-------------------------------|-------------------------------|
E|-------------------------------|-------------------------------|-------------------------------|


E|-------------------------------|-------------------------------|-------------------------------|
B|-------------------------------|-------------------------------|-------------------------------|
G|-------------------------------|-------------------------------|-------------------------------|
D|-8----8----6---8---6---8---6---|-8----8----6---8-------8-------|-8----8----6---8---6---8---6---|
A|-------------------------------|-------------------------------|-------------------------------|
E|-------------------------------|-------------------------------|-------------------------------|


E|-------------------------------|-------------------------------|-------------------------------|
B|-------------------------------|-------------------------------|-------------------------------|
G|-------------------------------|-------------------------------|-------------------------------|
D|-8----8----6---8---6---8---6---|-8----8----6---8---6---8---6---|-8----8----6---8-------8-------|
A|-------------------------------|-------------------------------|-------------------------------|
E|-------------------------------|-------------------------------|-------------------------------|


E|-------------------------------|-------------------------------|-6----6---6--6----6---6----|
B|-------------------------------|-------------------------------|-6----6---6--6----6---6----|
G|-------------------------------|-------------------------------|-6----6---6--6----6---6----|
D|-8----8----6---8---6---8---6---|-8----8----6---8---6---8---6---|-8----8------8----8---8----|
A|-------------------------------|-------------------------------|---------------------------|
E|-------------------------------|-------------------------------|---------------------------|





Track 2: Keyboards

G|--------|--------|--------|--------|-------------------------------|-------------------------------|
D|--------|--------|--------|--------|-1----1----1---1---3-----------|-------------------1-----------|
A|--------|--------|--------|--------|-----------------------4-------|-4----4----4---4-------1-------|
E|--------|--------|--------|--------|-------------------------------|-------------------------------|


G|-------------------------------|----------------------------|-------------------------------|
D|-------------------------------|----------------------------|-1----1----1---1---3-----------|
A|-1----1----1---1---------------|-1----1----1---13---1-------|-----------------------4-------|
E|-------------------4---1-------|----------------------------|-------------------------------|


G|-------------------------------|-------------------------------|----------------------------|
D|-------------------1-----------|-------------------------------|----------------------------|
A|-4----4----4---4-------1-------|-1----1----1---1---------------|-1----1----1---13---1-------|
E|-------------------------------|-------------------4---1-------|----------------------------|


G|--------|--------|--------|--------|--------|--------|--------|--------|--------|
D|--------|--------|--------|--------|--------|--------|--------|--------|--------|
A|--------|--------|--------|--------|--------|--------|--------|--------|--------|
E|--------|--------|--------|--------|--------|--------|--------|--------|--------|


G|--------|--------|--------|--------|--------|--------|--------|-------------------------------|
D|--------|--------|--------|--------|--------|--------|--------|-1----1----1---1---3-----------|
A|--------|--------|--------|--------|--------|--------|--------|-----------------------4-------|
E|--------|--------|--------|--------|--------|--------|--------|-------------------------------|


G|-------------------------------|-------------------------------|----------------------------|
D|-------------------1-----------|-------------------------------|----------------------------|
A|-4----4----4---4-------1-------|-1----1----1---1---------------|-1----1----1---13---1-------|
E|-------------------------------|-------------------4---1-------|----------------------------|


G|--------|--------|--------|--------|--------|--------|--------|--------|--------|
D|--------|--------|--------|--------|--------|--------|--------|--------|--------|
A|--------|--------|--------|--------|--------|--------|--------|--------|--------|
E|--------|--------|--------|--------|--------|--------|--------|--------|--------|


G|--------|--------|--------|--------|--------|--------|--------|--------|--------|
D|--------|--------|--------|--------|--------|--------|--------|--------|--------|
A|--------|--------|--------|--------|--------|--------|--------|--------|--------|
E|--------|--------|--------|--------|--------|--------|--------|--------|--------|


G|--------|--------|--------|--------|--------|--------|--------|--------|--------|
D|--------|--------|--------|--------|--------|--------|--------|--------|--------|
A|--------|--------|--------|--------|--------|--------|--------|--------|--------|
E|--------|--------|--------|--------|--------|--------|--------|--------|--------|


G|--------|--------|--------|--------|--------|--------|--------|--------------------|
D|--------|--------|--------|--------|--------|--------|--------|----------------3---|
A|--------|--------|--------|--------|--------|--------|--------|-6------------------|
E|--------|--------|--------|--------|--------|--------|--------|--------------------|


G|--------------------|--------------------|--------------------|--------------------|
D|--------------------|--------------------|--------------------|----------------3---|
A|-4--------------6---|----------------6---|--------------------|-6------------------|
E|--------------------|-6------------------|-6------------------|--------------------|


G|--------------------|--------------------|---------------6---------|--------|--------|
D|--------------------|--------------------|-8----6----8--------8----|--------|--------|
A|-4--------------6---|--------------------|-------------------------|--------|--------|
E|--------------------|-6------------------|-------------------------|--------|--------|


G|--------|--------|--------|--------|--------|--------|--------|--------|--------|
D|--------|--------|--------|--------|--------|--------|--------|--------|--------|
A|--------|--------|--------|--------|--------|--------|--------|--------|--------|
E|--------|--------|--------|--------|--------|--------|--------|--------|--------|


G|--------|--------|--------|--------|
D|--------|--------|--------|--------|
A|--------|--------|--------|--------|
E|--------|--------|--------|--------|





Track 3: Second Guitar - Clean

E|--------|--------|--------|--------|--------|--------|--------|--------|--------|
B|--------|--------|--------|--------|--------|--------|--------|--------|--------|
G|--------|--------|--------|--------|--------|--------|--------|--------|--------|
D|--------|--------|--------|--------|--------|--------|--------|--------|--------|
A|--------|--------|--------|--------|--------|--------|--------|--------|--------|
E|--------|--------|--------|--------|--------|--------|--------|--------|--------|


E|--------|--------|--------|--------|--------|--------|--------|--------|--------|
B|--------|--------|--------|--------|--------|--------|--------|--------|--------|
G|--------|--------|--------|--------|--------|--------|--------|--------|--------|
D|--------|--------|--------|--------|--------|--------|--------|--------|--------|
A|--------|--------|--------|--------|--------|--------|--------|--------|--------|
E|--------|--------|--------|--------|--------|--------|--------|--------|--------|


E|--------|--------|--------|--------|--------|--------|--------|--------|--------|
B|--------|--------|-4------|-6------|--------|-6------|-4------|-6------|--------|
G|--------|--------|--------|--------|-6------|--------|--------|--------|-6------|
D|--------|--------|--------|--------|--------|--------|--------|--------|--------|
A|--------|--------|--------|--------|--------|--------|--------|--------|--------|
E|--------|--------|--------|--------|--------|--------|--------|--------|--------|


E|--------|--------|--------|--------|--------|--------|--------|--------|--------|
B|-6------|--------|--------|--------|--------|--------|--------|--------|--------|
G|--------|--------|--------|--------|--------|--------|--------|--------|--------|
D|--------|--------|--------|--------|--------|--------|--------|--------|--------|
A|--------|--------|--------|--------|--------|--------|--------|--------|--------|
E|--------|--------|--------|--------|--------|--------|--------|--------|--------|


E|--------|--------|--------|--------|--------|--------|--------|--------|--------|
B|--------|--------|--------|--------|--------|--------|--------|--------|--------|
G|--------|--------|--------|--------|--------|--------|--------|--------|--------|
D|--------|--------|--------|--------|--------|--------|--------|--------|--------|
A|--------|--------|--------|--------|--------|--------|--------|--------|--------|
E|--------|--------|--------|--------|--------|--------|--------|--------|--------|


E|--------|--------|--------|--------|--------|--------|--------|--------|--------|
B|--------|--------|--------|-4------|-6------|--------|-6------|-4------|-6------|
G|--------|--------|--------|--------|--------|-6------|--------|--------|--------|
D|--------|--------|--------|--------|--------|--------|--------|--------|--------|
A|--------|--------|--------|--------|--------|--------|--------|--------|--------|
E|--------|--------|--------|--------|--------|--------|--------|--------|--------|


E|--------|--------|--------|--------|--------|--------|--------|--------|--------|
B|--------|-6------|--------|--------|--------|--------|--------|--------|--------|
G|-6------|--------|--------|--------|--------|--------|--------|--------|--------|
D|--------|--------|--------|--------|--------|--------|--------|--------|--------|
A|--------|--------|--------|--------|--------|--------|--------|--------|--------|
E|--------|--------|--------|--------|--------|--------|--------|--------|--------|


E|--------|--------|--------|--------|--------|--------|--------|--------|--------|
B|--------|--------|--------|--------|--------|--------|--------|--------|--------|
G|--------|--------|--------|--------|--------|--------|--------|--------|--------|
D|--------|--------|--------|--------|--------|--------|--------|--------|--------|
A|--------|--------|--------|--------|--------|--------|--------|--------|--------|
E|--------|--------|--------|--------|--------|--------|--------|--------|--------|


E|--------|--------|--------|--------|--------|--------|--------|--------|--------|
B|--------|--------|-4------|-6------|--------|-6------|-4------|-6------|--------|
G|--------|--------|--------|--------|-6------|--------|--------|--------|-6------|
D|--------|--------|--------|--------|--------|--------|--------|--------|--------|
A|--------|--------|--------|--------|--------|--------|--------|--------|--------|
E|--------|--------|--------|--------|--------|--------|--------|--------|--------|


E|--------|--------|--------|--------|--------|--------|--------|--------|
B|-6------|-4------|-6------|--------|-6------|-4------|-6------|--------|
G|--------|--------|--------|-6------|--------|--------|--------|-6------|
D|--------|--------|--------|--------|--------|--------|--------|--------|
A|--------|--------|--------|--------|--------|--------|--------|--------|
E|--------|--------|--------|--------|--------|--------|--------|--------|





Track 4: Rhythm Guitar - Clean

E|--------|--------|--------|--------|--------|--------|--------|--------|--------|
B|--------|--------|--------|--------|--------|--------|--------|--------|--------|
G|--------|--------|--------|--------|--------|--------|--------|--------|--------|
D|--------|--------|--------|--------|--------|--------|--------|--------|--------|
A|--------|--------|--------|--------|--------|--------|--------|--------|--------|
E|--------|--------|--------|--------|--------|--------|--------|--------|--------|


E|--------|--------|--------|--------|--------|--------|--------|--------|--------|
B|--------|--------|--------|--------|--------|--------|--------|--------|--------|
G|--------|--------|--------|--------|--------|--------|--------|--------|--------|
D|--------|--------|--------|--------|--------|--------|--------|--------|--------|
A|--------|--------|--------|--------|--------|--------|--------|--------|--------|
E|--------|--------|--------|--------|--------|--------|--------|--------|--------|


E|--------|--------|--------|--------|--------|--------|--------|--------|--------|
B|--------|--------|--------|--------|--------|--------|--------|--------|--------|
G|--------|--------|--------|--------|--------|--------|--------|--------|--------|
D|--------|--------|--------|--------|--------|--------|--------|--------|--------|
A|--------|--------|--------|--------|--------|--------|--------|--------|--------|
E|--------|--------|--------|--------|--------|--------|--------|--------|--------|


E|--------|--------|--------|--------|--------|-6------|-4-----6-----|-6------|---------------------|
B|--------|--------|--------|--------|--------|-6------|-4-----6-----|-6------|-6----6----6----6----|
G|--------|--------|--------|--------|--------|-6------|-5-----8-----|-6------|-8----6----6----8----|
D|--------|--------|--------|--------|--------|-8------|-6-----8-----|-8------|-8----8----8----8----|
A|--------|--------|--------|--------|--------|--------|-------------|--------|---------------------|
E|--------|--------|--------|--------|--------|--------|-------------|--------|---------------------|


E|-6------|-4-----6-----|-6------|-6----------6----------------6---6---|-6------6------6-------6---6-------|
B|-6------|-4-----6-----|-6------|-6---6--6---6--6---6---6--6--6---6---|-6---6--6---6--6-------6---6-------|
G|-6------|-5-----8-----|-6------|-8---6--8---6--8---6---8--6--8---6---|-6---6--6---6--6-------6---6-------|
D|-8------|-6-----8-----|-8------|-8---8--8---8--8---8---8--8--8---8---|-8---8------8----------8---8-------|
A|--------|-------------|--------|-------------------------------------|-----------------------------------|
E|--------|-------------|--------|-------------------------------------|-----------------------------------|


E|-4------4------4---4--4--4--4--1---1--1--|-6------6------6-------6---6-------|-----------------------------------------------|
B|-4---4--4---6--4---4--4--4--4--1---1--1--|-6---6--6---6--6-------6---6-------|-6--6--6--6--6--6--6--6--6--6--6--6--6--6--6---|
G|-5---5--5---5--5---5--5--5--5--1---1--1--|-6---6--6---6--6-------6---6-------|-8--6--6--8--6--6--8--6--6--8--6--6--8--6--6---|
D|-6---6------6------6-----6-----3---3-----|-8---8------8----------8---8-------|-8--8--8--8--8--8--8--8--8--8--8--8--8--8--8---|
A|-----------------------------------------|-----------------------------------|-----------------------------------------------|
E|-----------------------------------------|-----------------------------------|-----------------------------------------------|


E|-6------6------6-------6---6-------|-4------4------4---4--4--4--4--1---1--1--|-6------6------6-------6---6-------|
B|-6---6--6---6--6-------6---6-------|-4---4--4---6--4---4--4--4--4--1---1--1--|-6---6--6---6--6-------6---6-------|
G|-6---6--6---6--6-------6---6-------|-5---5--5---5--5---5--5--5--5--1---1--1--|-6---6--6---6--6-------6---6-------|
D|-8---8------8----------8---8-------|-6---6------6------6-----6-----3---3-----|-8---8------8----------8---8-------|
A|-----------------------------------|-----------------------------------------|-----------------------------------|
E|-----------------------------------|-----------------------------------------|-----------------------------------|


E|-----------------------------------------------|--------|--------|--------|--------|
B|-6--6--6--6--6--6--6--6--6--6--6--6--6--6--6---|--------|--------|--------|--------|
G|-8--6--6--8--6--6--8--6--6--8--6--6--8--6--6---|--------|--------|--------|--------|
D|-8--8--8--8--8--8--8--8--8--8--8--8--8--8--8---|--------|--------|--------|--------|
A|-----------------------------------------------|--------|--------|--------|--------|
E|-----------------------------------------------|--------|--------|--------|--------|


E|--------|--------|--------|--------|--------|--------|--------|--------|--------|
B|--------|--------|--------|--------|--------|--------|--------|--------|--------|
G|--------|--------|--------|--------|--------|--------|--------|--------|--------|
D|--------|--------|--------|--------|--------|--------|--------|--------|--------|
A|--------|--------|--------|--------|--------|--------|--------|--------|--------|
E|--------|--------|--------|--------|--------|--------|--------|--------|--------|


E|--------|--------|--------|--------|--------|--------|--------|--------|--------|
B|--------|--------|--------|--------|--------|--------|--------|--------|--------|
G|--------|--------|--------|--------|--------|--------|--------|--------|--------|
D|--------|--------|--------|--------|--------|--------|--------|--------|--------|
A|--------|--------|--------|--------|--------|--------|--------|--------|--------|
E|--------|--------|--------|--------|--------|--------|--------|--------|--------|


E|--------|--------|--------|--------|--------|--------|--------|--------|--------|
B|--------|--------|--------|--------|--------|--------|--------|--------|--------|
G|--------|--------|--------|--------|--------|--------|--------|--------|--------|
D|--------|--------|--------|--------|--------|--------|--------|--------|--------|
A|--------|--------|--------|--------|--------|--------|--------|--------|--------|
E|--------|--------|--------|--------|--------|--------|--------|--------|--------|


E|--------|--------|--------|--------|--------|--------|--------|--------|--------|
B|--------|--------|--------|--------|--------|--------|--------|--------|--------|
G|--------|--------|--------|--------|--------|--------|--------|--------|--------|
D|--------|--------|--------|--------|--------|--------|--------|--------|--------|
A|--------|--------|--------|--------|--------|--------|--------|--------|--------|
E|--------|--------|--------|--------|--------|--------|--------|--------|--------|


E|--------|
B|--------|
G|--------|
D|--------|
A|--------|
E|--------|





Track 5: Bass

G|--------|--------|--------|--------|--------|--------|--------|--------|--------|
D|--------|--------|--------|--------|--------|--------|--------|--------|--------|
A|--------|--------|--------|--------|--------|--------|--------|--------|--------|
E|--------|--------|--------|--------|--------|--------|--------|--------|--------|


G|--------|--------|--------|----------------------------|----------------------------|
D|--------|--------|--------|----------------------------|----------------------------|
A|--------|--------|--------|-9----9----9--------9-------|-11---11---11-------11------|
E|--------|--------|--------|----------------9-------11--|----------------11------13--|


G|---------------------------|-------------------------|----------------------------|
D|----------------13-15-13---|---------------11---11---|----------------------------|
A|-13---13---13--------------|-13---13---13------------|-9----9----9--------9-------|
E|---------------------------|-------------------------|----------------9-------11--|


G|----------------------------|---------------------------|-------------------------|
D|----------------------------|----------------13-15-13---|---------------11---11---|
A|-11---11---11-------11------|-13---13---13--------------|-13---13---13------------|
E|----------------11------13--|---------------------------|-------------------------|


G|----------------------------|----------------------------|---------------------------|
D|----------------------------|----------------------------|----------------13-15-13---|
A|-9----9----9--------9-------|-11---11---11-------11------|-13---13---13--------------|
E|----------------9-------11--|----------------11------13--|---------------------------|


G|-------------------------|----------------------------|----------------------------|
D|---------------11---11---|----------------------------|----------------------------|
A|-13---13---13------------|-9----9----9--------9-------|-11---11---11-------11------|
E|-------------------------|----------------9-------11--|----------------11------13--|


G|---------------------------|-------------------------|--------|--------|--------|
D|----------------13-15-13---|---------------11---11---|--------|--------|--------|
A|-13---13---13--------------|-13---13---13------------|--------|--------|--------|
E|---------------------------|-------------------------|--------|--------|--------|


G|--------|---------------------|---------------------|---------------------|---------------------|
D|--------|---------------------|---------------------|---------------------|---------------------|
A|--------|---------------------|---------------------|-1----1----1----1----|-1----1--------------|
E|--------|-2----2----2----2----|-2----2----4----4----|---------------------|-----------4----4----|


G|---------------------|---------------------|---------------------|---------------------|
D|---------------------|---------------------|---------------------|---------------------|
A|---------------------|---------------------|-1----1----1----1----|-1----1--------------|
E|-2----2----2----2----|-2----2----4----4----|---------------------|-----------4----4----|


G|----------------------------|----------------------------|---------------------------|
D|----------------------------|----------------------------|----------------13-15-13---|
A|-9----9----9--------9-------|-11---11---11-------11------|-13---13---13--------------|
E|----------------9-------11--|----------------11------13--|---------------------------|


G|-------------------------|----------------------------|----------------------------|
D|---------------11---11---|----------------------------|----------------------------|
A|-13---13---13------------|-9----9----9--------9-------|-11---11---11-------11------|
E|-------------------------|----------------9-------11--|----------------11------13--|


G|---------------------------|-------------------------|----------------------------|
D|----------------13-15-13---|---------------11---11---|----------------------------|
A|-13---13---13--------------|-13---13---13------------|-9----9----9--------9-------|
E|---------------------------|-------------------------|----------------9-------11--|


G|----------------------------|---------------------------|-------------------------|
D|----------------------------|----------------13-15-13---|---------------11---11---|
A|-11---11---11-------11------|-13---13---13--------------|-13---13---13------------|
E|----------------11------13--|---------------------------|-------------------------|


G|----------------------------|----------------------------|----------------------------|
D|----------------------------|----------------------------|----------------------------|
A|-9----9----9--------9-------|-11---11---11-------11------|-13---13---13---13--13------|
E|----------------9-------11--|----------------11------13--|----------------------------|


G|----------------------------|--------|--------|--------|--------|--------|--------|
D|----------------------------|--------|--------|--------|--------|--------|--------|
A|-13---13---13---13--13------|--------|--------|--------|--------|--------|--------|
E|----------------------------|--------|--------|--------|--------|--------|--------|


G|--------|--------|--------|--------|--------------------|--------------------|--------------------|
D|--------|--------|--------|--------|----------------3---|--------------------|--------------------|
A|--------|--------|--------|--------|-6------------------|-4--------------6---|----------------6---|
E|--------|--------|--------|--------|--------------------|--------------------|-6------------------|


G|--------------------|--------------------|--------------------|--------------------|
D|--------------------|----------------3---|--------------------|--------------------|
A|--------------------|-6------------------|-4--------------6---|--------------------|
E|-6------------------|--------------------|--------------------|-6------------------|


G|--------|----------------------------|----------------------------|---------------------------|
D|--------|----------------------------|----------------------------|----------------13-15-13---|
A|--------|-9----9----9--------9-------|-11---11---11-------11------|-13---13---13--------------|
E|--------|----------------9-------11--|----------------11------13--|---------------------------|


G|-------------------------|----------------------------|----------------------------|
D|---------------11---11---|----------------------------|----------------------------|
A|-13---13---13------------|-9----9----9--------9-------|-11---11---11-------11------|
E|-------------------------|----------------9-------11--|----------------11------13--|


G|---------------------------|-------------------------|----------------------------|
D|----------------13-15-13---|---------------11---11---|----------------------------|
A|-13---13---13--------------|-13---13---13------------|-9----9----9--------9-------|
E|---------------------------|-------------------------|----------------9-------11--|


G|----------------------------|---------------------------|-------------------------|
D|----------------------------|----------------13-15-13---|---------------11---11---|
A|-11---11---11-------11------|-13---13---13--------------|-13---13---13------------|
E|----------------11------13--|---------------------------|-------------------------|


G|----------------------------|----------------------------|----------------------------|
D|----------------------------|----------------------------|----------------------------|
A|-9----9----9--------9-------|-11---11---11-------11------|-13---13---13---13--13------|
E|----------------9-------11--|----------------11------13--|----------------------------|