Menu:

 

Search:

 

hell is for heroes - slow song:

 



Title: Slow Song
Artist: 
Album: The Neon Handshake
Author: Will McGonagle, Pelle Henricsson, Ton O'Donoghue, Joe Birch, Justin Schlosberg, Eskil Lovstrom and James Finlay


Track 1: Gtr 1 - Clean

E|---------------------------------|-----------------------------------|---------------------------------|
B|---------------------------------|-----------------------------------|---------------------------------|
G|-12----------12----------12------|-12----------12----------12--------|-12----------12----------12------|
D|-12--12--12--12--12--12--12--12--|-12--12--12--12--12--12--12--12-12-|-12--12--12--12--12--12--12--12--|
A|-10--10--10--10--10--10--10--10--|-9---9---9---9---9---9---9---9--9--|-9---9---9---9---9---9---9---9---|
D|---------------------------------|-----------------------------------|-9---9---9---9---9---9---9---9---|


E|-----------------------------------|---------------------------------|-----------------------------------|
B|-----------------------------------|---------------------------------|-----------------------------------|
G|-12----------12----------12--------|-12----------12----------12------|-12----------12----------12--------|
D|-12--12--12--12--12--12--12--12-12-|-12--12--12--12--12--12--12--12--|-12--12--12--12--12--12--12--12-12-|
A|-10--10--10--10--10--10--10--10-10-|-10--10--10--10--10--10--10--10--|-9---9---9---9---9---9---9---9--9--|
D|-10--10--10--10--10--10--10--10-10-|---------------------------------|-----------------------------------|


E|---------------------------------|-----------------------------------|---------------------------------|
B|---------------------------------|-----------------------------------|---------------------------------|
G|-12----------12----------12------|-12----------12----------12--------|-12----------12----------12------|
D|-12--12--12--12--12--12--12--12--|-12--12--12--12--12--12--12--12-12-|-12--12--12--12--12--12--12--12--|
A|-9---9---9---9---9---9---9---9---|-10--10--10--10--10--10--10--10-10-|-10--10--10--10--10--10--10--10--|
D|-9---9---9---9---9---9---9---9---|-10--10--10--10--10--10--10--10-10-|---------------------------------|


E|-----------------------------------|---------------------------------|-----------------------------------|
B|-----------------------------------|---------------------------------|-----------------------------------|
G|-12----------12----------12--------|-12----------12----------12------|-12----------12----------12--------|
D|-12--12--12--12--12--12--12--12-12-|-12--12--12--12--12--12--12--12--|-12--12--12--12--12--12--12--12-12-|
A|-9---9---9---9---9---9---9---9--9--|-9---9---9---9---9---9---9---9---|-10--10--10--10--10--10--10--10-10-|
D|-----------------------------------|-9---9---9---9---9---9---9---9---|-10--10--10--10--10--10--10--10-10-|


E|---------------------------------|-----------------------------------|---------------------------------|
B|---------------------------------|-----------------------------------|---------------------------------|
G|-12----------12----------12------|-12----------12----------12--------|-12----------12----------12------|
D|-12--12--12--12--12--12--12--12--|-12--12--12--12--12--12--12--12-12-|-12--12--12--12--12--12--12--12--|
A|-10--10--10--10--10--10--10--10--|-9---9---9---9---9---9---9---9--9--|-9---9---9---9---9---9---9---9---|
D|---------------------------------|-----------------------------------|-9---9---9---9---9---9---9---9---|


E|-----------------------------------|---------------------------------|-----------------------------------|
B|-----------------------------------|---------------------------------|-----------------------------------|
G|-12----------12----------12--------|-12----------12----------12------|-12----------12----------12--------|
D|-12--12--12--12--12--12--12--12-12-|-12--12--12--12--12--12--12--12--|-12--12--12--12--12--12--12--12-12-|
A|-10--10--10--10--10--10--10--10-10-|-10--10--10--10--10--10--10--10--|-9---9---9---9---9---9---9---9--9--|
D|-10--10--10--10--10--10--10--10-10-|---------------------------------|-----------------------------------|


E|---------------------------------|-----------------------------------|---------------------------------|
B|---------------------------------|-----------------------------------|---------------------------------|
G|-12----------12----------12------|-12----------12----------12--------|-12----------12----------12------|
D|-12--12--12--12--12--12--12--12--|-12--12--12--12--12--12--12--12-12-|-12--12--12--12--12--12--12--12--|
A|-9---9---9---9---9---9---9---9---|-10--10--10--10--10--10--10--10-10-|-10--10--10--10--10--10--10--10--|
D|-9---9---9---9---9---9---9---9---|-10--10--10--10--10--10--10--10-10-|---------------------------------|


E|-----------------------------------|---------------------------------|-----------------------|
B|-----------------------------------|---------------------------------|-------------12--12----|
G|-12----------12----------12--------|-12----------12----------12------|-12----------12--12----|
D|-12--12--12--12--12--12--12--12-12-|-12--12--12--12--12--12--12--12--|-12--12--12--12--12----|
A|-9---9---9---9---9---9---9---9--9--|-9---9---9---9---9---9---9---9---|-10--10--10--10--10----|
D|-----------------------------------|-9---9---9---9---9---9---9---9---|-10--10--10--10--10----|


E|---------------------------------|-----------------------------------|---------------------------------|
B|---------------------------------|-----------------------------------|---------------------------------|
G|-12----------12----------12------|-12----------12----------12--------|-12----------12----------12------|
D|-12--12--12--12--12--12--12--12--|-12--12--12--12--12--12--12--12-12-|-12--12--12--12--12--12--12--12--|
A|-10--10--10--10--10--10--10--10--|-9---9---9---9---9---9---9---9--9--|-9---9---9---9---9---9---9---9---|
D|---------------------------------|-----------------------------------|-9---9---9---9---9---9---9---9---|


E|-----------------------------------|---------------------------------|-----------------------------------|
B|-----------------------------------|---------------------------------|-----------------------------------|
G|-12----------12----------12--------|-12----------12----------12------|-12----------12----------12--------|
D|-12--12--12--12--12--12--12--12-12-|-12--12--12--12--12--12--12--12--|-12--12--12--12--12--12--12--12-12-|
A|-10--10--10--10--10--10--10--10-10-|-10--10--10--10--10--10--10--10--|-9---9---9---9---9---9---9---9--9--|
D|-10--10--10--10--10--10--10--10-10-|---------------------------------|-----------------------------------|


E|---------------------------------|-----------------------------------|---------------------------------|
B|---------------------------------|-----------------------------------|---------------------------------|
G|-12----------12----------12------|-12----------12----------12--------|---------------------------------|
D|-12--12--12--12--12--12--12--12--|-12--12--12--12--12--12--12--12-12-|-5-----------5-----------5-------|
A|-9---9---9---9---9---9---9---9---|-10--10--10--10--10--10--10--10-10-|-5---5---5---5---5---5---5---5---|
D|-9---9---9---9---9---9---9---9---|-10--10--10--10--10--10--10--10-10-|-5---5---5---5---5---5---5---5---|


E|---------------------------------|---------------------------------|---------------------------------|
B|---------------------------------|---------------------------------|---------------------------------|
G|---------------------------------|-9-----------9-----------9-------|-9-----------9-----------9-------|
D|-5-----------5-----------5-------|-9---9---9---9---9---9---9---9---|-9---9---9---9---9---9---9---9---|
A|-5---5---5---5---5---5---5---5---|-7---7---7---7---7---7---7---7---|-7---7---7---7---7---7---7---7---|
D|-5---5---5---5---5---5---5---5---|---------------------------------|---------------------------------|


E|---------------------------------|---------------------------------|---------------------------------|
B|---------------------------------|---------------------------------|---------------------------------|
G|---------------------------------|---------------------------------|---------------------------------|
D|-5-----------5-----------5-------|-5-----------5-----------5-------|-2-----------2-----------2-------|
A|-5---5---5---5---5---5---5---5---|-5---5---5---5---5---5---5---5---|-2---2---2---2---2---2---2---2---|
D|-5---5---5---5---5---5---5---5---|-5---5---5---5---5---5---5---5---|-2---2---2---2---2---2---2---2---|


E|---------------------------------|---------------------------------|-----------------------------------|
B|---------------------------------|---------------------------------|-----------------------------------|
G|---------------------------------|-12----------12----------12------|-12----------12----------12--------|
D|-2-----------2-----------2-------|-12--12--12--12--12--12--12--12--|-12--12--12--12--12--12--12--12-12-|
A|-2---2---2---2---2---2---2---2---|-10--10--10--10--10--10--10--10--|-9---9---9---9---9---9---9---9--9--|
D|-2---2---2---2---2---2---2---2---|---------------------------------|-----------------------------------|


E|---------------------------------|-----------------------------------|---------------------------------|
B|---------------------------------|-----------------------------------|---------------------------------|
G|-12----------12----------12------|-12----------12----------12--------|-12----------12----------12------|
D|-12--12--12--12--12--12--12--12--|-12--12--12--12--12--12--12--12-12-|-12--12--12--12--12--12--12--12--|
A|-9---9---9---9---9---9---9---9---|-10--10--10--10--10--10--10--10-10-|-10--10--10--10--10--10--10--10--|
D|-9---9---9---9---9---9---9---9---|-10--10--10--10--10--10--10--10-10-|---------------------------------|


E|-----------------------------------|---------------------------------|-----------------------------------|
B|-----------------------------------|---------------------------------|-----------------------------------|
G|-12----------12----------12--------|-12----------12----------12------|-12----------12----------12--------|
D|-12--12--12--12--12--12--12--12-12-|-12--12--12--12--12--12--12--12--|-12--12--12--12--12--12--12--12-12-|
A|-9---9---9---9---9---9---9---9--9--|-9---9---9---9---9---9---9---9---|-10--10--10--10--10--10--10--10-10-|
D|-----------------------------------|-9---9---9---9---9---9---9---9---|-10--10--10--10--10--10--10--10-10-|


E|---------------------------------|-----------------------------------|---------------------------------|
B|---------------------------------|-----------------------------------|---------------------------------|
G|-12----------12----------12------|-12----------12----------12--------|-12----------12----------12------|
D|-12--12--12--12--12--12--12--12--|-12--12--12--12--12--12--12--12-12-|-12--12--12--12--12--12--12--12--|
A|-10--10--10--10--10--10--10--10--|-9---9---9---9---9---9---9---9--9--|-9---9---9---9---9---9---9---9---|
D|---------------------------------|-----------------------------------|-9---9---9---9---9---9---9---9---|


E|-----------------------------------|---------------------------------|-----------------------------------|
B|-----------------------------------|---------------------------------|-----------------------------------|
G|-12----------12----------12--------|-12----------12----------12------|-12----------12----------12--------|
D|-12--12--12--12--12--12--12--12-12-|-12--12--12--12--12--12--12--12--|-12--12--12--12--12--12--12--12-12-|
A|-10--10--10--10--10--10--10--10-10-|-10--10--10--10--10--10--10--10--|-9---9---9---9---9---9---9---9--9--|
D|-10--10--10--10--10--10--10--10-10-|---------------------------------|-----------------------------------|


E|---------------------------------|-----------------------------------|---------------------------------|
B|---------------------------------|-----------------------------------|---------------------------------|
G|-12----------12----------12------|-12----------12----------12--------|-12----------12----------12------|
D|-12--12--12--12--12--12--12--12--|-12--12--12--12--12--12--12--12-12-|-12--12--12--12--12--12--12--12--|
A|-9---9---9---9---9---9---9---9---|-10--10--10--10--10--10--10--10-10-|-10--10--10--10--10--10--10--10--|
D|-9---9---9---9---9---9---9---9---|-10--10--10--10--10--10--10--10-10-|---------------------------------|


E|-----------------------------------|---------------------------------|-----------------------------------|
B|-----------------------------------|---------------------------------|-----------------------------------|
G|-12----------12----------12--------|-12----------12----------12------|-12----------12----------12--------|
D|-12--12--12--12--12--12--12--12-12-|-12--12--12--12--12--12--12--12--|-12--12--12--12--12--12--12--12-12-|
A|-9---9---9---9---9---9---9---9--9--|-9---9---9---9---9---9---9---9---|-10--10--10--10--10--10--10--10-10-|
D|-----------------------------------|-9---9---9---9---9---9---9---9---|-10--10--10--10--10--10--10--10-10-|


E|---------------------------------|-----------------------------------|---------------------------------|
B|---------------------------------|-----------------------------------|---------------------------------|
G|-12----------12----------12------|-12----------12----------12--------|-12----------12----------12------|
D|-12--12--12--12--12--12--12--12--|-12--12--12--12--12--12--12--12-12-|-12--12--12--12--12--12--12--12--|
A|-10--10--10--10--10--10--10--10--|-9---9---9---9---9---9---9---9--9--|-9---9---9---9---9---9---9---9---|
D|---------------------------------|-----------------------------------|-9---9---9---9---9---9---9---9---|


E|-----------------------------------|---------------------------------|---------------------------------|
B|-----------------------------------|---------------------------------|---------------------------------|
G|-12----------12----------12--------|---------------------------------|---------------------------------|
D|-12--12--12--12--12--12--12--12-12-|-5-----------5-----------5-------|-5-----------5-----------5-------|
A|-10--10--10--10--10--10--10--10-10-|-5---5---5---5---5---5---5---5---|-5---5---5---5---5---5---5---5---|
D|-10--10--10--10--10--10--10--10-10-|-5---5---5---5---5---5---5---5---|-5---5---5---5---5---5---5---5---|


E|---------------------------------|---------------------------------|---------------------------------|
B|---------------------------------|---------------------------------|---------------------------------|
G|-9-----------9-----------9-------|-9-----------9-----------9-------|---------------------------------|
D|-9---9---9---9---9---9---9---9---|-9---9---9---9---9---9---9---9---|-5-----------5-----------5-------|
A|-7---7---7---7---7---7---7---7---|-7---7---7---7---7---7---7---7---|-5---5---5---5---5---5---5---5---|
D|---------------------------------|---------------------------------|-5---5---5---5---5---5---5---5---|


E|---------------------------------|---------------------------------|---------------------------------|
B|---------------------------------|---------------------------------|---------------------------------|
G|---------------------------------|---------------------------------|---------------------------------|
D|-5-----------5-----------5-------|-2-----------2-----------2-------|-2-----------2-----------2-------|
A|-5---5---5---5---5---5---5---5---|-2---2---2---2---2---2---2---2---|-2---2---2---2---2---2---2---2---|
D|-5---5---5---5---5---5---5---5---|-2---2---2---2---2---2---2---2---|-2---2---2---2---2---2---2---2---|


E|---------------------------------|---------------------------------|---------------------------------|
B|---------------------------------|---------------------------------|---------------------------------|
G|---------------------------------|---------------------------------|-9-----------9-----------9-------|
D|-5-----------5-----------5-------|-5-----------5-----------5-------|-9---9---9---9---9---9---9---9---|
A|-5---5---5---5---5---5---5---5---|-5---5---5---5---5---5---5---5---|-7---7---7---7---7---7---7---7---|
D|-5---5---5---5---5---5---5---5---|-5---5---5---5---5---5---5---5---|---------------------------------|


E|---------------------------------|---------------------------------|---------------------------------|
B|---------------------------------|---------------------------------|---------------------------------|
G|-9-----------9-----------9-------|---------------------------------|---------------------------------|
D|-9---9---9---9---9---9---9---9---|-5-----------5-----------5-------|-5-----------5-----------5-------|
A|-7---7---7---7---7---7---7---7---|-5---5---5---5---5---5---5---5---|-5---5---5---5---5---5---5---5---|
D|---------------------------------|-5---5---5---5---5---5---5---5---|-5---5---5---5---5---5---5---5---|


E|---------------------------------|---------------------------------|---------------------------------|
B|---------------------------------|---------------------------------|---------------------------------|
G|---------------------------------|---------------------------------|-12----------12----------12------|
D|-2-----------2-----------2-------|-2-----------2-----------2-------|-12--12--12--12--12--12--12--12--|
A|-2---2---2---2---2---2---2---2---|-2---2---2---2---2---2---2---2---|-10--10--10--10--10--10--10--10--|
D|-2---2---2---2---2---2---2---2---|-2---2---2---2---2---2---2---2---|---------------------------------|


E|-----------------------------------|---------------------------------|-----------------------------------|
B|-----------------------------------|---------------------------------|-----------------------------------|
G|-12----------12----------12--------|-12----------12----------12------|-12----------12----------12--------|
D|-12--12--12--12--12--12--12--12-12-|-12--12--12--12--12--12--12--12--|-12--12--12--12--12--12--12--12-12-|
A|-9---9---9---9---9---9---9---9--9--|-9---9---9---9---9---9---9---9---|-10--10--10--10--10--10--10--10-10-|
D|-----------------------------------|-9---9---9---9---9---9---9---9---|-10--10--10--10--10--10--10--10-10-|


E|---------------------------------|-----------------------------------|---------------------------------|
B|---------------------------------|-----------------------------------|---------------------------------|
G|-12----------12----------12------|-12----------12----------12--------|-12----------12----------12------|
D|-12--12--12--12--12--12--12--12--|-12--12--12--12--12--12--12--12-12-|-12--12--12--12--12--12--12--12--|
A|-10--10--10--10--10--10--10--10--|-9---9---9---9---9---9---9---9--9--|-9---9---9---9---9---9---9---9---|
D|---------------------------------|-----------------------------------|-9---9---9---9---9---9---9---9---|


E|-----------------------------------|--------|--------|--------|--------|--------|
B|-----------------------------------|--------|--------|--------|--------|--------|
G|-12----------12----------12--------|-12-----|-12-----|--------|--------|--------|
D|-12--12--12--12--12--12--12--12-12-|-12-----|-12-----|--------|--------|--------|
A|-10--10--10--10--10--10--10--10-10-|-10-----|-10-----|--------|--------|--------|
D|-10--10--10--10--10--10--10--10-10-|-10-----|-10-----|--------|--------|--------|


E|--------|--------|--------|--------|--------|--------|--------|--------|--------|
B|--------|--------|--------|--------|--------|--------|--------|--------|--------|
G|--------|--------|--------|--------|--------|--------|--------|--------|--------|
D|--------|--------|--------|--------|--------|--------|--------|--------|--------|
A|--------|--------|--------|--------|--------|--------|--------|--------|--------|
D|--------|--------|--------|--------|--------|--------|--------|--------|--------|


E|--------|--------|--------|--------|--------|--------|--------|--------|--------|
B|--------|--------|--------|--------|--------|--------|--------|--------|--------|
G|--------|--------|--------|--------|--------|--------|--------|--------|--------|
D|--------|--------|--------|--------|--------|--------|--------|--------|--------|
A|--------|--------|--------|--------|--------|--------|--------|--------|--------|
D|--------|--------|--------|--------|--------|--------|--------|--------|--------|


E|--------|--------|--------|--------|--------|--------|--------|--------|--------|
B|--------|--------|--------|--------|--------|--------|--------|--------|--------|
G|--------|--------|--------|--------|--------|--------|--------|--------|--------|
D|--------|--------|--------|--------|--------|--------|--------|--------|--------|
A|--------|--------|--------|--------|--------|--------|--------|--------|--------|
D|--------|--------|--------|--------|--------|--------|--------|--------|--------|


E|--------|--------|--------|--------|--------|--------|--------|--------|--------|
B|--------|--------|--------|--------|--------|--------|--------|--------|--------|
G|--------|--------|--------|--------|--------|--------|--------|--------|--------|
D|--------|--------|--------|--------|--------|--------|--------|--------|--------|
A|--------|--------|--------|--------|--------|--------|--------|--------|--------|
D|--------|--------|--------|--------|--------|--------|--------|--------|--------|


E|--------|--------|--------|--------|--------|--------|--------|--------|--------|
B|--------|--------|--------|--------|--------|--------|--------|--------|--------|
G|--------|--------|--------|--------|--------|--------|--------|--------|--------|
D|--------|--------|--------|--------|--------|--------|--------|--------|--------|
A|--------|--------|--------|--------|--------|--------|--------|--------|--------|
D|--------|--------|--------|--------|--------|--------|--------|--------|--------|


E|--------|-----------------------|---------------------------|--------|-----------------------|
B|--------|-8-------------8-------|------8--------------------|--------|-8-------------8-------|
G|--------|-----7-------------7---|----------7----------------|--------|-----7-------------7---|
D|--------|---------5-------------|-5------------5---5---0----|-0------|---------5-------------|
A|--------|-----------------------|---------------------------|--------|-----------------------|
D|--------|-----------------------|---------------------------|--------|-----------------------|


E|---------------------------|--------|--------|
B|------8--------------------|--------|-8------|
G|----------7----------------|--------|-7------|
D|-5------------5---5---0----|-0------|-5------|
A|---------------------------|--------|--------|
D|---------------------------|--------|--------|





Track 2: Gtr 2 - Lead

E|--------|--------|--------|--------|--------|--------|--------|--------|--------|
B|--------|--------|--------|--------|--------|--------|--------|--------|--------|
G|--------|--------|--------|--------|--------|--------|--------|--------|--------|
D|--------|--------|--------|--------|--------|--------|--------|--------|--------|
A|--------|--------|--------|--------|--------|--------|--------|--------|--------|
D|--------|--------|--------|--------|--------|--------|--------|--------|--------|


E|--------|--------|--------|--------|--------|--------|--------|--------|--------|
B|--------|--------|--------|--------|--------|--------|--------|--------|--------|
G|--------|--------|--------|--------|--------|--------|--------|--------|--------|
D|--------|--------|--------|--------|--------|--------|--------|--------|--------|
A|--------|--------|--------|--------|--------|--------|--------|--------|--------|
D|--------|--------|--------|--------|--------|--------|--------|--------|--------|


E|--------|--------|--------|--------|--------|--------|---------------------------------|
B|--------|--------|--------|--------|--------|--------|---------------------------------|
G|--------|--------|--------|--------|--------|--------|---------------------------------|
D|--------|--------|--------|--------|--------|--------|-14--14--14--12--12--12--16--16--|
A|--------|--------|--------|--------|--------|--------|---------------------------------|
D|--------|--------|--------|--------|--------|--------|---------------------------------|


E|---------------------------------|---------------------------------|---------------------------------|
B|---------------------------------|---------------------------------|---------------------------------|
G|---------------------------------|---------------------------------|---------------------------------|
D|-16--12--12--12--12--12--12--12--|-14--14--14--12--12--12--16--16--|-16--12--12--12--12--12--12--12--|
A|---------------------------------|---------------------------------|---------------------------------|
D|---------------------------------|---------------------------------|---------------------------------|


E|---------------------------------|---------------------------------|---------------------------------|
B|---------------------------------|---------------------------------|---------------------------------|
G|---------------------------------|---------------------------------|---------------------------------|
D|-14--14--14--12--12--12--16--16--|-16--12--12--12--12--12--12--12--|-14--14--14--12--12--12--16--16--|
A|---------------------------------|---------------------------------|---------------------------------|
D|---------------------------------|---------------------------------|---------------------------------|


E|---------------------------------|--------|--------|--------|--------|--------|--------|
B|---------------------------------|--------|--------|--------|--------|--------|--------|
G|---------------------------------|--------|--------|--------|--------|--------|--------|
D|-16--12--12--12--12--12--12--12--|--------|--------|--------|--------|--------|--------|
A|---------------------------------|--------|--------|--------|--------|--------|--------|
D|---------------------------------|--------|--------|--------|--------|--------|--------|


E|--------|--------|---------------------------------|---------------------------------|
B|--------|--------|---------------------------------|---------------------------------|
G|--------|--------|---------------------------------|---------------------------------|
D|--------|--------|-14--14--14--12--12--12--16--16--|-16--12--12--12--12--12--12--12--|
A|--------|--------|---------------------------------|---------------------------------|
D|--------|--------|---------------------------------|---------------------------------|


E|---------------------------------|---------------------------------|---------------------------------|
B|---------------------------------|---------------------------------|---------------------------------|
G|---------------------------------|---------------------------------|---------------------------------|
D|-14--14--14--12--12--12--16--16--|-16--12--12--12--12--12--12--12--|-14--14--14--12--12--12--16--16--|
A|---------------------------------|---------------------------------|---------------------------------|
D|---------------------------------|---------------------------------|---------------------------------|


E|---------------------------------|---------------------------------|---------------------------------|
B|---------------------------------|---------------------------------|---------------------------------|
G|---------------------------------|---------------------------------|---------------------------------|
D|-16--12--12--12--12--12--12--12--|-14--14--14--12--12--12--16--16--|-16--12--12--12--12--12--12--12--|
A|---------------------------------|---------------------------------|---------------------------------|
D|---------------------------------|---------------------------------|---------------------------------|


E|--------|--------|--------|--------|--------|--------|--------|--------|--------|
B|--------|--------|--------|--------|--------|--------|--------|--------|--------|
G|--------|--------|--------|--------|--------|--------|--------|--------|--------|
D|--------|--------|--------|--------|--------|--------|--------|--------|--------|
A|--------|--------|--------|--------|--------|--------|--------|--------|--------|
D|--------|--------|--------|--------|--------|--------|--------|--------|--------|


E|--------|--------|--------|--------|--------|--------|--------|--------|--------|
B|--------|--------|--------|--------|--------|--------|--------|--------|--------|
G|--------|--------|--------|--------|--------|--------|--------|--------|--------|
D|--------|--------|--------|--------|--------|--------|--------|--------|--------|
A|--------|--------|--------|--------|--------|--------|--------|--------|--------|
D|--------|--------|--------|--------|--------|--------|--------|--------|--------|


E|--------|--------|--------|--------|--------|--------|--------|--------|--------|
B|--------|--------|--------|--------|--------|--------|--------|--------|--------|
G|--------|--------|--------|--------|--------|--------|--------|--------|--------|
D|--------|--------|--------|--------|--------|--------|--------|--------|--------|
A|--------|--------|--------|--------|--------|--------|--------|--------|--------|
D|--------|--------|--------|--------|--------|--------|--------|--------|--------|


E|--------|--------|--------|--------|--------|--------|--------|--------|--------|
B|--------|--------|--------|--------|--------|--------|--------|--------|--------|
G|--------|--------|--------|--------|--------|--------|--------|--------|--------|
D|--------|--------|--------|--------|--------|--------|--------|--------|--------|
A|--------|--------|--------|--------|--------|--------|--------|--------|--------|
D|--------|--------|--------|--------|--------|--------|--------|--------|--------|


E|--------|--------|--------|--------|--------|--------|--------|--------|--------|
B|--------|--------|--------|--------|--------|--------|--------|--------|--------|
G|--------|--------|--------|--------|--------|--------|--------|--------|--------|
D|--------|--------|--------|--------|--------|--------|--------|--------|--------|
A|--------|--------|--------|--------|--------|--------|--------|--------|--------|
D|--------|--------|--------|--------|--------|--------|--------|--------|--------|


E|--------|--------|--------|--------|--------|--------|--------|--------|--------|
B|--------|--------|--------|--------|--------|--------|--------|--------|--------|
G|--------|--------|--------|--------|--------|--------|--------|--------|--------|
D|--------|--------|--------|--------|--------|--------|--------|--------|--------|
A|--------|--------|--------|--------|--------|--------|--------|--------|--------|
D|--------|--------|--------|--------|--------|--------|--------|--------|--------|


E|--------|--------|--------|--------|---------------------------------|---------------------------------|
B|--------|--------|--------|--------|---------------------------------|---------------------------------|
G|--------|--------|--------|--------|---------------------------------|---------------------------------|
D|--------|--------|--------|--------|-5---5---5---5---5---5---5---5---|-5---5---5---5---5---5---5---5---|
A|--------|--------|--------|--------|-5---5---5---5---5---5---5---5---|-5---5---5---5---5---5---5---5---|
D|--------|--------|--------|--------|-5---5---5---5---5---5---5---5---|-5---5---5---5---5---5---5---5---|


E|---------------------------------|---------------------------------|---------------------------------|
B|---------------------------------|---------------------------------|---------------------------------|
G|-9---9---9---9---9---9---9---9---|-9---9---9---9---9---9---9---9---|---------------------------------|
D|-9---9---9---9---9---9---9---9---|-9---9---9---9---9---9---9---9---|-5---5---5---5---5---5---5---5---|
A|-7---7---7---7---7---7---7---7---|-7---7---7---7---7---7---7---7---|-5---5---5---5---5---5---5---5---|
D|---------------------------------|---------------------------------|-5---5---5---5---5---5---5---5---|


E|---------------------------------|---------------------------------|---------------------------------|
B|---------------------------------|---------------------------------|---------------------------------|
G|---------------------------------|---------------------------------|---------------------------------|
D|-5---5---5---5---5---5---5---5---|-2---2---2---2---2---2---2---2---|-2---2---2---2---2---2---2---2---|
A|-5---5---5---5---5---5---5---5---|-2---2---2---2---2---2---2---2---|-2---2---2---2---2---2---2---2---|
D|-5---5---5---5---5---5---5---5---|-2---2---2---2---2---2---2---2---|-2---2---2---2---2---2---2---2---|


E|---------------------------------|---------------------------------|---------------------------------|
B|---------------------------------|---------------------------------|---------------------------------|
G|---------------------------------|---------------------------------|-9---9---9---9---9---9---9---9---|
D|-5---5---5---5---5---5---5---5---|-5---5---5---5---5---5---5---5---|-9---9---9---9---9---9---9---9---|
A|-5---5---5---5---5---5---5---5---|-5---5---5---5---5---5---5---5---|-7---7---7---7---7---7---7---7---|
D|-5---5---5---5---5---5---5---5---|-5---5---5---5---5---5---5---5---|---------------------------------|


E|---------------------------------|---------------------------------|---------------------------------|
B|---------------------------------|---------------------------------|---------------------------------|
G|-9---9---9---9---9---9---9---9---|---------------------------------|---------------------------------|
D|-9---9---9---9---9---9---9---9---|-5---5---5---5---5---5---5---5---|-5---5---5---5---5---5---5---5---|
A|-7---7---7---7---7---7---7---7---|-5---5---5---5---5---5---5---5---|-5---5---5---5---5---5---5---5---|
D|---------------------------------|-5---5---5---5---5---5---5---5---|-5---5---5---5---5---5---5---5---|


E|---------------------------------|---------------------------------|---------------------------------|
B|---------------------------------|---------------------------------|-8---10--10--10--8---10--10--10--|
G|---------------------------------|---------------------------------|---------------------------------|
D|-2---2---2---2---2---2---2---2---|-2---2---2---2---2---2---2---2---|-5---7---7---7---5---7---7---7---|
A|-2---2---2---2---2---2---2---2---|-2---2---2---2---2---2---2---2---|---------------------------------|
D|-2---2---2---2---2---2---2---2---|-2---2---2---2---2---2---2---2---|---------------------------------|


E|---------------------------------|---------------------------------|---------------------------------|
B|-8---10--10--10--8---10--10--10--|-5---7---7---7---5---7---7---7---|-5---7---7---7---5---7---7---7---|
G|---------------------------------|---------------------------------|---------------------------------|
D|-5---7---7---7---5---7---7---7---|-2---4---4---4---2---4---4---4---|-2---4---4---4---2---4---4---4---|
A|---------------------------------|---------------------------------|---------------------------------|
D|---------------------------------|---------------------------------|---------------------------------|


E|---------------------------------|---------------------------------|---------------------------------|
B|-8---10--10--10--8---10--10--10--|-8---10--10--10--8---10--10--10--|-5---7---7---7---5---7---7---7---|
G|---------------------------------|---------------------------------|---------------------------------|
D|-5---7---7---7---5---7---7---7---|-5---7---7---7---5---7---7---7---|-2---4---4---4---2---4---4---4---|
A|---------------------------------|---------------------------------|---------------------------------|
D|---------------------------------|---------------------------------|---------------------------------|


E|---------------------------------|---------------------------------|---------------------------------|
B|-5---7---7---7---5---7---7---7---|-8---10--10--10--8---10--10--10--|-8---10--10--10--8---10--10--10--|
G|---------------------------------|---------------------------------|---------------------------------|
D|-2---4---4---4---2---4---4---4---|-5---7---7---7---5---7---7---7---|-5---7---7---7---5---7---7---7---|
A|---------------------------------|---------------------------------|---------------------------------|
D|---------------------------------|---------------------------------|---------------------------------|


E|---------------------------------|---------------------------------|---------------------------------|
B|-5---7---7---7---5---7---7---7---|-5---7---7---7---5---7---7---7---|-8---10--10--10--8---10--10--10--|
G|---------------------------------|---------------------------------|---------------------------------|
D|-2---4---4---4---2---4---4---4---|-2---4---4---4---2---4---4---4---|-5---7---7---7---5---7---7---7---|
A|---------------------------------|---------------------------------|---------------------------------|
D|---------------------------------|---------------------------------|---------------------------------|


E|---------------------------------|---------------------------------|---------------------------------|
B|-8---10--10--10--8---10--10--10--|-5---7---7---7---5---7---7---7---|-5---7---7---7---5---7---7---7---|
G|---------------------------------|---------------------------------|---------------------------------|
D|-5---7---7---7---5---7---7---7---|-2---4---4---4---2---4---4---4---|-2---4---4---4---2---4---4---4---|
A|---------------------------------|---------------------------------|---------------------------------|
D|---------------------------------|---------------------------------|---------------------------------|


E|--------|--------|--------|--------|--------|--------|--------|--------|
B|--------|--------|--------|--------|--------|--------|--------|--------|
G|--------|--------|--------|--------|--------|--------|--------|--------|
D|--------|--------|--------|--------|--------|--------|--------|--------|
A|--------|--------|--------|--------|--------|--------|--------|--------|
D|--------|--------|--------|--------|--------|--------|--------|--------|





Track 3: Gtr 3 - Distorted

E|--------|--------|--------|--------|--------|--------|--------|--------|--------|
B|--------|--------|--------|--------|--------|--------|--------|--------|--------|
G|--------|--------|--------|--------|--------|--------|--------|--------|--------|
D|--------|--------|--------|--------|--------|--------|--------|--------|--------|
A|--------|--------|--------|--------|--------|--------|--------|--------|--------|
D|--------|--------|--------|--------|--------|--------|--------|--------|--------|


E|--------|--------|--------|--------|--------|--------|--------|--------|--------|
B|--------|--------|--------|--------|--------|--------|--------|--------|--------|
G|--------|--------|--------|--------|--------|--------|--------|--------|--------|
D|--------|--------|--------|--------|--------|--------|--------|--------|--------|
A|--------|--------|--------|--------|--------|--------|--------|--------|--------|
D|--------|--------|--------|--------|--------|--------|--------|--------|--------|


E|--------|--------|--------|--------|--------|--------|--------|--------|--------|
B|--------|--------|--------|--------|--------|--------|--------|--------|--------|
G|--------|--------|--------|--------|--------|--------|--------|--------|--------|
D|--------|--------|--------|--------|--------|--------|--------|--------|--------|
A|--------|--------|--------|--------|--------|--------|--------|--------|--------|
D|--------|--------|--------|--------|--------|--------|--------|--------|--------|


E|--------|--------|--------|--------|--------|--------|--------|--------|--------|
B|--------|--------|--------|--------|--------|--------|--------|--------|--------|
G|--------|--------|--------|--------|--------|--------|--------|--------|--------|
D|--------|--------|--------|--------|--------|--------|--------|--------|--------|
A|--------|--------|--------|--------|--------|--------|--------|--------|--------|
D|--------|--------|--------|--------|--------|--------|--------|--------|--------|


E|--------|--------|--------|--------|--------|--------|--------|--------|--------|
B|--------|--------|--------|--------|--------|--------|--------|--------|--------|
G|--------|--------|--------|--------|--------|--------|--------|--------|--------|
D|--------|--------|--------|--------|--------|--------|--------|--------|--------|
A|--------|--------|--------|--------|--------|--------|--------|--------|--------|
D|--------|--------|--------|--------|--------|--------|--------|--------|--------|


E|--------|--------|--------|--------|--------|--------|--------|--------|--------|
B|--------|--------|--------|--------|--------|--------|--------|--------|--------|
G|--------|--------|--------|--------|--------|--------|--------|--------|--------|
D|--------|--------|--------|--------|--------|--------|--------|--------|--------|
A|--------|--------|--------|--------|--------|--------|--------|--------|--------|
D|--------|--------|--------|--------|--------|--------|--------|--------|--------|


E|--------|--------|--------|--------|--------|--------|--------|--------|--------|
B|--------|--------|--------|--------|--------|--------|--------|--------|--------|
G|--------|--------|--------|--------|--------|--------|--------|--------|--------|
D|--------|--------|--------|--------|--------|--------|--------|--------|--------|
A|--------|--------|--------|--------|--------|--------|--------|--------|--------|
D|--------|--------|--------|--------|--------|--------|--------|--------|--------|


E|--------|--------|--------|--------|--------|--------|--------|--------|--------|
B|--------|--------|--------|--------|--------|--------|--------|--------|--------|
G|--------|--------|--------|--------|--------|--------|--------|--------|--------|
D|--------|--------|--------|--------|--------|--------|--------|--------|--------|
A|--------|--------|--------|--------|--------|--------|--------|--------|--------|
D|--------|--------|--------|--------|--------|--------|--------|--------|--------|


E|--------|--------|--------|--------|--------|--------|--------|--------|--------|
B|--------|--------|--------|--------|--------|--------|--------|--------|--------|
G|--------|--------|--------|--------|--------|--------|--------|--------|--------|
D|--------|--------|--------|--------|--------|--------|--------|--------|--------|
A|--------|--------|--------|--------|--------|--------|--------|--------|--------|
D|--------|--------|--------|--------|--------|--------|--------|--------|--------|


E|--------|--------|--------|--------|--------|--------|--------|--------|--------|
B|--------|--------|--------|--------|--------|--------|--------|--------|--------|
G|--------|--------|--------|--------|--------|--------|--------|--------|--------|
D|--------|--------|--------|--------|--------|--------|--------|--------|--------|
A|--------|--------|--------|--------|--------|--------|--------|--------|--------|
D|--------|--------|--------|--------|--------|--------|--------|--------|--------|


E|-------------------------------------------------|-------------------------------------------------|
B|-------------------------------------------------|-------------------------------------------------|
G|-12-12-12-12-12-12-12-12-12-12-12-12-12-12-12-12-|-12-12-12-12-12-12-12-12-12-12-12-12-12-12-12-12-|
D|-12-12-12-12-12-12-12-12-12-12-12-12-12-12-12-12-|-12-12-12-12-12-12-12-12-12-12-12-12-12-12-12-12-|
A|-10-10-10-10-10-10-10-10-10-10-10-10-10-10-10-10-|-9--9--9--9--9--9--9--9--9--9--9--9--9--9--9--9--|
D|-------------------------------------------------|-------------------------------------------------|


E|-------------------------------------------------|-------------------------------------------------|
B|-------------------------------------------------|-------------------------------------------------|
G|-12-12-12-12-12-12-12-12-12-12-12-12-12-12-12-12-|-12-12-12-12-12-12-12-12-12-12-12-12-12-12-12-12-|
D|-12-12-12-12-12-12-12-12-12-12-12-12-12-12-12-12-|-12-12-12-12-12-12-12-12-12-12-12-12-12-12-12-12-|
A|-9--9--9--9--9--9--9--9--9--9--9--9--9--9--9--9--|-10-10-10-10-10-10-10-10-10-10-10-10-10-10-10-10-|
D|-9--9--9--9--9--9--9--9--9--9--9--9--9--9--9--9--|-10-10-10-10-10-10-10-10-10-10-10-10-10-10-10-10-|


E|-------------------------------------------------|-------------------------------------------------|
B|-------------------------------------------------|-------------------------------------------------|
G|-12-12-12-12-12-12-12-12-12-12-12-12-12-12-12-12-|-12-12-12-12-12-12-12-12-12-12-12-12-12-12-12-12-|
D|-12-12-12-12-12-12-12-12-12-12-12-12-12-12-12-12-|-12-12-12-12-12-12-12-12-12-12-12-12-12-12-12-12-|
A|-10-10-10-10-10-10-10-10-10-10-10-10-10-10-10-10-|-9--9--9--9--9--9--9--9--9--9--9--9--9--9--9--9--|
D|-------------------------------------------------|-------------------------------------------------|


E|-------------------------------------------------|-------------------------------------------------|
B|-------------------------------------------------|-------------------------------------------------|
G|-12-12-12-12-12-12-12-12-12-12-12-12-12-12-12-12-|-12-12-12-12-12-12-12-12-12-12-12-12-12-12-12-12-|
D|-12-12-12-12-12-12-12-12-12-12-12-12-12-12-12-12-|-12-12-12-12-12-12-12-12-12-12-12-12-12-12-12-12-|
A|-9--9--9--9--9--9--9--9--9--9--9--9--9--9--9--9--|-10-10-10-10-10-10-10-10-10-10-10-10-10-10-10-10-|
D|-9--9--9--9--9--9--9--9--9--9--9--9--9--9--9--9--|-10-10-10-10-10-10-10-10-10-10-10-10-10-10-10-10-|


E|-------------------------------------------------|-------------------------------------------------|
B|-------------------------------------------------|-------------------------------------------------|
G|-12-12-12-12-12-12-12-12-12-12-12-12-12-12-12-12-|-12-12-12-12-12-12-12-12-12-12-12-12-12-12-12-12-|
D|-12-12-12-12-12-12-12-12-12-12-12-12-12-12-12-12-|-12-12-12-12-12-12-12-12-12-12-12-12-12-12-12-12-|
A|-10-10-10-10-10-10-10-10-10-10-10-10-10-10-10-10-|-9--9--9--9--9--9--9--9--9--9--9--9--9--9--9--9--|
D|-------------------------------------------------|-------------------------------------------------|


E|-------------------------------------------------|-------------------------------------------------|
B|-------------------------------------------------|-------------------------------------------------|
G|-12-12-12-12-12-12-12-12-12-12-12-12-12-12-12-12-|-12-12-12-12-12-12-12-12-12-12-12-12-12-12-12-12-|
D|-12-12-12-12-12-12-12-12-12-12-12-12-12-12-12-12-|-12-12-12-12-12-12-12-12-12-12-12-12-12-12-12-12-|
A|-9--9--9--9--9--9--9--9--9--9--9--9--9--9--9--9--|-10-10-10-10-10-10-10-10-10-10-10-10-10-10-10-10-|
D|-9--9--9--9--9--9--9--9--9--9--9--9--9--9--9--9--|-10-10-10-10-10-10-10-10-10-10-10-10-10-10-10-10-|


E|-------------------------------------------------|-------------------------------------------------|
B|-------------------------------------------------|-------------------------------------------------|
G|-12-12-12-12-12-12-12-12-12-12-12-12-12-12-12-12-|-12-12-12-12-12-12-12-12-12-12-12-12-12-12-12-12-|
D|-12-12-12-12-12-12-12-12-12-12-12-12-12-12-12-12-|-12-12-12-12-12-12-12-12-12-12-12-12-12-12-12-12-|
A|-10-10-10-10-10-10-10-10-10-10-10-10-10-10-10-10-|-9--9--9--9--9--9--9--9--9--9--9--9--9--9--9--9--|
D|-------------------------------------------------|-------------------------------------------------|


E|-------------------------------------------------|-------------------------------------------------|
B|-------------------------------------------------|-------------------------------------------------|
G|-12-12-12-12-12-12-12-12-12-12-12-12-12-12-12-12-|-12-12-12-12-12-12-12-12-12-12-12-12-12-12-12-12-|
D|-12-12-12-12-12-12-12-12-12-12-12-12-12-12-12-12-|-12-12-12-12-12-12-12-12-12-12-12-12-12-12-12-12-|
A|-9--9--9--9--9--9--9--9--9--9--9--9--9--9--9--9--|-10-10-10-10-10-10-10-10-10-10-10-10-10-10-10-10-|
D|-9--9--9--9--9--9--9--9--9--9--9--9--9--9--9--9--|-10-10-10-10-10-10-10-10-10-10-10-10-10-10-10-10-|


E|--------|--------|--------|--------|--------|--------|--------|--------|--------|
B|--------|--------|--------|--------|--------|--------|--------|--------|--------|
G|--------|--------|--------|--------|--------|--------|--------|--------|--------|
D|--------|--------|--------|--------|--------|--------|--------|--------|--------|
A|--------|--------|--------|--------|--------|--------|--------|--------|--------|
D|--------|--------|--------|--------|--------|--------|--------|--------|--------|


E|--------|--------|--------|--------|--------|--------|--------|--------|--------|
B|--------|--------|--------|--------|--------|--------|--------|--------|--------|
G|--------|--------|--------|--------|--------|--------|--------|--------|--------|
D|--------|--------|--------|--------|--------|--------|--------|--------|--------|
A|--------|--------|--------|--------|--------|--------|--------|--------|--------|
D|--------|--------|--------|--------|--------|--------|--------|--------|--------|


E|--------|--------|--------|--------|--------|--------|--------|--------|--------|
B|--------|--------|--------|--------|--------|--------|--------|--------|--------|
G|--------|--------|--------|--------|--------|--------|--------|--------|--------|
D|--------|--------|--------|--------|--------|--------|--------|--------|--------|
A|--------|--------|--------|--------|--------|--------|--------|--------|--------|
D|--------|--------|--------|--------|--------|--------|--------|--------|--------|


E|--------|--------|--------|--------|--------|--------|--------|--------|--------|
B|--------|--------|--------|--------|--------|--------|--------|--------|--------|
G|--------|--------|--------|--------|--------|--------|--------|--------|--------|
D|--------|--------|--------|--------|--------|--------|--------|--------|--------|
A|--------|--------|--------|--------|--------|--------|--------|--------|--------|
D|--------|--------|--------|--------|--------|--------|--------|--------|--------|


E|--------|--------|--------|--------|
B|--------|--------|--------|--------|
G|--------|--------|--------|--------|
D|--------|--------|--------|--------|
A|--------|--------|--------|--------|
D|--------|--------|--------|--------|





Track 4: Bass

G|--------|--------|--------|--------|--------|--------|--------|--------|--------|
D|--------|--------|--------|--------|--------|--------|--------|--------|--------|
A|--------|--------|--------|--------|--------|--------|--------|--------|--------|
D|--------|--------|--------|--------|--------|--------|--------|--------|--------|


G|--------|--------|--------|--------|--------|--------|--------|--------|--------|
D|--------|--------|--------|--------|--------|--------|--------|--------|--------|
A|--------|--------|--------|--------|--------|--------|--------|--------|--------|
D|--------|--------|--------|--------|--------|--------|--------|--------|--------|


G|--------|--------|--------|--------|--------|--------|--------|--------|--------|
D|--------|--------|--------|--------|--------|--------|--------|--------|--------|
A|--------|--------|--------|--------|--------|--------|--------|--------|--------|
D|--------|--------|--------|--------|--------|--------|--------|--------|--------|


G|--------|--------|--------|--------|--------|--------|--------|--------|--------|
D|--------|--------|--------|--------|--------|--------|--------|--------|--------|
A|--------|--------|--------|--------|--------|--------|--------|--------|--------|
D|--------|--------|--------|--------|--------|--------|--------|--------|--------|


G|--------|--------|--------|--------|--------|--------|--------|--------|--------|
D|--------|--------|--------|--------|--------|--------|--------|--------|--------|
A|--------|--------|--------|--------|--------|--------|--------|--------|--------|
D|--------|--------|--------|--------|--------|--------|--------|--------|--------|


G|--------|--------|--------|--------|--------|--------|--------|--------|--------|
D|--------|--------|--------|--------|--------|--------|--------|--------|--------|
A|--------|--------|--------|--------|--------|--------|--------|--------|--------|
D|--------|--------|--------|--------|--------|--------|--------|--------|--------|


G|--------|--------|--------|--------|--------|--------|--------|--------|--------|
D|--------|--------|--------|--------|--------|--------|--------|--------|--------|
A|--------|--------|--------|--------|--------|--------|--------|--------|--------|
D|--------|--------|--------|--------|--------|--------|--------|--------|--------|


G|--------|--------|--------|--------|--------|--------|--------|--------|--------|
D|--------|--------|--------|--------|--------|--------|--------|--------|--------|
A|--------|--------|--------|--------|--------|--------|--------|--------|--------|
D|--------|--------|--------|--------|--------|--------|--------|--------|--------|


G|--------|--------|--------|--------|--------|--------|--------|--------|---------------------------------|
D|--------|--------|--------|--------|--------|--------|--------|--------|---------------------------------|
A|--------|--------|--------|--------|--------|--------|--------|--------|-10--10--10--10--10--10--10--9---|
D|--------|--------|--------|--------|--------|--------|--------|--------|---------------------------------|


G|---------------------------------|---------------------------------|---------------------------------|
D|---------------------------------|---------------------------------|---------------------------------|
A|-9---9---9---9---9---9---9-------|---------------------------------|---------------------------------|
D|-----------------------------9---|-9---9---9---9---9---9---9---10--|-10--10--10--10--10--10--10--10--|


G|----------------|------------------|-------------------------------------------------|
D|----------------|------------------|-------------------------------------------------|
A|----------------|------------10-10-|-10-10-10-10-10-10-10-10-10-10-10-10-10-10-9--9--|
D|------------10--|------------------|-------------------------------------------------|


G|-------------------------------------------------|-------------------------------------------------|
D|-------------------------------------------------|-------------------------------------------------|
A|-9--9--9--9--9--9--9--9--9--9--9--9--9--9--------|-------------------------------------------------|
D|-------------------------------------------9--9--|-9--9--9--9--9--9--9--9--9--9--9--9--9--9--10-10-|


G|-------------------------------------------------|-------------------------------------------------|
D|-------------------------------------------------|-------------------------------------------------|
A|-------------------------------------------10-10-|-10-10-10-10-10-10-10-10-10-10-10-10-10-10-9--9--|
D|-10-10-10-10-10-10-10-10-10-10-10-10-10-10-------|-------------------------------------------------|


G|-------------------------------------------------|-------------------------------------------------|
D|-------------------------------------------------|-------------------------------------------------|
A|-9--9--9--9--9--9--9--9--9--9--9--9--9--9--------|-------------------------------------------------|
D|-------------------------------------------9--9--|-9--9--9--9--9--9--9--9--9--9--9--9--9--9--10-10-|


G|-------------------------------------------------|-------------------------------------------------|
D|-------------------------------------------------|-------------------------------------------------|
A|-------------------------------------------10-10-|-10-10-10-10-10-10-10-10-10-10-10-10-10-10-9--9--|
D|-10-10-10-10-10-10-10-10-10-10-10-10-10-10-------|-------------------------------------------------|


G|-------------------------------------------------|-------------------------------------------------|
D|-------------------------------------------------|-------------------------------------------------|
A|-9--9--9--9--9--9--9--9--9--9--9--9--9--9--------|-------------------------------------------------|
D|-------------------------------------------9--9--|-9--9--9--9--9--9--9--9--9--9--9--9--9--9--10-10-|


G|-------------------------------------------------|-------------------------------------------------|
D|-------------------------------------------------|-------------------------------------------------|
A|-------------------------------------------10-10-|-10-10-10-10-10-10-10-10-10-10-10-10-10-10-9--9--|
D|-10-10-10-10-10-10-10-10-10-10-10-10-10-10-------|-------------------------------------------------|


G|-------------------------------------------------|-------------------------------------------------|
D|-------------------------------------------------|-------------------------------------------------|
A|-9--9--9--9--9--9--9--9--9--9--9--9--9--9--------|-------------------------------------------------|
D|-------------------------------------------9--9--|-9--9--9--9--9--9--9--9--9--9--9--9--9--9--10-10-|


G|-----------------------------------------------|---------------------------------|
D|-----------------------------------------------|---------------------------------|
A|-----------------------------------------------|---------------------------------|
D|-10-10-10-10-10-10-10-10-10-10-10-10-10-10-5---|-5---5---5---5---5---5---5---5---|


G|---------------------------------|---------------------------------|---------------------------------|
D|---------------------------------|---------------------------------|---------------------------------|
A|-----------------------------7---|-7---7---7---7---7---7---7---7---|-7---7---7---7---7---7---7-------|
D|-5---5---5---5---5---5---5-------|---------------------------------|-----------------------------5---|


G|---------------------------------|---------------------------------|---------------------------------|
D|---------------------------------|---------------------------------|---------------------------------|
A|---------------------------------|---------------------------------|---------------------------------|
D|-5---5---5---5---5---5---5---5---|-5---5---5---5---5---5---5---2---|-2---2---2---2---2---2---2---2---|


G|---------------------------------|---------------------------------|---------------------------------|
D|---------------------------------|---------------------------------|---------------------------------|
A|---------------------------------|---------------------------------|-----------------------------7---|
D|-2---2---2---2---2---2---2---5---|-5---5---5---5---5---5---5---5---|-5---5---5---5---5---5---5-------|


G|---------------------------------|---------------------------------|---------------------------------|
D|---------------------------------|---------------------------------|---------------------------------|
A|-7---7---7---7---7---7---7---7---|-7---7---7---7---7---7---7-------|---------------------------------|
D|---------------------------------|-----------------------------5---|-5---5---5---5---5---5---5---5---|


G|---------------------------------|---------------------------------|---------------------------------|
D|---------------------------------|---------------------------------|---------------------------------|
A|---------------------------------|---------------------------------|---------------------------------|
D|-5---5---5---5---5---5---5---2---|-2---2---2---2---2---2---2---2---|-2---2---2---2---2---2---2---5---|


G|---------------------------------|---------------------------------|---------------------------------|
D|---------------------------------|---------------------------------|---------------------------------|
A|---------------------------------|-----------------------------7---|-7---7---7---7---7---7---7---7---|
D|-5---5---5---5---5---5---5---5---|-5---5---5---5---5---5---5-------|---------------------------------|


G|---------------------------------|---------------------------------|---------------------------------|
D|---------------------------------|---------------------------------|---------------------------------|
A|-7---7---7---7---7---7---7-------|---------------------------------|---------------------------------|
D|-----------------------------5---|-5---5---5---5---5---5---5---5---|-5---5---5---5---5---5---5---2---|


G|---------------------------------|---------------------------------|---------------------------------|
D|---------------------------------|---------------------------------|---------------------------------|
A|---------------------------------|---------------------------------|---------------------------------|
D|-2---2---2---2---2---2---2---2---|-2---2---2---2---2---2---2---5---|-5---5---5---5---5---5---5---5---|


G|---------------------------------|---------------------------------|---------------------------------|
D|---------------------------------|---------------------------------|---------------------------------|
A|-----------------------------7---|-7---7---7---7---7---7---7---7---|-7---7---7---7---7---7---7-------|
D|-5---5---5---5---5---5---5-------|---------------------------------|-----------------------------5---|


G|---------------------------------|---------------------------------|---------------------------------|
D|---------------------------------|---------------------------------|---------------------------------|
A|---------------------------------|---------------------------------|---------------------------------|
D|-5---5---5---5---5---5---5---5---|-5---5---5---5---5---5---5---2---|-2---2---2---2---2---2---2---2---|


G|---------------------------------|----------------|----------------|----------------|
D|---------------------------------|----------------|----------------|----------------|
A|---------------------------------|----------------|----------------|----------------|
D|-2---2---2---2---2---2---2---5---|------------5---|------------5---|------------5---|


G|----------------|----------------|----------------|----------------|--------|--------|
D|----------------|----------------|----------------|----------------|--------|--------|
A|----------------|----------------|----------------|----------------|--------|--------|
D|------------5---|------------5---|------------5---|------------5---|--------|--------|


G|--------|--------|--------|
D|--------|--------|--------|
A|--------|--------|--------|
D|--------|--------|--------|