Menu:

 

Search:

 

hell is for heroes - cut down:

 



Title: Cut Down
Artist: 
Album: The Neon Handshake
Author: Will McGonagle, Pelle Henricsson, Ton O'Donoghue, Joe Birch, Justin Schlosberg, Eskil Lovstrom and James Finlay


Track 1: Gtr 1 - Lead

E|--------|-------------------------------------|-------------------------------------|
B|--------|-------------------------------------|-------------------------------------|
G|--------|-------------------------------------|-------------------------------------|
D|--------|-0---0--0--0----0---9---0--5---5--7--|-0---0--0--0----0---9---0--5---5--7--|
A|--------|-0---0--0--0----0---9---0--5---5--7--|-0---0--0--0----0---9---0--5---5--7--|
D|--------|-0---0--0--0----0---9---0--5---5--7--|-0---0--0--0----0---9---0--5---5--7--|


E|-------------------------------------|-------------------------------------|-------------------------------------------------|
B|-------------------------------------|-------------------------------------|-------------------------------------------------|
G|-------------------------------------|-------------------------------------|-6--6--6--6--6--6--6--6--6--6--6--6--6--6--6--6--|
D|-0---0--0--0----0---9---0--5---5--7--|-0---0--0--0----0---9---0--5---5--7--|-------------------------------------------------|
A|-0---0--0--0----0---9---0--5---5--7--|-0---0--0--0----0---9---0--5---5--7--|-4--4--4--4--4--4--4--4--4--4--4--4--4--4--4--4--|
D|-0---0--0--0----0---9---0--5---5--7--|-0---0--0--0----0---9---0--5---5--7--|-------------------------------------------------|


E|-------------------------------------------------|-------------------------------------------------|
B|-------------------------------------------------|-------------------------------------------------|
G|-7--7--7--7--7--7--7--7--7--7--7--7--7--7--7--7--|-9--9--9--9--9--9--9--9--9--9--9--9--9--9--9--9--|
D|-------------------------------------------------|-------------------------------------------------|
A|-5--5--5--5--5--5--5--5--5--5--5--5--5--5--5--5--|-7--7--7--7--7--7--7--7--7--7--7--7--7--7--7--7--|
D|-------------------------------------------------|-------------------------------------------------|


E|-------------------------------------------------|-------------------------------------|
B|-------------------------------------------------|-------------------------------------|
G|-11-11-11-11-12-12-12-12-14-14-14-14-12-12-12-12-|-------------------------------------|
D|-------------------------------------------------|-0---0--0--0----0---9---0--5---5--7--|
A|-9--9--9--9--10-10-10-10-12-12-12-12-10-10-10-10-|-0---0--0--0----0---9---0--5---5--7--|
D|-------------------------------------------------|-0---0--0--0----0---9---0--5---5--7--|


E|-------------------------------------|-------------------------------------------------|
B|-------------------------------------|-------------------------------------------------|
G|-------------------------------------|-6--6--6--6--6--6--6--6--6--6--6--6--6--6--6--6--|
D|-0---0--0--0----0---9---0--5---5--7--|-------------------------------------------------|
A|-0---0--0--0----0---9---0--5---5--7--|-4--4--4--4--4--4--4--4--4--4--4--4--4--4--4--4--|
D|-0---0--0--0----0---9---0--5---5--7--|-------------------------------------------------|


E|-------------------------------------------------|-------------------------------------------------|
B|-------------------------------------------------|-------------------------------------------------|
G|-7--7--7--7--7--7--7--7--7--7--7--7--7--7--7--7--|-9--9--9--9--9--9--9--9--9--9--9--9--9--9--9--9--|
D|-------------------------------------------------|-------------------------------------------------|
A|-5--5--5--5--5--5--5--5--5--5--5--5--5--5--5--5--|-7--7--7--7--7--7--7--7--7--7--7--7--7--7--7--7--|
D|-------------------------------------------------|-------------------------------------------------|


E|-------------------------------------------------|---------------------------------------------|
B|-------------------------------------------------|---------------------------------------------|
G|-11-11-11-11-12-12-12-12-14-14-14-14-12-12-12-12-|-6---6--6--6--6--6--6--7---7--7--7--7--7--7--|
D|-------------------------------------------------|---------------------------------------------|
A|-9--9--9--9--10-10-10-10-12-12-12-12-10-10-10-10-|-4---4--4--4--4--4--4--5---5--5--5--5--5--5--|
D|-------------------------------------------------|---------------------------------------------|


E|---------------------------------------------|---------------------------------------------|
B|---------------------------------------------|---------------------------------------------|
G|-7---7--7--7--7--7--7--9---9--9--9--9--9--9--|-6---6--6--6--6--6--6--4---4--4--4--4--4--4--|
D|---------------------------------------------|---------------------------------------------|
A|-5---5--5--5--5--5--5--7---7--7--7--7--7--7--|-4---4--4--4--4--4--4--2---2--2--2--2--2--2--|
D|---------------------------------------------|---------------------------------------------|


E|-----------------------------------------------|---------------------------------------------|
B|-----------------------------------------------|---------------------------------------------|
G|-7---7--7--7--7--7--7--9--9--9--9--7--7--7--7--|-6---6--6--6--6--6--6--7---7--7--7--7--7--7--|
D|-----------------------------------------------|---------------------------------------------|
A|-5---5--5--5--5--5--5--7--7--7--7--5--5--5--5--|-4---4--4--4--4--4--4--5---5--5--5--5--5--5--|
D|-----------------------------------------------|---------------------------------------------|


E|---------------------------------------------|---------------------------------------------|
B|---------------------------------------------|---------------------------------------------|
G|-7---7--7--7--7--7--7--9---9--9--9--9--9--9--|-6---6--6--6--6--6--6--4---4--4--4--4--4--4--|
D|---------------------------------------------|---------------------------------------------|
A|-5---5--5--5--5--5--5--7---7--7--7--7--7--7--|-4---4--4--4--4--4--4--2---2--2--2--2--2--2--|
D|---------------------------------------------|---------------------------------------------|


E|-----------------------------------------------|-------------------------------------|
B|-----------------------------------------------|-------------------------------------|
G|-7---7--7--7--7--7--7--9--9--9--9--7--7--7--7--|-------------------------------------|
D|-----------------------------------------------|-0---0--0--0----0---9---0--5---5--7--|
A|-5---5--5--5--5--5--5--7--7--7--7--5--5--5--5--|-0---0--0--0----0---9---0--5---5--7--|
D|-----------------------------------------------|-0---0--0--0----0---9---0--5---5--7--|


E|-------------------------------------|-------------------------------------|-------------------------------------|
B|-------------------------------------|-------------------------------------|-------------------------------------|
G|-------------------------------------|-------------------------------------|-------------------------------------|
D|-0---0--0--0----0---9---0--5---5--7--|-0---0--0--0----0---9---0--5---5--7--|-0---0--0--0----0---9---0--5---5--7--|
A|-0---0--0--0----0---9---0--5---5--7--|-0---0--0--0----0---9---0--5---5--7--|-0---0--0--0----0---9---0--5---5--7--|
D|-0---0--0--0----0---9---0--5---5--7--|-0---0--0--0----0---9---0--5---5--7--|-0---0--0--0----0---9---0--5---5--7--|


E|-------------------------------------------------|-------------------------------------------------|
B|-------------------------------------------------|-------------------------------------------------|
G|-6--6--6--6--6--6--6--6--6--6--6--6--6--6--6--6--|-7--7--7--7--7--7--7--7--7--7--7--7--7--7--7--7--|
D|-------------------------------------------------|-------------------------------------------------|
A|-4--4--4--4--4--4--4--4--4--4--4--4--4--4--4--4--|-5--5--5--5--5--5--5--5--5--5--5--5--5--5--5--5--|
D|-------------------------------------------------|-------------------------------------------------|


E|-------------------------------------------------|-------------------------------------------------|
B|-------------------------------------------------|-------------------------------------------------|
G|-9--9--9--9--9--9--9--9--9--9--9--9--9--9--9--9--|-11-11-11-11-12-12-12-12-14-14-14-14-12-12-12-12-|
D|-------------------------------------------------|-------------------------------------------------|
A|-7--7--7--7--7--7--7--7--7--7--7--7--7--7--7--7--|-9--9--9--9--10-10-10-10-12-12-12-12-10-10-10-10-|
D|-------------------------------------------------|-------------------------------------------------|


E|---------------------------------------------|---------------------------------------------|
B|---------------------------------------------|---------------------------------------------|
G|-6---6--6--6--6--6--6--7---7--7--7--7--7--7--|-7---7--7--7--7--7--7--9---9--9--9--9--9--9--|
D|---------------------------------------------|---------------------------------------------|
A|-4---4--4--4--4--4--4--5---5--5--5--5--5--5--|-5---5--5--5--5--5--5--7---7--7--7--7--7--7--|
D|---------------------------------------------|---------------------------------------------|


E|---------------------------------------------|-----------------------------------------------|
B|---------------------------------------------|-----------------------------------------------|
G|-6---6--6--6--6--6--6--4---4--4--4--4--4--4--|-7---7--7--7--7--7--7--9--9--9--9--7--7--7--7--|
D|---------------------------------------------|-----------------------------------------------|
A|-4---4--4--4--4--4--4--2---2--2--2--2--2--2--|-5---5--5--5--5--5--5--7--7--7--7--5--5--5--5--|
D|---------------------------------------------|-----------------------------------------------|


E|---------------------------------------------|---------------------------------------------|
B|---------------------------------------------|---------------------------------------------|
G|-6---6--6--6--6--6--6--7---7--7--7--7--7--7--|-7---7--7--7--7--7--7--9---9--9--9--9--9--9--|
D|---------------------------------------------|---------------------------------------------|
A|-4---4--4--4--4--4--4--5---5--5--5--5--5--5--|-5---5--5--5--5--5--5--7---7--7--7--7--7--7--|
D|---------------------------------------------|---------------------------------------------|


E|---------------------------------------------|-----------------------------------------------|
B|---------------------------------------------|-----------------------------------------------|
G|-6---6--6--6--6--6--6--4---4--4--4--4--4--4--|-7---7--7--7--7--7--7--9--9--9--9--7--7--7--7--|
D|---------------------------------------------|-----------------------------------------------|
A|-4---4--4--4--4--4--4--2---2--2--2--2--2--2--|-5---5--5--5--5--5--5--7--7--7--7--5--5--5--5--|
D|---------------------------------------------|-----------------------------------------------|


E|-------------------------------------|-------------------------------------|-------------------------------------|
B|-------------------------------------|-------------------------------------|-------------------------------------|
G|-9--9---11-11-11---9--9---11-11-11---|-9--9---9--9--9----9--9---9--9--9----|-9--9---11-11-11---9--9---11-11-11---|
D|-------------------------------------|-------------------------------------|-------------------------------------|
A|-7--7---9--9--9----7--7---9--9--9----|-7--7---7--7--7----7--7---7--7--7----|-7--7---9--9--9----7--7---9--9--9----|
D|-------------------------------------|-------------------------------------|-------------------------------------|


E|-------------------------------------|-----------------|-----------------|-----------------|
B|-------------------------------------|-----------------|-----------------|-----------------|
G|-9--9---9--9--9----9--9---9--9--9----|-7-----7----7----|-6-----6----6----|-7-----7----7----|
D|-------------------------------------|-----------------|-----------------|-----------------|
A|-7--7---7--7--7----7--7---7--7--7----|-5-----5----5----|-4-----4----4----|-5-----5----5----|
D|-------------------------------------|-----------------|-----------------|-----------------|


E|-----------------|-------------------------------------|-------------------------------------|
B|-----------------|-------------------------------------|-------------------------------------|
G|-4-----4----4----|-7--7---7--7--7----7--7---7--7--7----|-6--6---6--6--6----6--6---6--6--6----|
D|-----------------|-------------------------------------|-------------------------------------|
A|-2-----2----2----|-5--5---5--5--5----5--5---5--5--5----|-4--4---4--4--4----4--4---4--4--4----|
D|-----------------|-------------------------------------|-------------------------------------|


E|-------------------------------------|-------------------------------------|-------------------------------------|
B|-------------------------------------|-------------------------------------|-------------------------------------|
G|-7--7---7--7--7----7--7---7--7--7----|-4--4---4--4--4----4--4---4--4--4----|-------------------------------------|
D|-------------------------------------|-------------------------------------|-0---0--0--0----0---9---0--5---5--7--|
A|-5--5---5--5--5----5--5---5--5--5----|-2--2---2--2--2----2--2---2--2--2----|-0---0--0--0----0---9---0--5---5--7--|
D|-------------------------------------|-------------------------------------|-0---0--0--0----0---9---0--5---5--7--|


E|-------------------------------------|-------------------------------------|-------------------------------------|
B|-------------------------------------|-------------------------------------|-------------------------------------|
G|-------------------------------------|-------------------------------------|-------------------------------------|
D|-0---0--0--0----0---9---0--5---5--7--|-0---0--0--0----0---9---0--5---5--7--|-0---0--0--0----0---9---0--5---5--7--|
A|-0---0--0--0----0---9---0--5---5--7--|-0---0--0--0----0---9---0--5---5--7--|-0---0--0--0----0---9---0--5---5--7--|
D|-0---0--0--0----0---9---0--5---5--7--|-0---0--0--0----0---9---0--5---5--7--|-0---0--0--0----0---9---0--5---5--7--|


E|----------------------------|----------------------------|----------------------------|
B|----------------------------|----------------------------|----------------------------|
G|-11---11---11-------4---4---|-11---11---11-------4---4---|-11---11---11-------4---4---|
D|----------------------------|----------------------------|----------------------------|
A|-9----9----9--------2---2---|-9----9----9--------2---2---|-9----9----9--------2---2---|
D|----------------------------|----------------------------|----------------------------|


E|----------------------------|-----------------|--------|--------|--------|
B|----------------------------|-----------------|--------|--------|--------|
G|-11---11---11-------4---4---|-11----11---11---|-11-----|-11-----|-11-----|
D|----------------------------|-----------------|--------|--------|--------|
A|-9----9----9--------2---2---|-9-----9----9----|-9------|-9------|-9------|
D|----------------------------|-0-----0----0----|-0------|-0------|-0------|





Track 2: Bass

G|--------|-------------------------------------|-------------------------------------|
D|--------|-------------------------------------|-------------------------------------|
A|--------|-------------------------------------|-------------------------------------|
D|--------|-0---0--0--0----0---9---0--5---5--7--|-0---0--0--0----0---9---0--5---5--7--|


G|-------------------------------------|-------------------------------------|-------------------------------------------------|
D|-------------------------------------|-------------------------------------|-------------------------------------------------|
A|-------------------------------------|-------------------------------------|-------------------------------------------------|
D|-0---0--0--0----0---9---0--5---5--7--|-0---0--0--0----0---9---0--5---5--7--|-7--7--7--7--7--7--7--7--7--7--7--7--7--7--7--7--|


G|-------------------------------------------------|-------------------------------------------------|
D|-------------------------------------------------|-------------------------------------------------|
A|-------------------------------------------------|-------------------------------------------------|
D|-5--5--5--5--5--5--5--5--5--5--5--5--5--5--5--5--|-7--7--7--7--7--7--7--7--7--7--7--7--7--7--7--7--|


G|-------------------------------------------------|-------------------------------------|
D|-------------------------------------------------|-------------------------------------|
A|-------------------------------------------------|-------------------------------------|
D|-5--5--5--5--5--5--5--5--5--5--5--5--5--5--5--5--|-0---0--0--0----0---9---0--5---5--7--|


G|-------------------------------------|-------------------------------------------------|
D|-------------------------------------|-------------------------------------------------|
A|-------------------------------------|-------------------------------------------------|
D|-0---0--0--0----0---9---0--5---5--7--|-7--7--7--7--7--7--7--7--7--7--7--7--7--7--7--7--|


G|-------------------------------------------------|-------------------------------------------------|
D|-------------------------------------------------|-------------------------------------------------|
A|-------------------------------------------------|-------------------------------------------------|
D|-5--5--5--5--5--5--5--5--5--5--5--5--5--5--5--5--|-7--7--7--7--7--7--7--7--7--7--7--7--7--7--7--7--|


G|-------------------------------------------------|---------------------------------------------|
D|-------------------------------------------------|---------------------------------------------|
A|-------------------------------------------------|---------------------------------------------|
D|-5--5--5--5--5--5--5--5--5--5--5--5--5--5--5--5--|-4---4--4--4--4--4--4--5---5--5--5--5--5--5--|


G|---------------------------------------------|---------------------------------------------|
D|---------------------------------------------|---------------------------------------------|
A|---------------------------------------------|---------------------------------------------|
D|-0---0--0--0--0--0--0--7---7--7--7--7--7--7--|-4---4--4--4--4--4--4--5---5--5--5--5--5--5--|


G|-----------------------------------------------|---------------------------------------------|
D|-----------------------------------------------|---------------------------------------------|
A|-----------------------------------------------|---------------------------------------------|
D|-0---0--0--0--0--0--0--0--0--0--0--0--0--0--0--|-4---4--4--4--4--4--4--5---5--5--5--5--5--5--|


G|---------------------------------------------|---------------------------------------------|
D|---------------------------------------------|---------------------------------------------|
A|---------------------------------------------|---------------------------------------------|
D|-0---0--0--0--0--0--0--7---7--7--7--7--7--7--|-4---4--4--4--4--4--4--5---5--5--5--5--5--5--|


G|-----------------------------------------------|-------------------------------------|
D|-----------------------------------------------|-------------------------------------|
A|-----------------------------------------------|-------------------------------------|
D|-0---0--0--0--0--0--0--0--0--0--0--0--0--0--0--|-0---0--0--0----0---9---0--5---5--7--|


G|-------------------------------------|-------------------------------------|-------------------------------------|
D|-------------------------------------|-------------------------------------|-------------------------------------|
A|-------------------------------------|-------------------------------------|-------------------------------------|
D|-0---0--0--0----0---9---0--5---5--7--|-0---0--0--0----0---9---0--5---5--7--|-0---0--0--0----0---9---0--5---5--7--|


G|-------------------------------------------------|-------------------------------------------------|
D|-------------------------------------------------|-------------------------------------------------|
A|-------------------------------------------------|-------------------------------------------------|
D|-7--7--7--7--7--7--7--7--7--7--7--7--7--7--7--7--|-5--5--5--5--5--5--5--5--5--5--5--5--5--5--5--5--|


G|-------------------------------------------------|-------------------------------------------------|
D|-------------------------------------------------|-------------------------------------------------|
A|-------------------------------------------------|-------------------------------------------------|
D|-7--7--7--7--7--7--7--7--7--7--7--7--7--7--7--7--|-5--5--5--5--5--5--5--5--5--5--5--5--5--5--5--5--|


G|---------------------------------------------|---------------------------------------------|
D|---------------------------------------------|---------------------------------------------|
A|---------------------------------------------|---------------------------------------------|
D|-4---4--4--4--4--4--4--5---5--5--5--5--5--5--|-0---0--0--0--0--0--0--7---7--7--7--7--7--7--|


G|---------------------------------------------|-----------------------------------------------|
D|---------------------------------------------|-----------------------------------------------|
A|---------------------------------------------|-----------------------------------------------|
D|-4---4--4--4--4--4--4--5---5--5--5--5--5--5--|-0---0--0--0--0--0--0--0--0--0--0--0--0--0--0--|


G|---------------------------------------------|---------------------------------------------|
D|---------------------------------------------|---------------------------------------------|
A|---------------------------------------------|---------------------------------------------|
D|-4---4--4--4--4--4--4--5---5--5--5--5--5--5--|-0---0--0--0--0--0--0--7---7--7--7--7--7--7--|


G|---------------------------------------------|-----------------------------------------------|
D|---------------------------------------------|-----------------------------------------------|
A|---------------------------------------------|-----------------------------------------------|
D|-4---4--4--4--4--4--4--5---5--5--5--5--5--5--|-0---0--0--0--0--0--0--0--0--0--0--0--0--0--0--|


G|-------------------------------------|-------------------------------------|-------------------------------------|
D|-------------------------------------|-------------------------------------|-------------------------------------|
A|-------------------------------------|-------------------------------------|-------------------------------------|
D|-0--0---0--0--0----0--0---0--0--0----|-7--7---7--7--7----7--7---7--7--7----|-0--0---0--0--0----0--0---0--0--0----|


G|-------------------------------------|-----------------|-----------------|-----------------|
D|-------------------------------------|-----------------|-----------------|-----------------|
A|-------------------------------------|-----------------|-----------------|-----------------|
D|-7--7---7--7--7----7--7---7--7--7----|-9-----9----9----|-7-----7----7----|-9-----9----9----|


G|-----------------|-------------------------------------|-------------------------------------|
D|-----------------|-------------------------------------|-------------------------------------|
A|-----------------|-------------------------------------|-------------------------------------|
D|-5-----5----5----|-9--9---9--9--9----9--9---9--9--9----|-7--7---7--7--7----7--7---7--7--7----|


G|-------------------------------------|-------------------------------------|-------------------------------------|
D|-------------------------------------|-------------------------------------|-------------------------------------|
A|-------------------------------------|-------------------------------------|-------------------------------------|
D|-9--9---9--9--9----9--9---9--9--9----|-5--5---5--5--5----5--5---5--5--5----|-0---0--0--0----0---9---0--5---5--7--|


G|-------------------------------------|-------------------------------------|-------------------------------------|
D|-------------------------------------|-------------------------------------|-------------------------------------|
A|-------------------------------------|-------------------------------------|-------------------------------------|
D|-0---0--0--0----0---9---0--5---5--7--|-0---0--0--0----0---9---0--5---5--7--|-0---0--0--0----0---9---0--5---5--7--|


G|-------------------------------------|-------------------------------------|-------------------------------------|
D|-------------------------------------|-------------------------------------|-------------------------------------|
A|-------------------------------------|-------------------------------------|-------------------------------------|
D|-0---0--0--0----0---9---0--5---5--7--|-0---0--0--0----0---9---0--5---5--7--|-0---0--0--0----0---9---0--5---5--7--|


G|-------------------------------------|--------|--------|--------|--------|
D|-------------------------------------|--------|--------|--------|--------|
A|-------------------------------------|--------|--------|--------|--------|
D|-0---0--0--0----0---9---0--5---5--7--|-0------|-0------|-0------|-0------|