Menu:

 

Search:

 

hank williams - honk tonk blues:

 



Title: Honky Tonk Blues
Artist: 
Album: 
Author: Hank Williams


Track 1: Acoustic Guitar

E|------------0---|-3----3----3---0---0-------|-0---0-------3---3------------|-3----3----2---0---2---0---|
B|----------------|-----------------------0---|--------------------------0---|---------------------------|
G|----------------|---------------------------|------------------------------|---------------------------|
D|----------------|------2------------2-------|---------2------------2-------|------2------------2-------|
A|----------------|---------------------------|------------------------------|---------------------------|
E|----------------|-0---------0---------------|-0---------------0------------|-0---------0---------------|


E|-2---0-------0---0---0---2---0---|-3-------3----0------------|---------------------3-----------|
B|---------------------------------|-----2------------2--------|-------------2---2-----------2---|
G|---------------------------------|---------------------------|-----0---------------------------|
D|---------2---------------2-------|---------2------------2----|---------2---------------2-------|
A|---------------------------------|-0------------0------------|-0---------------0---------------|
E|-0---------------0---------------|---------------------------|---------------------------------|


E|-3-------3----0---------|--------------------------0---|-0---3---4-------4----2----|
B|-----2------------------|------------------0-----------|-------------0-------------|
G|------------------------|------0---1-----------1-------|---------4-------4----2----|
D|---------2---------2----|------2-----------------------|---------------------------|
A|-0----------------------|------------------------------|---------------------------|
E|--------------0---------|-0------------0---------------|-0-------------------------|


E|--------------------------0---|------9-----------9--------|-0----------------------------0---|
B|-2---0------------0---2-------|-8--------8---8-------7----|----------2---2---0---------------|
G|------------------------------|---------------------------|----------------------0---1-------|
D|---------1------------1-------|---------------------------|------2---------------------------|
A|-2------------2---------------|---------------------------|----------------------------------|
E|------------------------------|---------------------------|-0------------0-------------------|


E|--------------0-----|--------|
B|-----0--------0-----|--------|
G|--------------1-----|--------|
D|-2------------------|--------|
A|---------2----------|--------|
E|--------------0-----|--------|





Track 2: Untitled

G|--------|--------|--------|--------|--------|--------|--------|--------|--------|
D|--------|--------|--------|--------|--------|--------|--------|--------|--------|
A|--------|--------|--------|--------|--------|--------|--------|--------|--------|
E|--------|--------|--------|--------|--------|--------|--------|--------|--------|


G|--------|--------|--------|--------|--------|--------|
D|--------|--------|--------|--------|--------|--------|
A|--------|--------|--------|--------|--------|--------|
E|--------|--------|--------|--------|--------|--------|