Menu:

 

Search:

 

hank williams - hey good lookin:

 



Title: Het Good Lookin'
Artist: 
Album: 
Author: Hank Williams


Track 1: Acoustic Guitar

E|-----------3-----------|-3--------------0-------|-----0--------------------3---|
B|-------------------0---|--------------------0---|-3----------------------------|
G|-----------------------|------------------------|------------------0-----------|
D|---------------0-------|------0---------0-------|---------0------------0-------|
A|-----------------------|------------------------|------------------------------|
E|-----------------------|-3---------3------------|-3------------3---------------|


E|-3-----------------0-------|-----0--------------------0---|-0-------0-------0---0--------|
B|---------------3-------0---|-3----------------------------|-----2------------------------|
G|---------------------------|------------------------------|-------------0----------------|
D|------0------------0-------|---------0--------0-----------|---------2---------------2----|
A|---------------------------|------------------------------|-0---------------0------------|
E|-3---------3---------------|-3------------3-------4-------|------------------------------|


E|-2---1---2---0---0--------3---|-3-----------------0-------|------------------------------|
B|----------------------3-------|---------------0-------3---|-3----------------------------|
G|---------2--------------------|-------------------0-------|-----2-------2---2---2--------|
D|-0--------------------0-------|------0--------------------|-0----------------------------|
A|-----------------0------------|---------------------------|---------3-------2-------0----|
E|------------------------------|-3---------3---------------|------------------------------|


E|-3--------------0-------|-----0--------------------3---|-3-----------------0-------|
B|--------------------0---|-3----------------------------|---------------3-------0---|
G|------------------------|------------------0-----------|---------------------------|
D|------0---------0-------|---------0------------0-------|------0------------0-------|
A|------------------------|------------------------------|---------------------------|
E|-3---------3------------|-3------------3---------------|-3---------3---------------|


E|-----0--------------------0---|-0-------0-------0---0--------|-2---1---2---0---0--------3---|
B|-3----------------------------|-----2------------------------|----------------------3-------|
G|------------------------------|-------------0----------------|---------2--------------------|
D|---------0--------0-----------|---------2---------------2----|-0--------------------0-------|
A|------------------------------|-0---------------0------------|-----------------0------------|
E|-3------------3-------4-------|------------------------------|------------------------------|


E|-3-----------------2---1---|-1----------------3---3---3---|-0----0----3---3-----------|
B|---------------0-----------|------------------------------|-----------------------3---|
G|---------------------------|------------------------------|------0------------0-------|
D|------0------------0-------|-----0------------------------|---------------------------|
A|---------------------------|---------0----1-------2-------|-3---------3---------------|
E|-3---------3---------------|-3----------------------------|---------------------------|


E|-0----------------------------|-0---3-------0---3----3----|-0-------------------------|
B|-----3-------0---3--------3---|---------------------------|-----3---0---3---3---------|
G|------------------------------|---------0------------0----|---------------------------|
D|---------0------------0-------|---------------------------|---------0------------0----|
A|------------------------------|-3---------------3---------|---------------------------|
E|-3---------------3------------|---------------------------|-3---------------3---------|


E|-0----3---0---3---3-------3---|-0-------------------3-----------|-5-------5----5----5---0---|
B|------------------------------|-----3---0---3---3-----------0---|-----2---------------------|
G|------0---------------0-------|---------------------------------|---------------------------|
D|------------------------------|---------0---------------0-------|---------2---------2-------|
A|-3------------3---------------|---------------------------------|-0------------0------------|
E|------------------------------|-3---------------3---------------|---------------------------|


E|-1---0-------------------0--------|-3--------------0-------|-----0--------------------3---|
B|---------3---3---3---3-------3----|--------------------0---|-3----------------------------|
G|----------------------------------|------------------------|------------------0-----------|
D|-0--------------------------------|------0---------0-------|---------0------------0-------|
A|-------------3-------2-------0----|------------------------|------------------------------|
E|----------------------------------|-3---------3------------|-3------------3---------------|


E|-3-----------------0-------|-----0--------------------0---|-0-------0-------0---0--------|
B|---------------3-------0---|-3----------------------------|-----2------------------------|
G|---------------------------|------------------------------|-------------0----------------|
D|------0------------0-------|---------0--------0-----------|---------2---------------2----|
A|---------------------------|------------------------------|-0---------------0------------|
E|-3---------3---------------|-3------------3-------4-------|------------------------------|


E|-2---1---2---0---0--------3---|-3-------------5---6---7---|-7----0----------|--------|
B|----------------------3-------|---------------6---7---8---|-8----0----------|--------|
G|---------2--------------------|---------------7---8---9---|-9----0----------|--------|
D|-0--------------------0-------|------0----0---------------|------0----------|--------|
A|-----------------0------------|---------------------------|------2----------|--------|
E|------------------------------|-3-------------------------|------3----------|--------|





Track 2: Untitled

G|--------|--------|--------|--------|--------|--------|--------|--------|--------|
D|--------|--------|--------|--------|--------|--------|--------|--------|--------|
A|--------|--------|--------|--------|--------|--------|--------|--------|--------|
E|--------|--------|--------|--------|--------|--------|--------|--------|--------|


G|--------|--------|--------|--------|--------|--------|--------|--------|--------|
D|--------|--------|--------|--------|--------|--------|--------|--------|--------|
A|--------|--------|--------|--------|--------|--------|--------|--------|--------|
E|--------|--------|--------|--------|--------|--------|--------|--------|--------|


G|--------|--------|--------|--------|--------|--------|--------|--------|--------|
D|--------|--------|--------|--------|--------|--------|--------|--------|--------|
A|--------|--------|--------|--------|--------|--------|--------|--------|--------|
E|--------|--------|--------|--------|--------|--------|--------|--------|--------|


G|--------|--------|--------|--------|--------|--------|--------|
D|--------|--------|--------|--------|--------|--------|--------|
A|--------|--------|--------|--------|--------|--------|--------|
E|--------|--------|--------|--------|--------|--------|--------|