Menu:

 

Search:

 

goober - my song:

 



Title: My Song
Artist: 
Album: Goober Entertainment
Author: Goober


Track 1: Acoustic Guitar

E|-3---3--3--3---3---3--3--3---3---3---|-3---3--3--3---3---3--3--3---3---3---|-3---3--3--3---3---3--3--3---3---3---|
B|-3---3--3--3---3---3--3--3---3---3---|-3---3--3--3---3---3--3--3---3---3---|-3---3--3--3---3---3--3--3---3---3---|
G|-0---0--0--0---0---0--0--0---0---0---|-0---0--0--0---0---0--0--0---0---0---|-0---0--0--0---0---0--0--0---0---0---|
D|-0---0--0--0---0---0--0--0---0---0---|-2---2--2--2---2---2--2--2---2---2---|-0---0--0--0---0---0--0--0---0---0---|
A|-2---2--2--2---2---2--2--2---2---2---|-3---3--3--3---3---3--3--3---3---3---|-2---2--2--2---2---2--2--2---2---2---|
E|-3---3--3--3---3---3--3--3---3---3---|-------------------------------------|-3---3--3--3---3---3--3--3---3---3---|


E|-2---2--2--2---2---2--2--2---2---2---|-0---0--0--0---0---0--0--0---0---0---|-0---0---0--0--0--0--0---0---0--0--0--0--|
B|-3---3--3--3---3---3--3--3---3---3---|-1---1--1--1---1---1--1--1---1---1---|-0---0---0--0--0--0--0---0---0--0--1--1--|
G|-2---2--2--2---2---2--2--2---2---2---|-0---0--0--0---0---0--0--0---0---0---|-0---0---0--0--0--0--0---0---0--0--0--0--|
D|-0---0--0--0---0---0--0--0---0---0---|-2---2--2--2---2---2--2--2---2---2---|-2---2---2--2--2--2--2---2---2--2--2--2--|
A|-0---0--0--0---0---0--0--0---0---0---|-3---3--3--3---3---3--3--3---3---3---|-2---2---2--2--2--2--2---2---2--2--2--2--|
E|-2---2--2--2---2---2--2--2---2---2---|-0---0--0--0---0---0--0--0---0---0---|-0---0---0--0--0--0--0---0---0--0--0--0--|


E|-3---3---3--3--3--3--3---3---3--3--3--3--|-3---3---3--3--3--3--3---3---3--3--3--3--|
B|-3---3---3--3--3--3--3---3---3--3--3--3--|-3---3---3--3--3--3--3---3---3--3--3--3--|
G|-0---0---0--0--0--0--0---0---0--0--0--0--|-0---0---0--0--0--0--0---0---0--0--0--0--|
D|-0---0---0--0--0--0--2---2---2--2--2--2--|-0---0---0--0--0--0--2---2---2--2--2--2--|
A|-2---2---2--2--2--2--3---3---3--3--3--3--|-2---2---2--2--2--2--3---3---3--3--3--3--|
E|-3---3---3--3--3--3----------------------|-3---3---3--3--3--3----------------------|


E|-3---3--3--3---3---3--3--3---3---3---|-3---3--3--3---3---3--3--3---3---3---|-3---3--3--3---3---3--3--3---3---3---|
B|-3---3--3--3---3---3--3--3---3---3---|-3---3--3--3---3---3--3--3---3---3---|-3---3--3--3---3---3--3--3---3---3---|
G|-0---0--0--0---0---0--0--0---0---0---|-0---0--0--0---0---0--0--0---0---0---|-0---0--0--0---0---0--0--0---0---0---|
D|-0---0--0--0---0---0--0--0---0---0---|-2---2--2--2---2---2--2--2---2---2---|-0---0--0--0---0---0--0--0---0---0---|
A|-2---2--2--2---2---2--2--2---2---2---|-3---3--3--3---3---3--3--3---3---3---|-2---2--2--2---2---2--2--2---2---2---|
E|-3---3--3--3---3---3--3--3---3---3---|-------------------------------------|-3---3--3--3---3---3--3--3---3---3---|


E|-2---2--2--2---2---2--2--2---2---2---|-0---0--0--0---0---0--0--0---0---0---|-0---0---0--0--0--0--0---0---0--0--0--0--|
B|-3---3--3--3---3---3--3--3---3---3---|-1---1--1--1---1---1--1--1---1---1---|-0---0---0--0--0--0--0---0---0--0--1--1--|
G|-2---2--2--2---2---2--2--2---2---2---|-0---0--0--0---0---0--0--0---0---0---|-0---0---0--0--0--0--0---0---0--0--0--0--|
D|-0---0--0--0---0---0--0--0---0---0---|-2---2--2--2---2---2--2--2---2---2---|-2---2---2--2--2--2--2---2---2--2--2--2--|
A|-0---0--0--0---0---0--0--0---0---0---|-3---3--3--3---3---3--3--3---3---3---|-2---2---2--2--2--2--2---2---2--2--2--2--|
E|-2---2--2--2---2---2--2--2---2---2---|-0---0--0--0---0---0--0--0---0---0---|-0---0---0--0--0--0--0---0---0--0--0--0--|


E|-3---3---3--3--3--3--3---3---3--3--3--3--|-3---3---3--3--3--3--3---3---3--3--3--3--|
B|-3---3---3--3--3--3--3---3---3--3--3--3--|-3---3---3--3--3--3--1---1---1--1--1--1--|
G|-0---0---0--0--0--0--0---0---0--0--0--0--|-0---0---0--0--0--0--0---0---0--0--0--0--|
D|-0---0---0--0--0--0--2---2---2--2--2--2--|-0---0---0--0--0--0--2---2---2--2--2--2--|
A|-2---2---2--2--2--2--3---3---3--3--3--3--|-2---2---2--2--2--2--3---3---3--3--3--3--|
E|-3---3---3--3--3--3----------------------|-3---3---3--3--3--3----------------------|


E|-3---3--3--3---3---3--3--3---3---3---|-3---3--3--3---3---3--3--3---3---3---|-3---3--3--3---3---3--3--3---3---3---|
B|-3---3--3--3---3---3--3--3---3---3---|-3---3--3--3---3---3--3--3---3---3---|-3---3--3--3---3---3--3--3---3---3---|
G|-0---0--0--0---0---0--0--0---0---0---|-0---0--0--0---0---0--0--0---0---0---|-0---0--0--0---0---0--0--0---0---0---|
D|-0---0--0--0---0---0--0--0---0---0---|-2---2--2--2---2---2--2--2---2---2---|-0---0--0--0---0---0--0--0---0---0---|
A|-2---2--2--2---2---2--2--2---2---2---|-3---3--3--3---3---3--3--3---3---3---|-2---2--2--2---2---2--2--2---2---2---|
E|-3---3--3--3---3---3--3--3---3---3---|-------------------------------------|-3---3--3--3---3---3--3--3---3---3---|


E|-3---3--3--3---3---3--3--3---3---3---|-3---3--3--3---3---3--3--3---3---3---|-3---3--3--3---3---3--3--3---3---3---|
B|-3---3--3--3---3---3--3--3---3---3---|-3---3--3--3---3---3--3--3---3---3---|-3---3--3--3---3---3--3--3---3---3---|
G|-0---0--0--0---0---0--0--0---0---0---|-0---0--0--0---0---0--0--0---0---0---|-0---0--0--0---0---0--0--0---0---0---|
D|-0---0--0--0---0---0--0--0---0---0---|-0---0--0--0---0---0--0--0---0---0---|-2---2--2--2---2---2--2--2---2---2---|
A|-2---2--2--2---2---2--2--2---2---2---|-2---2--2--2---2---2--2--2---2---2---|-3---3--3--3---3---3--3--3---3---3---|
E|-3---3--3--3---3---3--3--3---3---3---|-3---3--3--3---3---3--3--3---3---3---|-------------------------------------|


E|-3---3--3--3---3---3--3--3---3---3---|-2---2--2--2---2---2--2--2---2---2---|-3---3--3--3---3---3--3--3---3---3---|
B|-3---3--3--3---3---3--3--3---3---3---|-3---3--3--3---3---3--3--3---3---3---|-3---3--3--3---3---3--3--3---3---3---|
G|-0---0--0--0---0---0--0--0---0---0---|-2---2--2--2---2---2--2--2---2---2---|-0---0--0--0---0---0--0--0---0---0---|
D|-0---0--0--0---0---0--0--0---0---0---|-0---0--0--0---0---0--0--0---0---0---|-0---0--0--0---0---0--0--0---0---0---|
A|-2---2--2--2---2---2--2--2---2---2---|-0---0--0--0---0---0--0--0---0---0---|-2---2--2--2---2---2--2--2---2---2---|
E|-3---3--3--3---3---3--3--3---3---3---|-2---2--2--2---2---2--2--2---2---2---|-3---3--3--3---3---3--3--3---3---3---|


E|-2---2--2--2---2---2--2--2---2---2---|-0---0--0--0---0---0--0--0---0---0---|-0---0--0--0---0---0--0--0---0---0---|
B|-3---3--3--3---3---3--3--3---3---3---|-1---1--1--1---1---1--1--1---1---1---|-1---1--1--1---1---1--1--1---1---1---|
G|-2---2--2--2---2---2--2--2---2---2---|-0---0--0--0---0---0--0--0---0---0---|-0---0--0--0---0---0--0--0---0---0---|
D|-0---0--0--0---0---0--0--0---0---0---|-2---2--2--2---2---2--2--2---2---2---|-2---2--2--2---2---2--2--2---2---2---|
A|-0---0--0--0---0---0--0--0---0---0---|-3---3--3--3---3---3--3--3---3---3---|-3---3--3--3---3---3--3--3---3---3---|
E|-2---2--2--2---2---2--2--2---2---2---|-0---0--0--0---0---0--0--0---0---0---|-0---0--0--0---0---0--0--0---0---0---|


E|-3---3--3--3---3---3--3--3---3---3---|-3---3--3--3---3---3--3--3---3---3---|-3---3--3--3---3---3--3--3---3---3---|
B|-3---3--3--3---3---3--3--3---3---3---|-3---3--3--3---3---3--3--3---3---3---|-3---3--3--3---3---3--3--3---3---3---|
G|-0---0--0--0---0---0--0--0---0---0---|-0---0--0--0---0---0--0--0---0---0---|-0---0--0--0---0---0--0--0---0---0---|
D|-0---0--0--0---0---0--0--0---0---0---|-2---2--2--2---2---2--2--2---2---2---|-0---0--0--0---0---0--0--0---0---0---|
A|-2---2--2--2---2---2--2--2---2---2---|-3---3--3--3---3---3--3--3---3---3---|-2---2--2--2---2---2--2--2---2---2---|
E|-3---3--3--3---3---3--3--3---3---3---|-------------------------------------|-3---3--3--3---3---3--3--3---3---3---|


E|-2---2--2--2---2---2--2--2---2---2---|-3--3--3---3---3--3--3---3---3---3---|-3--3--3---3---3--3--3---3---3---3---|
B|-3---3--3--3---3---3--3--3---3---3---|-3--3--3---3---3--3--3---3---3---3---|-3--3--3---3---3--3--3---3---3---3---|
G|-2---2--2--2---2---2--2--2---2---2---|-0--0--0---0---0--0--0---0---0---0---|-0--0--0---0---0--0--0---0---0---0---|
D|-0---0--0--0---0---0--0--0---0---0---|-0--0--0---0---0--0--0---0---0---0---|-2--2--2---2---2--2--2---2---2---2---|
A|-0---0--0--0---0---0--0--0---0---0---|-2--2--2---2---2--2--2---2---2---2---|-3--3--3---3---3--3--3---3---3---3---|
E|-2---2--2--2---2---2--2--2---2---2---|-3--3--3---3---3--3--3---3---3---3---|-------------------------------------|


E|-3--3--3---3---3--3--3---3---3---3---|-2--2--2---2---2--2--2---2---2--2--2--2--|
B|-3--3--3---3---3--3--3---3---3---3---|-3--3--3---3---3--3--3---3---3--3--3--3--|
G|-0--0--0---0---0--0--0---0---0---0---|-2--2--2---2---2--2--2---2---2--2--2--2--|
D|-0--0--0---0---0--0--0---0---0---0---|-0--0--0---0---0--0--0---0---0--0--0--0--|
A|-2--2--2---2---2--2--2---2---2---2---|-0--0--0---0---0--0--0---0---0--0--0--0--|
E|-3--3--3---3---3--3--3---3---3---3---|-2--2--2---2---2--2--2---2---2--2--2--2--|


E|-3---3--3--3---3---3--3--3---3---3---|-3---3--3--3---3---3--3--3---3---3---|-3---3--3--3---3---3--3--3---3---3---|
B|-3---3--3--3---3---3--3--3---3---3---|-3---3--3--3---3---3--3--3---3---3---|-3---3--3--3---3---3--3--3---3---3---|
G|-0---0--0--0---0---0--0--0---0---0---|-0---0--0--0---0---0--0--0---0---0---|-0---0--0--0---0---0--0--0---0---0---|
D|-0---0--0--0---0---0--0--0---0---0---|-2---2--2--2---2---2--2--2---2---2---|-0---0--0--0---0---0--0--0---0---0---|
A|-2---2--2--2---2---2--2--2---2---2---|-3---3--3--3---3---3--3--3---3---3---|-2---2--2--2---2---2--2--2---2---2---|
E|-3---3--3--3---3---3--3--3---3---3---|-------------------------------------|-3---3--3--3---3---3--3--3---3---3---|


E|-2---2--2--2---2---2--2--2---2---2---|-3---3--3--3---3---3--3--3---3---3---|-3---3--3--3---3---3--3--3---3---3---|
B|-3---3--3--3---3---3--3--3---3---3---|-3---3--3--3---3---3--3--3---3---3---|-3---3--3--3---3---3--3--3---3---3---|
G|-2---2--2--2---2---2--2--2---2---2---|-0---0--0--0---0---0--0--0---0---0---|-0---0--0--0---0---0--0--0---0---0---|
D|-0---0--0--0---0---0--0--0---0---0---|-0---0--0--0---0---0--0--0---0---0---|-2---2--2--2---2---2--2--2---2---2---|
A|-0---0--0--0---0---0--0--0---0---0---|-2---2--2--2---2---2--2--2---2---2---|-3---3--3--3---3---3--3--3---3---3---|
E|-2---2--2--2---2---2--2--2---2---2---|-3---3--3--3---3---3--3--3---3---3---|-------------------------------------|


E|-3---3--3--3---3---3--3--3---3---3---|-2---2--2--2---2---2--2--2---2---2---|-3---3--3--3---3---3--3--3---3---3---|
B|-3---3--3--3---3---3--3--3---3---3---|-3---3--3--3---3---3--3--3---3---3---|-3---3--3--3---3---3--3--3---3---3---|
G|-0---0--0--0---0---0--0--0---0---0---|-2---2--2--2---2---2--2--2---2---2---|-0---0--0--0---0---0--0--0---0---0---|
D|-0---0--0--0---0---0--0--0---0---0---|-0---0--0--0---0---0--0--0---0---0---|-0---0--0--0---0---0--0--0---0---0---|
A|-2---2--2--2---2---2--2--2---2---2---|-0---0--0--0---0---0--0--0---0---0---|-2---2--2--2---2---2--2--2---2---2---|
E|-3---3--3--3---3---3--3--3---3---3---|-2---2--2--2---2---2--2--2---2---2---|-3---3--3--3---3---3--3--3---3---3---|


E|-3---3--3--3---3---3--3--3---3---3---|-3---3--3--3---3---3--3--3---3---3---|-3---3--3--3---3---3--3--3---3---3---|
B|-3---3--3--3---3---3--3--3---3---3---|-3---3--3--3---3---3--3--3---3---3---|-3---3--3--3---3---3--3--3---3---3---|
G|-0---0--0--0---0---0--0--0---0---0---|-0---0--0--0---0---0--0--0---0---0---|-0---0--0--0---0---0--0--0---0---0---|
D|-0---0--0--0---0---0--0--0---0---0---|-2---2--2--2---2---2--2--2---2---2---|-0---0--0--0---0---0--0--0---0---0---|
A|-2---2--2--2---2---2--2--2---2---2---|-3---3--3--3---3---3--3--3---3---3---|-2---2--2--2---2---2--2--2---2---2---|
E|-3---3--3--3---3---3--3--3---3---3---|-------------------------------------|-3---3--3--3---3---3--3--3---3---3---|


E|-3---3--3--3---3---3--3--3---3---3---|-3---3--3--3---3---3--3--3---3---3---|-3---3--3--3---3---3--3--3---3---3---|
B|-3---3--3--3---3---3--3--3---3---3---|-3---3--3--3---3---3--3--3---3---3---|-3---3--3--3---3---3--3--3---3---3---|
G|-0---0--0--0---0---0--0--0---0---0---|-0---0--0--0---0---0--0--0---0---0---|-0---0--0--0---0---0--0--0---0---0---|
D|-0---0--0--0---0---0--0--0---0---0---|-0---0--0--0---0---0--0--0---0---0---|-2---2--2--2---2---2--2--2---2---2---|
A|-2---2--2--2---2---2--2--2---2---2---|-2---2--2--2---2---2--2--2---2---2---|-3---3--3--3---3---3--3--3---3---3---|
E|-3---3--3--3---3---3--3--3---3---3---|-3---3--3--3---3---3--3--3---3---3---|-------------------------------------|


E|-3---3--3--3---3---3--3--3---3---3---|-3---3--3--3---3---3--3--3---3---3---|-3---3--3--3---3---3--3--3---3---3---|
B|-3---3--3--3---3---3--3--3---3---3---|-3---3--3--3---3---3--3--3---3---3---|-3---3--3--3---3---3--3--3---3---3---|
G|-0---0--0--0---0---0--0--0---0---0---|-0---0--0--0---0---0--0--0---0---0---|-0---0--0--0---0---0--0--0---0---0---|
D|-0---0--0--0---0---0--0--0---0---0---|-0---0--0--0---0---0--0--0---0---0---|-2---2--2--2---2---2--2--2---2---2---|
A|-2---2--2--2---2---2--2--2---2---2---|-2---2--2--2---2---2--2--2---2---2---|-3---3--3--3---3---3--3--3---3---3---|
E|-3---3--3--3---3---3--3--3---3---3---|-3---3--3--3---3---3--3--3---3---3---|-------------------------------------|


E|-0---0--0--0---0---0--0--0---0---0---|-0---0---0---0---2--3--2--0--2--3--2--0--|
B|-0---0--0--0---0---0--0--0---0---0---|-1---1---1---1---3--3--3--3--3--3--3--3--|
G|-0---0--0--0---0---0--0--0---0---0---|-0---0---0---0---2--2--2--2--2--2--2--2--|
D|-2---2--2--2---2---2--2--2---2---2---|-2---2---2---2---------------------------|
A|-2---2--2--2---2---2--2--2---2---2---|-3---3---3---3---------------------------|
E|-0---0--0--0---0---0--0--0---0---0---|-0---0---0---0---------------------------|


E|-3------|-------------------------------------------------|-3------|-------------------------------------------------|
B|-3------|-3--3--3--3--3--3--3--3--3--3--3--3--3--3--3--3--|-3------|-3--3--3--3--3--3--3--3--3--3--3--3--3--3--3--3--|
G|-0------|-4--4--4--4--4--4--4--4--4--4--4--4--4--4--4--4--|-0------|-4--4--4--4--4--4--4--4--4--4--4--4--4--4--4--4--|
D|-0------|-5--5--5--5--5--5--5--5--5--5--5--5--5--5--5--5--|-0------|-5--5--5--5--5--5--5--5--5--5--5--5--5--5--5--5--|
A|-2------|-------------------------------------------------|-2------|-------------------------------------------------|
E|-3------|-------------------------------------------------|-3------|-------------------------------------------------|


E|-3------|-------------------------------------------------|--------|--------|--------|
B|-3------|-3--3--3--3--3--3--3--3--3--3--3--3--3--3--3--3--|--------|--------|--------|
G|-0------|-4--4--4--4--4--4--4--4--4--4--4--4--4--4--4--4--|--------|--------|--------|
D|-0------|-5--5--5--5--5--5--5--5--5--5--5--5--5--5--5--5--|--------|--------|--------|
A|-2------|-------------------------------------------------|--------|--------|--------|
E|-3------|-------------------------------------------------|--------|--------|--------|


E|--------|--------|--------|--------|--------|--------|--------|--------|--------|
B|--------|--------|--------|--------|--------|--------|--------|--------|--------|
G|--------|--------|--------|--------|--------|--------|--------|--------|--------|
D|--------|--------|--------|--------|--------|--------|--------|--------|--------|
A|--------|--------|--------|--------|--------|--------|--------|--------|--------|
E|--------|--------|--------|--------|--------|--------|--------|--------|--------|


E|--------|--------|--------|--------|--------|--------|--------|--------|--------|
B|--------|--------|--------|--------|--------|--------|--------|--------|--------|
G|--------|--------|--------|--------|--------|--------|--------|--------|--------|
D|--------|--------|--------|--------|--------|--------|--------|--------|--------|
A|--------|--------|--------|--------|--------|--------|--------|--------|--------|
E|--------|--------|--------|--------|--------|--------|--------|--------|--------|


E|--------|--------|--------|--------|--------|--------|--------|--------|--------|
B|--------|--------|--------|--------|--------|--------|--------|--------|--------|
G|--------|--------|--------|--------|--------|--------|--------|--------|--------|
D|--------|--------|--------|--------|--------|--------|--------|--------|--------|
A|--------|--------|--------|--------|--------|--------|--------|--------|--------|
E|--------|--------|--------|--------|--------|--------|--------|--------|--------|


E|--------|--------|--------|--------|--------|--------|--------|--------|--------|
B|--------|--------|--------|--------|--------|--------|--------|--------|--------|
G|--------|--------|--------|--------|--------|--------|--------|--------|--------|
D|--------|--------|--------|--------|--------|--------|--------|--------|--------|
A|--------|--------|--------|--------|--------|--------|--------|--------|--------|
E|--------|--------|--------|--------|--------|--------|--------|--------|--------|


E|--------|--------|--------|-3-----------3-------------------|-2-------2-------------------3---|
B|--------|--------|--------|-----3---3---3---3---------------|-----3---3---------------3-------|
G|--------|--------|--------|---------------------0-------0---|-2-------2---2-------2-----------|
D|--------|--------|--------|---------5---------------0-------|-----------------0---------------|
A|--------|--------|--------|-----5---------------------------|-------------------------5-------|
E|--------|--------|--------|-3-------------------------------|---------------------------------|


E|-3-------3-------3---------------|-0-----------------------0-------|-3-----------3---------------3---2---|
B|-3-------3-------3---3-----------|-1-------------------1-----------|-----3---3---3---------------3---3---|
G|-0---0---0---0-----------2-------|-----------------------------0---|-------------------------------------|
D|---------2-------------------0---|-----2---2-------2---------------|---------5---------------------------|
A|---------------------------------|---------3-------3---------------|-----5--------------------3----------|
E|-----3-------3-------------------|-------------0-------------------|-3---------------0--3--1-------------|


E|-2-----------2-------2-----------|-3---3---------------------------|-0------|-3-----------3---------------3---2---|
B|-3---3-----------3---------------|-3-------3-----------------------|-1------|-----3---3---3---------------3---3---|
G|-2-------2-----------2-----------|-0-----------0---------------0---|-0------|-------------------------------------|
D|-------------------------0-------|-0-----------------------0-------|-2------|---------5---------------------------|
A|-----------------------------0---|-2-------------------2-----------|-3------|-----5--------------------3----------|
E|---------------------------------|-3---------------3---------------|-0------|-3---------------0--3--1-------------|


E|-2-----------2-------2-----------|-3---3---------------------------|-0------|-3---3--3--3---3---3--3--3---3---3---|
B|-3---3-----------3---------------|-3-------3-----------------------|-1------|-3---3--3--3---3---3--3--3---3---3---|
G|-2-------2-----------2-----------|-0-----------0---------------0---|-0------|-0---0--0--0---0---0--0--0---0---0---|
D|-------------------------0-------|-0-----------------------0-------|-2------|-0---0--0--0---0---0--0--0---0---0---|
A|-----------------------------0---|-2-------------------2-----------|-3------|-2---2--2--2---2---2--2--2---2---2---|
E|---------------------------------|-3---------------3---------------|-0------|-3---3--3--3---3---3--3--3---3---3---|


E|-3---3--3--3---3---3--3--3---3---3---|-3---3--3--3---3---3--3--3---3---3---|-2---2--2--2---2---2--2--2---2---2---|
B|-3---3--3--3---3---3--3--3---3---3---|-3---3--3--3---3---3--3--3---3---3---|-3---3--3--3---3---3--3--3---3---3---|
G|-0---0--0--0---0---0--0--0---0---0---|-0---0--0--0---0---0--0--0---0---0---|-2---2--2--2---2---2--2--2---2---2---|
D|-2---2--2--2---2---2--2--2---2---2---|-0---0--0--0---0---0--0--0---0---0---|-0---0--0--0---0---0--0--0---0---0---|
A|-3---3--3--3---3---3--3--3---3---3---|-2---2--2--2---2---2--2--2---2---2---|-0---0--0--0---0---0--0--0---0---0---|
E|-------------------------------------|-3---3--3--3---3---3--3--3---3---3---|-2---2--2--2---2---2--2--2---2---2---|


E|-0---0--0--0---0---0--0--0---0---0---|-0---0---0--0--0--0--0---0---0--0--0--0--|
B|-1---1--1--1---1---1--1--1---1---1---|-0---0---0--0--0--0--0---0---0--0--1--1--|
G|-0---0--0--0---0---0--0--0---0---0---|-0---0---0--0--0--0--0---0---0--0--0--0--|
D|-2---2--2--2---2---2--2--2---2---2---|-2---2---2--2--2--2--2---2---2--2--2--2--|
A|-3---3--3--3---3---3--3--3---3---3---|-2---2---2--2--2--2--2---2---2--2--2--2--|
E|-0---0--0--0---0---0--0--0---0---0---|-0---0---0--0--0--0--0---0---0--0--0--0--|


E|-3---3---3--3--3--3--3---3---3--3--3--3--|-3---3---3--3--3--3--3---3---3--3--3--3--|
B|-3---3---3--3--3--3--3---3---3--3--3--3--|-3---3---3--3--3--3--3---3---3--3--3--3--|
G|-0---0---0--0--0--0--0---0---0--0--0--0--|-0---0---0--0--0--0--0---0---0--0--0--0--|
D|-0---0---0--0--0--0--2---2---2--2--2--2--|-0---0---0--0--0--0--2---2---2--2--2--2--|
A|-2---2---2--2--2--2--3---3---3--3--3--3--|-2---2---2--2--2--2--3---3---3--3--3--3--|
E|-3---3---3--3--3--3----------------------|-3---3---3--3--3--3----------------------|


E|-3---3--3--3---3---3--3--3---3---3---|-3---3--3--3---3---3--3--3---3---3---|-3---3--3--3---3---3--3--3---3---3---|
B|-3---3--3--3---3---3--3--3---3---3---|-3---3--3--3---3---3--3--3---3---3---|-3---3--3--3---3---3--3--3---3---3---|
G|-0---0--0--0---0---0--0--0---0---0---|-0---0--0--0---0---0--0--0---0---0---|-0---0--0--0---0---0--0--0---0---0---|
D|-0---0--0--0---0---0--0--0---0---0---|-2---2--2--2---2---2--2--2---2---2---|-0---0--0--0---0---0--0--0---0---0---|
A|-2---2--2--2---2---2--2--2---2---2---|-3---3--3--3---3---3--3--3---3---3---|-2---2--2--2---2---2--2--2---2---2---|
E|-3---3--3--3---3---3--3--3---3---3---|-------------------------------------|-3---3--3--3---3---3--3--3---3---3---|


E|-2---2--2--2---2---2--2--2---2---2---|--------|--------|--------|--------|--------|
B|-3---3--3--3---3---3--3--3---3---3---|--------|--------|--------|--------|--------|
G|-2---2--2--2---2---2--2--2---2---2---|--------|--------|--------|--------|--------|
D|-0---0--0--0---0---0--0--0---0---0---|--------|--------|--------|--------|--------|
A|-0---0--0--0---0---0--0--0---0---0---|--------|--------|--------|--------|--------|
E|-2---2--2--2---2---2--2--2---2---2---|--------|--------|--------|--------|--------|


E|--------|
B|--------|
G|--------|
D|--------|
A|--------|
E|--------|





Track 2: Overdriven Guitar

E|--------|--------|--------|--------|--------|--------|--------|--------|-3---3---3--5--3--7--8---7---5---7---|
B|--------|--------|--------|--------|--------|--------|--------|--------|-------------------------------------|
G|--------|--------|--------|--------|--------|--------|--------|--------|-------------------------------------|
D|--------|--------|--------|--------|--------|--------|--------|--------|-------------------------------------|
A|--------|--------|--------|--------|--------|--------|--------|--------|-------------------------------------|
E|--------|--------|--------|--------|--------|--------|--------|--------|-------------------------------------|


E|-3---3---3--5--3--7--8---7---5---7---|-3---3---3--5--3--7--10--8---7---8---|-2---2---2--2--2--2--2--2--2--2--2---2---|
B|-------------------------------------|-------------------------------------|-----------------------------------------|
G|-------------------------------------|-------------------------------------|-----------------------------------------|
D|-------------------------------------|-------------------------------------|-----------------------------------------|
A|-------------------------------------|-------------------------------------|-----------------------------------------|
E|-------------------------------------|-------------------------------------|-----------------------------------------|


E|-0---0---5--7--5--0---0---0---0---0---|-0---0---5--7--5--3--5--3--0---0---0---0---|
B|--------------------------------------|-------------------------------------------|
G|--------------------------------------|-------------------------------------------|
D|--------------------------------------|-------------------------------------------|
A|--------------------------------------|-------------------------------------------|
E|--------------------------------------|-------------------------------------------|


E|----------------------------------------------5--7--8--15---|-15------------------|
B|-------------------------------------5--6--8----------------|---------------------|
G|----------------------------4--5--7-------------------------|---------------------|
D|-------------------3--5--7----------------------------------|------17--------17---|
A|----------3--5--7-------------------------------------------|---------------------|
E|-3--5--7----------------------------------------------------|-----------15--------|


E|-15-----|-15-----|-15-----|-15-----|-15---15---151515---15-15-15-|--------|--------|
B|--------|--------|--------|--------|-----------------------------|--------|--------|
G|--------|--------|--------|--------|-----------------------------|--------|--------|
D|--------|--------|--------|--------|-----------------------------|--------|--------|
A|--------|--------|--------|--------|-----------------------------|--------|--------|
E|--------|--------|--------|--------|-----------------------------|--------|--------|


E|-------------|-------3----3----|-2------3----|-0------|-0------|----------------3--3--3--------------------------|
B|-------------|-------3----3----|-3------3----|-1------|-1------|-------------3-----------3-----------------------|
G|-------------|-------0----0----|-2------0----|-0------|-0------|----------0-----------------0-----------------0--|
D|-------------|-17----0----0----|-0------0----|-2------|-2------|-------0-----------------------0-----------0-----|
A|-------------|-------2----2----|-0------2----|-3------|-3------|----2-----------------------------2-----2--------|
E|-14----15----|-------3----3----|-2------3----|-0------|-0------|-3-----------------------------------3-----------|


E|-------------3--12-15-12-3-----------------------|-3-----------------------------3-----------------|
B|----------3-----------------3-----------------3--|----3-----------------------3-----3--------------|
G|-------0-----------------------0-----------0-----|-------0-----------------0-----------0-----------|
D|----2-----------------------------2-----2--------|----------0-----------0-----------------0--------|
A|-3-----------------------------------3-----------|-------------2-----2-----------------------2-----|
E|-------------------------------------------------|----------------3-----------------------------3--|


E|----------------2--2--2--------------------------|-3------|-3------|-3------|-2------|
B|-------------3-----------3-----------------------|-3------|-3------|-3------|-3------|
G|----------2-----------------2-----------------2--|-0------|-0------|-0------|-2------|
D|-------0-----------------------0-----------0-----|-0------|-2------|-0------|-0------|
A|----0-----------------------------0-----0--------|-2------|-3------|-2------|-0------|
E|-2-----------------------------------2-----------|-3------|--------|-3------|-2------|


E|-----------------|--------|--------|-------------------------------------------------|
B|-----------------|--------|--------|-------------------------------------------------|
G|------------19---|-17-----|-16-----|-19--17------17----------------------------------|
D|-17----19--------|--------|--------|---------19------19--17--19--17------19----------|
A|-----------------|--------|--------|---------------------------------19------19--17--|
E|-----------------|--------|--------|-------------------------------------------------|


E|----------------15----|-15-17-19-15-17-19-17-19-15----|-19-17----17-------------------------19-17----17-------19-17----20-19----|
B|----------------------|-------------------------------|-------20----20-18-20-18----18-------------20----20-18-------20-------22-|
G|----------------------|-------------------------------|-------------------------21----21-19-------------------------------------|
D|-17---17---17---------|-------------------------------|-------------------------------------------------------------------------|
A|----------------------|-------------------------------|-------------------------------------------------------------------------|
E|----------------------|-------------------------------|-------------------------------------------------------------------------|


E|-15----15----|-15-----|-15-----|-27-----|-27-----|-27-----|-27-----|-27-----|-27-----|
B|-------------|--------|--------|--------|--------|--------|--------|--------|--------|
G|-------------|--------|--------|--------|--------|--------|--------|--------|--------|
D|-------------|--------|--------|--------|--------|--------|--------|--------|--------|
A|-------------|--------|--------|--------|--------|--------|--------|--------|--------|
E|-------------|--------|--------|--------|--------|--------|--------|--------|--------|


E|--------|--------|--------|--------|--------|--------|--------|--------|--------|
B|--------|--------|--------|--------|--------|--------|--------|--------|--------|
G|--------|--------|--------|--------|--------|--------|--------|--------|--------|
D|--------|--------|--------|--------|--------|--------|--------|--------|--------|
A|--------|--------|--------|--------|--------|--------|--------|--------|--------|
E|--------|--------|--------|--------|--------|--------|--------|--------|--------|


E|--------|--------|--------|-----------------------------------|-----------------------------------|
B|--------|--------|--------|-----------------------------------|-----------------------------------|
G|--------|--------|--------|-----------------------------------|-0---------------------------------|
D|--------|--------|--------|-0---------------------------------|-2---------------------------------|
A|--------|--------|--------|-2---------------------------------|-3---3---3--3--3---3---3---3---3---|
E|--------|--------|--------|-3---3---3--3--3---3---3---3---3---|-----------------------------------|


E|-----------------------------------------------|-3---3--3--3---3---3--3--3---3---3---|
B|-----------------------------------------------|-3---3--3--3---3---3--3--3---3---3---|
G|-2---------------------------------------------|-0---0--0--0---0---0--0--0---0---0---|
D|-2---------------------------------------------|-0---0--0--0---0---0--0--0---0---0---|
A|-0---0--0--0--0--0--0--0--0--0--0--0--0--0--0--|-2---2--2--2---2---2--2--2---2---2---|
E|-----------------------------------------------|-3---3--3--3---3---3--3--3---3---3---|


E|-3---3--3--3---3---3--3--3---3---3---|-3---3--3--3---3---3--3--3---3---3---|-2---2--2--2---2---2--2--2---2---2---|
B|-3---3--3--3---3---3--3--3---3---3---|-3---3--3--3---3---3--3--3---3---3---|-3---3--3--3---3---3--3--3---3---3---|
G|-0---0--0--0---0---0--0--0---0---0---|-0---0--0--0---0---0--0--0---0---0---|-2---2--2--2---2---2--2--2---2---2---|
D|-2---2--2--2---2---2--2--2---2---2---|-0---0--0--0---0---0--0--0---0---0---|-0---0--0--0---0---0--0--0---0---0---|
A|-3---3--3--3---3---3--3--3---3---3---|-2---2--2--2---2---2--2--2---2---2---|-0---0--0--0---0---0--0--0---0---0---|
E|-------------------------------------|-3---3--3--3---3---3--3--3---3---3---|-2---2--2--2---2---2--2--2---2---2---|


E|-3---3--3--3---3---3--3--3---3---3---|-3---3--3--3---3---3--3--3---3---3---|-3---3--3--3---3---3--3--3---3---3---|
B|-3---3--3--3---3---3--3--3---3---3---|-3---3--3--3---3---3--3--3---3---3---|-3---3--3--3---3---3--3--3---3---3---|
G|-0---0--0--0---0---0--0--0---0---0---|-0---0--0--0---0---0--0--0---0---0---|-0---0--0--0---0---0--0--0---0---0---|
D|-0---0--0--0---0---0--0--0---0---0---|-2---2--2--2---2---2--2--2---2---2---|-0---0--0--0---0---0--0--0---0---0---|
A|-2---2--2--2---2---2--2--2---2---2---|-3---3--3--3---3---3--3--3---3---3---|-2---2--2--2---2---2--2--2---2---2---|
E|-3---3--3--3---3---3--3--3---3---3---|-------------------------------------|-3---3--3--3---3---3--3--3---3---3---|


E|-2---2--2--2---2---2--2--2---2---2---|-0---0--0--0---0---0--0--0---0---0---|-0---0---0--0--0--0--0---0---0--0--0--0--|
B|-3---3--3--3---3---3--3--3---3---3---|-1---1--1--1---1---1--1--1---1---1---|-0---0---0--0--0--0--0---0---0--0--1--1--|
G|-2---2--2--2---2---2--2--2---2---2---|-0---0--0--0---0---0--0--0---0---0---|-0---0---0--0--0--0--0---0---0--0--0--0--|
D|-0---0--0--0---0---0--0--0---0---0---|-2---2--2--2---2---2--2--2---2---2---|-2---2---2--2--2--2--2---2---2--2--2--2--|
A|-0---0--0--0---0---0--0--0---0---0---|-3---3--3--3---3---3--3--3---3---3---|-2---2---2--2--2--2--2---2---2--2--2--2--|
E|-2---2--2--2---2---2--2--2---2---2---|-0---0--0--0---0---0--0--0---0---0---|-0---0---0--0--0--0--0---0---0--0--0--0--|


E|-3---3---3--3--3--3--3---3---3--3--3--3--|-3---3---3--3--3--3--3---3---3--3--3--3--|
B|-3---3---3--3--3--3--3---3---3--3--3--3--|-3---3---3--3--3--3--1---1---1--1--1--1--|
G|-0---0---0--0--0--0--0---0---0--0--0--0--|-0---0---0--0--0--0--0---0---0--0--0--0--|
D|-0---0---0--0--0--0--2---2---2--2--2--2--|-0---0---0--0--0--0--2---2---2--2--2--2--|
A|-2---2---2--2--2--2--3---3---3--3--3--3--|-2---2---2--2--2--2--3---3---3--3--3--3--|
E|-3---3---3--3--3--3----------------------|-3---3---3--3--3--3----------------------|


E|-3---3--3--3---3---3--3--3---3---3---|-3---3--3--3---3---3--3--3---3---3---|-3---3--3--3---3---3--3--3---3---3---|
B|-3---3--3--3---3---3--3--3---3---3---|-3---3--3--3---3---3--3--3---3---3---|-3---3--3--3---3---3--3--3---3---3---|
G|-0---0--0--0---0---0--0--0---0---0---|-0---0--0--0---0---0--0--0---0---0---|-0---0--0--0---0---0--0--0---0---0---|
D|-0---0--0--0---0---0--0--0---0---0---|-2---2--2--2---2---2--2--2---2---2---|-0---0--0--0---0---0--0--0---0---0---|
A|-2---2--2--2---2---2--2--2---2---2---|-3---3--3--3---3---3--3--3---3---3---|-2---2--2--2---2---2--2--2---2---2---|
E|-3---3--3--3---3---3--3--3---3---3---|-------------------------------------|-3---3--3--3---3---3--3--3---3---3---|


E|-2---2--2--2---2---2--2--2---2---2---|-3---3--3--3---3---3--3--3---3---3---|-3---3--3--3---3---3--3--3---3---3---|
B|-3---3--3--3---3---3--3--3---3---3---|-3---3--3--3---3---3--3--3---3---3---|-3---3--3--3---3---3--3--3---3---3---|
G|-2---2--2--2---2---2--2--2---2---2---|-0---0--0--0---0---0--0--0---0---0---|-0---0--0--0---0---0--0--0---0---0---|
D|-0---0--0--0---0---0--0--0---0---0---|-0---0--0--0---0---0--0--0---0---0---|-2---2--2--2---2---2--2--2---2---2---|
A|-0---0--0--0---0---0--0--0---0---0---|-2---2--2--2---2---2--2--2---2---2---|-3---3--3--3---3---3--3--3---3---3---|
E|-2---2--2--2---2---2--2--2---2---2---|-3---3--3--3---3---3--3--3---3---3---|-------------------------------------|


E|-3---3--3--3---3---3--3--3---3---3---|-2---2--2--2---2---2--2--2---2---2---|--------|
B|-3---3--3--3---3---3--3--3---3---3---|-3---3--3--3---3---3--3--3---3---3---|--------|
G|-0---0--0--0---0---0--0--0---0---0---|-2---2--2--2---2---2--2--2---2---2---|--------|
D|-0---0--0--0---0---0--0--0---0---0---|-0---0--0--0---0---0--0--0---0---0---|--------|
A|-2---2--2--2---2---2--2--2---2---2---|-0---0--0--0---0---0--0--0---0---0---|--------|
E|-3---3--3--3---3---3--3--3---3---3---|-2---2--2--2---2---2--2--2---2---2---|--------|


E|--------|--------|--------|--------|--------|--------|--------|--------|--------|
B|--------|--------|--------|--------|--------|--------|--------|--------|--------|
G|--------|--------|--------|--------|--------|--------|--------|--------|--------|
D|--------|--------|--------|--------|--------|--------|--------|--------|--------|
A|--------|--------|--------|--------|--------|--------|--------|--------|--------|
E|--------|--------|--------|--------|--------|--------|--------|--------|--------|


E|--------|--------|----3--3---3---3--3--3---3---3---3---|-3--3--3---3---3--3--3---3---3---3---|
B|--------|--------|----3--3---3---3--3--3---3---3---3---|-3--3--3---3---3--3--3---3---3---3---|
G|--------|--------|----0--0---0---0--0--0---0---0---0---|-0--0--0---0---0--0--0---0---0---0---|
D|--------|--------|----0--0---0---0--0--0---0---0---2---|-0--0--0---0---0--0--0---0---0---0---|
A|--------|--------|----2--2---2---2--2--2---2---2---3---|-3--2--2---2---2--2--2---2---2---2---|
E|--------|--------|----3--3---3---3--3--3---3---3-------|-3--3--3---3---3--3--3---3---3---3---|


E|-3--3--3---3---3--3--3---3---3---3---|-3------|--------|--------|--------|--------|
B|-3--3--3---3---3--3--3---3---3---3---|-3------|--------|--------|--------|--------|
G|-0--0--0---0---0--0--0---0---0---0---|-0------|--------|--------|--------|--------|
D|-0--0--0---0---0--0--0---0---0---0---|-0------|--------|--------|--------|--------|
A|-2--2--2---2---2--2--2---2---2---2---|-2------|--------|--------|--------|--------|
E|-3--3--3---3---3--3--3---3---3---3---|-3------|--------|--------|--------|--------|


E|--------|--------|--------|--------|--------|--------|--------|--------|--------|
B|--------|--------|--------|--------|--------|--------|--------|--------|--------|
G|--------|--------|--------|--------|--------|--------|--------|--------|--------|
D|--------|--------|--------|--------|--------|--------|--------|--------|--------|
A|--------|--------|--------|--------|--------|--------|--------|--------|--------|
E|--------|--------|--------|--------|--------|--------|--------|--------|--------|


E|--------|--------|--------|--------|--------|--------|--------|--------|--------|
B|--------|--------|--------|--------|--------|--------|--------|--------|--------|
G|--------|--------|--------|--------|--------|--------|--------|--------|--------|
D|--------|--------|--------|--------|--------|--------|--------|--------|--------|
A|--------|--------|--------|--------|--------|--------|--------|--------|--------|
E|--------|--------|--------|--------|--------|--------|--------|--------|--------|


E|--------|--------|--------|--------|--------|--------|--------|--------|--------|
B|--------|--------|--------|--------|--------|--------|--------|--------|--------|
G|--------|--------|--------|--------|--------|--------|--------|--------|--------|
D|--------|--------|--------|--------|--------|--------|--------|--------|--------|
A|--------|--------|--------|--------|--------|--------|--------|--------|--------|
E|--------|--------|--------|--------|--------|--------|--------|--------|--------|





Track 3: Keyboard 1

E|--------|--------|--------|--------|--------|--------|--------|--------|--------|
B|--------|--------|--------|--------|--------|--------|--------|--------|--------|
G|--------|--------|--------|--------|--------|--------|--------|--------|--------|
D|--------|--------|--------|--------|--------|--------|--------|--------|--------|
A|--------|--------|--------|--------|--------|--------|--------|--------|--------|
E|--------|--------|--------|--------|--------|--------|--------|--------|--------|


E|--------|--------|--------|--------|--------|--------|--------|--------|--------|
B|--------|--------|--------|--------|--------|--------|--------|--------|--------|
G|--------|--------|--------|--------|--------|--------|--------|--------|--------|
D|--------|--------|--------|--------|--------|--------|--------|--------|--------|
A|--------|--------|--------|--------|--------|--------|--------|--------|--------|
E|--------|--------|--------|--------|--------|--------|--------|--------|--------|


E|--------|--------|--------|--------|--------|--------|--------|--------|--------|
B|--------|--------|--------|--------|--------|--------|--------|--------|--------|
G|--------|--------|--------|--------|--------|--------|--------|--------|--------|
D|--------|--------|--------|--------|--------|--------|--------|--------|--------|
A|--------|--------|--------|--------|--------|--------|--------|--------|--------|
E|--------|--------|--------|--------|--------|--------|--------|--------|--------|


E|--------|--------|--------|--------|--------|--------|--------|--------|--------|
B|--------|--------|--------|--------|--------|--------|--------|--------|--------|
G|--------|--------|--------|--------|--------|--------|--------|--------|--------|
D|--------|--------|--------|--------|--------|--------|--------|--------|--------|
A|--------|--------|--------|--------|--------|--------|--------|--------|--------|
E|--------|--------|--------|--------|--------|--------|--------|--------|--------|


E|--------|--------|--------|--------|--------|--------|--------|--------|--------|
B|--------|--------|--------|--------|--------|--------|--------|--------|--------|
G|--------|--------|--------|--------|--------|--------|--------|--------|--------|
D|--------|--------|--------|--------|--------|--------|--------|--------|--------|
A|--------|--------|--------|--------|--------|--------|--------|--------|--------|
E|--------|--------|--------|--------|--------|--------|--------|--------|--------|


E|--------|--------|--------|--------|--------|--------|--------|----------------------|
B|--------|--------|--------|--------|--------|--------|--------|-------3----3----3----|
G|--------|--------|--------|--------|--------|--------|--------|-------4----4----4----|
D|--------|--------|--------|--------|--------|--------|--------|-------5----5----5----|
A|--------|--------|--------|--------|--------|--------|--------|----------------------|
E|--------|--------|--------|--------|--------|--------|--------|----------------------|


E|--------|--------|-0---0---0---0---2--3--2--0--14-15-14-12-|-------------------------------------------------|
B|--------|--------|-1---1---1---1---2--2--2--2--14-14-14-14-|-3---3---3---3---3---3---3---3---3---3---3---3---|
G|--------|--------|-----------------------------------------|-4---4---4---4---4---4---4---4---4---4---4---4---|
D|--------|--------|-----------------------------------------|-5---5---5---5---5---5---5---5---5---5---5---5---|
A|--------|--------|-----------------------------------------|-------------------------------------------------|
E|--------|--------|-----------------------------------------|-------------------------------------------------|


E|-------------------------------------------------|-------------------------------------------------|
B|-3---3---3---3---3---3---5---3---3---5---3---3---|-3---3---3---3---3---3---3---3---3---3---3---3---|
G|-4---4---4---4---4---4---4---4---4---4---4---4---|-4---4---4---4---4---4---4---4---4---4---4---4---|
D|-5---5---5---5---5---5---5---5---5---5---5---5---|-5---5---5---5---5---5---5---5---5---5---5---5---|
A|-------------------------------------------------|-------------------------------------------------|
E|-------------------------------------------------|-------------------------------------------------|


E|-------------------------------------------------|-------------------------------------------------|
B|-3---3---3---3---3---3---5---3---3---5---3---3---|-3---3---3---3---3---3---3---3---3---3---3---3---|
G|-4---4---4---4---4---4---4---4---4---4---4---4---|-4---4---4---4---4---4---4---4---4---4---4---4---|
D|-5---5---5---5---5---5---5---5---5---5---5---5---|-5---5---5---5---5---5---5---5---5---5---5---5---|
A|-------------------------------------------------|-------------------------------------------------|
E|-------------------------------------------------|-------------------------------------------------|


E|-------------------------------------------------|-3------|-3------|--------|--------|
B|-3---3---3---3---3---3---5---3---3---5---3---3---|-3------|-3------|--------|--------|
G|-4---4---4---4---4---4---4---4---4---4---4---4---|-0------|-0------|--------|--------|
D|-5---5---5---5---5---5---5---5---5---5---5---5---|-0------|-0------|--------|--------|
A|-------------------------------------------------|-2------|-2------|--------|--------|
E|-------------------------------------------------|-3------|-3------|--------|--------|


E|--------|--------|--------|--------|--------|--------|--------|--------|--------|
B|--------|--------|--------|--------|--------|--------|--------|--------|--------|
G|--------|--------|--------|--------|--------|--------|--------|--------|--------|
D|--------|--------|--------|--------|--------|--------|--------|--------|--------|
A|--------|--------|--------|--------|--------|--------|--------|--------|--------|
E|--------|--------|--------|--------|--------|--------|--------|--------|--------|


E|--------|--------|--------|--------|--------|--------|--------|--------|--------|
B|--------|--------|--------|--------|--------|--------|--------|--------|--------|
G|--------|--------|--------|--------|--------|--------|--------|--------|--------|
D|--------|--------|--------|--------|--------|--------|--------|--------|--------|
A|--------|--------|--------|--------|--------|--------|--------|--------|--------|
E|--------|--------|--------|--------|--------|--------|--------|--------|--------|


E|--------|--------|--------|-3--3-1-0-1-0---0-------------------3-5-7-5-3-1-0---------------|
B|--------|--------|--------|--------------3---3-1-3-1-0-1-3---1---------------3-1-0---------|
G|--------|--------|--------|--------------------------------0-----------------------2-0-----|
D|--------|--------|--------|------------------------------------------------------------3-2-|
A|--------|--------|--------|----------------------------------------------------------------|
E|--------|--------|--------|----------------------------------------------------------------|


E|-3-5-3-1-3-5-3-1-0-1-3-5-3-1-0-----------------------------0-3-5-|-3-0-1-0---------------------------------------------------------|
B|-------------------------------3-1-3-5-3-1-0-----0---1-0-3-------|---------3-1-----------------------------------------------------|
G|---------------------------------------------2-0---2-------------|-------------2-0-------------------------------------------------|
D|-----------------------------------------------------------------|-----------------3-2-0-----------------------3-2-0---------------|
A|-----------------------------------------------------------------|-----------------------3-2-0-----------0-2-3-------3-2-0---------|
E|-----------------------------------------------------------------|-----------------------------3-1-0-1-3-------------------3-1-0-1-|


E|---------------------------------3-0-1-0---------15121312--------|-15------15----------152715----------152715----------------------|
B|-----------------------------------------3-1-0-----------151312--|---15------15------15------15------15------15--------------------|
G|-0-2-4-----------------------------------------0---------------12|-----12------12--12----------12--12----------12------------------|
D|-------3-5-7-----5-------------5---------------------------------|-------12------12--------------12--------------12109-------------|
A|-------------7-8---5-7-8-----7-----------------------------------|-----------------------------------------------------12108-7-5-3-|
E|-------------------------8-10------------------------------------|-----------------------------------------------------------------|


E|---------15--------------15--------------152715------------------|-15------15----------152715----------152715----------------------|
B|-------15--15----------15--15----------15------15----------------|---15------15------15------15------15------15--------------------|
G|-----12------12------12------12------12----------12--------------|-----12------12--12----------12--12----------12------------------|
D|---14----------14--14----------14--14--------------14----------15|-------12------12--------------12--------------12109-------------|
A|-15--------------15--------------15------------------15----1517--|-----------------------------------------------------12108-7-5-3-|
E|-------------------------------------------------------1517------|-----------------------------------------------------------------|


E|---------15--------------15--------------152715------------------|-12----------12----------12------12----------122412----------1224|
B|-------15--15----------15--15----------15------15----------------|---13----------13----------13--13--13------13------13------13----|
G|-----12------12------12------12------12----------12--------------|-----12----------12----------12------12--12----------12--12------|
D|---14----------14--14----------14--14--------------14----------15|-------14----------14------------------14--------------14--------|
A|-15--------------15--------------15------------------15----1517--|---------15----------15------------------------------------------|
E|-------------------------------------------------------1517------|-----------12----------12----------------------------------------|


E|-0-------------------0-12------------------1224------------------|-3-----------15----------3-----------15--------------------------|
B|---0---------------0-----12--------------12----24--------------24|---3-----------15----------3-----------15------------------------|
G|-----0-----------0---------12----------12--------24----------24--|-----0-----------12----------0-----------12----------------141719|
D|-------2-------2-------------14------14------------26------26----|-------0-----------12----------0-----------12----------1517------|
A|---------2---2-----------------14--14----------------26--26------|---------2-----------14----------2-----------14----1517----------|
E|-----------0---------------------12--------------------24--------|-----------3-----------15----------3-----------1517--------------|


E|-3-------------------3-------------------3---------------3-------|-15--------------15--------------15--------------15--------------|
B|---3---------------3---3---------------3---3-----------3---3-----|---15--------------15--------------15--------------15------------|
G|-----0-----------0-------0-----------0-------0-------0-------0---|-----12--------------12--------------12--------------12----------|
D|-------0-------0-----------0-------2-----------2---2-----------2-|-------12------12------12------12------12------12------12------12|
A|---------2---2---------------2---3---------------3---------------|---------14--14----------14--14----------14--14----------14--14--|
E|-----------3-------------------3---------------------------------|-----------15--------------15--------------15--------------15----|


E|-3---------------3---------------3---------------3---------------|-3--3--3--3--3--3--3--3--3--3--3--3--3--3--3--3--|
B|---3---------------3---------------3---------------3-------------|-------------------------------------------------|
G|-----0---------------0---------------0---------------0-----------|-------------------------------------------------|
D|-------0-------0-------0-------0-------0-------0-------0-------0-|-------------------------------------------------|
A|---------2---2-----------2---2-----------2---2-----------2---2---|-------------------------------------------------|
E|-----------3---------------3---------------3---------------3-----|-------------------------------------------------|


E|-15-----|--------|--------|--------|--------|--------|--------|--------|--------|
B|--------|--------|--------|--------|--------|--------|--------|--------|--------|
G|--------|--------|--------|--------|--------|--------|--------|--------|--------|
D|--------|--------|--------|--------|--------|--------|--------|--------|--------|
A|--------|--------|--------|--------|--------|--------|--------|--------|--------|
E|--------|--------|--------|--------|--------|--------|--------|--------|--------|


E|--------|--------|--------|--------|--------|--------|--------|--------|--------|
B|--------|--------|--------|--------|--------|--------|--------|--------|--------|
G|--------|--------|--------|--------|--------|--------|--------|--------|--------|
D|--------|--------|--------|--------|--------|--------|--------|--------|--------|
A|--------|--------|--------|--------|--------|--------|--------|--------|--------|
E|--------|--------|--------|--------|--------|--------|--------|--------|--------|


E|--------|--------|--------|--------|--------|--------|--------|--------|-3---------3---------|
B|--------|--------|--------|--------|--------|--------|--------|--------|-3---------3---------|
G|--------|--------|--------|--------|--------|--------|--------|--------|-0---------0---------|
D|--------|--------|--------|--------|--------|--------|--------|--------|-0----0----2----0----|
A|--------|--------|--------|--------|--------|--------|--------|--------|-2---------3---------|
E|--------|--------|--------|--------|--------|--------|--------|--------|-3-------------------|


E|-2---------5----2----|-0--------------0-------|-2------|-3------|-3------|
B|-3-------------------|-0------------------0---|-3------|-3------|-3------|
G|-2-------------------|-0---------0------------|-2------|-0------|-0------|
D|-0----0--------------|-2----2-----------------|-0------|-0------|-0------|
A|---------------------|-2----------------------|-0------|-2------|-2------|
E|---------------------|-0----------------------|-2------|-3------|-3------|





Track 4: Keyboard 2

E|--------|--------|--------|--------|--------|--------|--------|--------|--------|
B|--------|--------|--------|--------|--------|--------|--------|--------|--------|
G|--------|--------|--------|--------|--------|--------|--------|--------|--------|
D|--------|--------|--------|--------|--------|--------|--------|--------|--------|
A|--------|--------|--------|--------|--------|--------|--------|--------|--------|
E|--------|--------|--------|--------|--------|--------|--------|--------|--------|


E|--------|--------|--------|--------|--------|--------|--------|--------|--------|
B|--------|--------|--------|--------|--------|--------|--------|--------|--------|
G|--------|--------|--------|--------|--------|--------|--------|--------|--------|
D|--------|--------|--------|--------|--------|--------|--------|--------|--------|
A|--------|--------|--------|--------|--------|--------|--------|--------|--------|
E|--------|--------|--------|--------|--------|--------|--------|--------|--------|


E|--------|--------|--------|--------|--------|--------|--------|--------|--------|
B|--------|--------|--------|--------|--------|--------|--------|--------|--------|
G|--------|--------|--------|--------|--------|--------|--------|--------|--------|
D|--------|--------|--------|--------|--------|--------|--------|--------|--------|
A|--------|--------|--------|--------|--------|--------|--------|--------|--------|
E|--------|--------|--------|--------|--------|--------|--------|--------|--------|


E|--------|--------|--------|--------|--------|--------|--------|--------|--------|
B|--------|--------|--------|--------|--------|--------|--------|--------|--------|
G|--------|--------|--------|--------|--------|--------|--------|--------|--------|
D|--------|--------|--------|--------|--------|--------|--------|--------|--------|
A|--------|--------|--------|--------|--------|--------|--------|--------|--------|
E|--------|--------|--------|--------|--------|--------|--------|--------|--------|


E|--------|--------|--------|--------|--------|--------|--------|--------|--------|
B|--------|--------|--------|--------|--------|--------|--------|--------|--------|
G|--------|--------|--------|--------|--------|--------|--------|--------|--------|
D|--------|--------|--------|--------|--------|--------|--------|--------|--------|
A|--------|--------|--------|--------|--------|--------|--------|--------|--------|
E|--------|--------|--------|--------|--------|--------|--------|--------|--------|


E|--------|--------|--------|--------|--------|--------|--------|-3------|-3------|
B|--------|--------|--------|--------|--------|--------|--------|-3------|-3------|
G|--------|--------|--------|--------|--------|--------|--------|-0------|-0------|
D|--------|--------|--------|--------|--------|--------|--------|-0------|-2------|
A|--------|--------|--------|--------|--------|--------|--------|-2------|-3------|
E|--------|--------|--------|--------|--------|--------|--------|-3------|--------|


E|-0------|-0-----2-----|-3------|--------|-3------|--------|-3------|--------|--------|
B|-0------|-1-----3-----|-3------|-3------|-3------|-3------|-3------|-3------|--------|
G|-0------|-0-----2-----|-0------|-4------|-0------|-4------|-0------|-4------|--------|
D|-2------|-2-----0-----|-0------|-5------|-0------|-5------|-0------|-5------|--------|
A|-2------|-3-----0-----|-2------|--------|-2------|--------|-2------|--------|--------|
E|-0------|-0-----2-----|-3------|--------|-3------|--------|-3------|--------|--------|


E|--------|--------|--------|--------|--------|--------|--------|--------|--------|
B|--------|--------|--------|--------|--------|--------|--------|--------|--------|
G|--------|--------|--------|--------|--------|--------|--------|--------|--------|
D|--------|--------|--------|--------|--------|--------|--------|--------|--------|
A|--------|--------|--------|--------|--------|--------|--------|--------|--------|
E|--------|--------|--------|--------|--------|--------|--------|--------|--------|


E|--------|--------|--------|--------|--------|--------|--------|--------|--------|
B|--------|--------|--------|--------|--------|--------|--------|--------|--------|
G|--------|--------|--------|--------|--------|--------|--------|--------|--------|
D|--------|--------|--------|--------|--------|--------|--------|--------|--------|
A|--------|--------|--------|--------|--------|--------|--------|--------|--------|
E|--------|--------|--------|--------|--------|--------|--------|--------|--------|


E|--------|--------|--------|--------|--------|--------|-3------|-3------|-3------|
B|--------|--------|--------|--------|--------|--------|-3------|-3------|-3------|
G|--------|--------|--------|--------|--------|--------|-0------|-0------|-0------|
D|--------|--------|--------|--------|--------|--------|-0------|-2------|-0------|
A|--------|--------|--------|--------|--------|--------|-2------|-3------|-2------|
E|--------|--------|--------|--------|--------|--------|-3------|--------|-3------|


E|-3------|-3------|-3------|-3------|-3------|-0------|-0------|-3-----3-----|-3-----3-----|
B|-3------|-3------|-3------|-3------|-3------|-1------|-0------|-3-----3-----|-3-----3-----|
G|-0------|-0------|-0------|-0------|-0------|-0------|-0------|-0-----0-----|-0-----0-----|
D|-0------|-0------|-2------|-0------|-2------|-2------|-2------|-0-----2-----|-0-----2-----|
A|-2------|-2------|-3------|-2------|-3------|-3------|-2------|-2-----3-----|-2-----3-----|
E|-3------|-3------|--------|-3------|--------|-0------|-0------|-3-----------|-3-----------|


E|-3------|-3------|-3------|-3------|--------|--------|--------|--------|--------|
B|-3------|-3------|-3------|-3------|--------|--------|--------|--------|--------|
G|-0------|-0------|-0------|-0------|--------|--------|--------|--------|--------|
D|-0------|-0------|-0------|-0------|--------|--------|--------|--------|--------|
A|-2------|-2------|-2------|-2------|--------|--------|--------|--------|--------|
E|-3------|-3------|-3------|-3------|--------|--------|--------|--------|--------|


E|--------|--------|--------|--------|--------|--------|--------|--------|--------|
B|--------|--------|--------|--------|--------|--------|--------|--------|--------|
G|--------|--------|--------|--------|--------|--------|--------|--------|--------|
D|--------|--------|--------|--------|--------|--------|--------|--------|--------|
A|--------|--------|--------|--------|--------|--------|--------|--------|--------|
E|--------|--------|--------|--------|--------|--------|--------|--------|--------|


E|--------|--------|--------|--------|--------|--------|--------|--------|--------|
B|--------|--------|--------|--------|--------|--------|--------|--------|--------|
G|--------|--------|--------|--------|--------|--------|--------|--------|--------|
D|--------|--------|--------|--------|--------|--------|--------|--------|--------|
A|--------|--------|--------|--------|--------|--------|--------|--------|--------|
E|--------|--------|--------|--------|--------|--------|--------|--------|--------|


E|--------|--------|--------|--------|--------|--------|--------|--------|
B|--------|--------|--------|--------|--------|--------|--------|--------|
G|--------|--------|--------|--------|--------|--------|--------|--------|
D|--------|--------|--------|--------|--------|--------|--------|--------|
A|--------|--------|--------|--------|--------|--------|--------|--------|
E|--------|--------|--------|--------|--------|--------|--------|--------|





Track 5: Distortion Guitar 1

E|--------|--------|--------|--------|--------|--------|--------|--------|--------|
B|--------|--------|--------|--------|--------|--------|--------|--------|--------|
G|--------|--------|--------|--------|--------|--------|--------|--------|--------|
D|--------|--------|--------|--------|--------|--------|--------|--------|--------|
A|--------|--------|--------|--------|--------|--------|--------|--------|--------|
E|--------|--------|--------|--------|--------|--------|--------|--------|--------|


E|--------|--------|--------|--------|--------|--------|--------|--------|--------|
B|--------|--------|--------|--------|--------|--------|--------|--------|--------|
G|--------|--------|--------|--------|--------|--------|--------|--------|--------|
D|--------|--------|--------|--------|--------|--------|--------|--------|--------|
A|--------|--------|--------|--------|--------|--------|--------|--------|--------|
E|--------|--------|--------|--------|--------|--------|--------|--------|--------|


E|--------|--------|--------|--------|--------|--------|--------|--------|--------|
B|--------|--------|--------|--------|--------|--------|--------|--------|--------|
G|--------|--------|--------|--------|--------|--------|--------|--------|--------|
D|--------|--------|--------|--------|--------|--------|--------|--------|--------|
A|--------|--------|--------|--------|--------|--------|--------|--------|--------|
E|--------|--------|--------|--------|--------|--------|--------|--------|--------|


E|--------|--------|--------|--------|--------|--------|--------|--------|--------|
B|--------|--------|--------|--------|--------|--------|--------|--------|--------|
G|--------|--------|--------|--------|--------|--------|--------|--------|--------|
D|--------|--------|--------|--------|--------|--------|--------|--------|--------|
A|--------|--------|--------|--------|--------|--------|--------|--------|--------|
E|--------|--------|--------|--------|--------|--------|--------|--------|--------|


E|--------|--------|--------|--------|--------|--------|--------|--------|--------|
B|--------|--------|--------|--------|--------|--------|--------|--------|--------|
G|--------|--------|--------|--------|--------|--------|--------|--------|--------|
D|--------|--------|--------|--------|--------|--------|--------|--------|--------|
A|--------|--------|--------|--------|--------|--------|--------|--------|--------|
E|--------|--------|--------|--------|--------|--------|--------|--------|--------|


E|--------|--------|--------|--------|--------|--------|--------|--------|--------|
B|--------|--------|--------|--------|--------|--------|--------|--------|--------|
G|--------|--------|--------|--------|--------|--------|--------|--------|--------|
D|--------|--------|--------|--------|--------|--------|--------|--------|--------|
A|--------|--------|--------|--------|--------|--------|--------|--------|--------|
E|--------|--------|--------|--------|--------|--------|--------|--------|--------|


E|--------|--------|--------|--------|--------|--------|--------|--------|--------|
B|--------|--------|--------|--------|--------|--------|--------|--------|--------|
G|--------|--------|--------|--------|--------|--------|--------|--------|--------|
D|--------|--------|--------|--------|--------|--------|--------|--------|--------|
A|--------|--------|--------|--------|--------|--------|--------|--------|--------|
E|--------|--------|--------|--------|--------|--------|--------|--------|--------|


E|--------|-7-----8-----|-12-----|-20-----|------------------------3---3--5--8--7--10-|
B|--------|-------------|--------|--------|-8---8--10-12-10-8--10---------------------|
G|--------|-------------|--------|--------|-------------------------------------------|
D|--------|-------------|--------|--------|-------------------------------------------|
A|--------|-------------|--------|--------|-------------------------------------------|
E|--------|-------------|--------|--------|-------------------------------------------|


E|--------|------------------------3---3--5--8--7--7--|--------|-3--5--7--3--5--8--3--5--7--3--5--0--3--5--7--5--|
B|--------|-8---8--10-12-10-8--10---------------------|--------|-------------------------------------------------|
G|--------|-------------------------------------------|--------|-------------------------------------------------|
D|--------|-------------------------------------------|--------|-------------------------------------------------|
A|--------|-------------------------------------------|--------|-------------------------------------------------|
E|--------|-------------------------------------------|--------|-------------------------------------------------|


E|-3--5--7--3--5--7--3--5--7--3--5--7--3--5--7--5--|-3--5--7--3--5--7--3--5--7--3--5--7--3--5--7--5--|
B|-------------------------------------------------|-------------------------------------------------|
G|-------------------------------------------------|-------------------------------------------------|
D|-------------------------------------------------|-------------------------------------------------|
A|-------------------------------------------------|-------------------------------------------------|
E|-------------------------------------------------|-------------------------------------------------|


E|-2--3--5--3--2--3--5--3--2--3--5--3--2--3--5--3--|-12--12--12--12--12----12--|-12--12--12--12--12----12--|
B|-------------------------------------------------|---------------------------|---------------------------|
G|-------------------------------------------------|---------------------------|---------------------------|
D|-------------------------------------------------|---------------------------|---------------------------|
A|-------------------------------------------------|---------------------------|---------------------------|
E|-------------------------------------------------|---------------------------|---------------------------|


E|-15-15-15-15-15-15-15-15-15-15-15-15-15-15-15-15-|-3-----15----|-15---15---15---15---|
B|-15-15-15-15-15-15-15-15-15-15-15-15-15-15-15-15-|-3-----------|-15---15---15---15---|
G|-------------------------------------------------|-------------|-12---12---12---12---|
D|-------------------------------------------------|-------------|-12---12---12---12---|
A|-------------------------------------------------|-------------|-14---14---14---14---|
E|-------------------------------------------------|-------------|-15---15---15---15---|


E|-15---15---15---15---|-15---15---15---15---|-14---14---14---14---|-15---15---15---15---|
B|-15---15---15---15---|-15---15---15---15---|-15---15---15---15---|-15---15---15---15---|
G|-12---12---12---12---|-12---12---12---12---|-14---14---14---14---|-12---12---12---12---|
D|-14---14---14---14---|-12---12---12---12---|-12---12---12---12---|-12---12---12---12---|
A|-15---15---15---15---|-14---14---14---14---|-12---12---12---12---|-14---14---14---14---|
E|---------------------|-15---15---15---15---|-14---14---14---14---|-15---15---15---15---|


E|-15---15---15---15---|-15---15---15---15---|-14---14---14---14---|--------|--------|
B|-15---15---15---15---|-15---15---15---15---|-15---15---15---15---|--------|--------|
G|-12---12---12---12---|-12---12---12---12---|-14---14---14---14---|--------|--------|
D|-14---14---14---14---|-12---12---12---12---|-12---12---12---12---|--------|--------|
A|-15---15---15---15---|-14---14---14---14---|-12---12---12---12---|--------|--------|
E|---------------------|-15---15---15---15---|-14---14---14---14---|--------|--------|


E|--------|--------|--------|--------|--------|--------|--------|--------|--------|
B|--------|--------|--------|--------|--------|--------|--------|--------|--------|
G|--------|--------|--------|--------|--------|--------|--------|--------|--------|
D|--------|--------|--------|--------|--------|--------|--------|--------|--------|
A|--------|--------|--------|--------|--------|--------|--------|--------|--------|
E|--------|--------|--------|--------|--------|--------|--------|--------|--------|


E|--------|--------|--------|--------|--------|--------|--------|--------|--------|
B|--------|--------|--------|--------|--------|--------|--------|--------|--------|
G|--------|--------|--------|--------|--------|--------|--------|--------|--------|
D|--------|--------|--------|--------|--------|--------|--------|--------|--------|
A|--------|--------|--------|--------|--------|--------|--------|--------|--------|
E|--------|--------|--------|--------|--------|--------|--------|--------|--------|


E|--------|-----------------------|--------|--------|-0------|-3-----3---5---8---7---|
B|--------|-----------------------|--------|--------|-1------|-----------------------|
G|--------|-----------------------|--------|--------|-0------|-----------------------|
D|--------|-----------------------|--------|--------|-2------|-----------------------|
A|--------|-----------------------|--------|-10-----|-3------|-----------------------|
E|--------|-3-----3---5---8---7---|-8------|--------|-0------|-----------------------|


E|-8------|-15-----|-12-----|--------|--------|--------|--------|--------|--------|
B|--------|--------|-13-----|--------|--------|--------|--------|--------|--------|
G|--------|--------|-12-----|--------|--------|--------|--------|--------|--------|
D|--------|--------|-14-----|--------|--------|--------|--------|--------|--------|
A|--------|--------|-15-----|--------|--------|--------|--------|--------|--------|
E|--------|--------|-12-----|--------|--------|--------|--------|--------|--------|


E|--------|--------|--------|--------|--------|--------|--------|--------|--------|
B|--------|--------|--------|--------|--------|--------|--------|--------|--------|
G|--------|--------|--------|--------|--------|--------|--------|--------|--------|
D|--------|--------|--------|--------|--------|--------|--------|--------|--------|
A|--------|--------|--------|--------|--------|--------|--------|--------|--------|
E|--------|--------|--------|--------|--------|--------|--------|--------|--------|


E|--------|--------|--------|
B|--------|--------|--------|
G|--------|--------|--------|
D|--------|--------|--------|
A|--------|--------|--------|
E|--------|--------|--------|





Track 6: Distortion Guitar 2

E|--------|--------|--------|--------|--------|--------|--------|--------|--------|
B|--------|--------|--------|--------|--------|--------|--------|--------|--------|
G|--------|--------|--------|--------|--------|--------|--------|--------|--------|
D|--------|--------|--------|--------|--------|--------|--------|--------|--------|
A|--------|--------|--------|--------|--------|--------|--------|--------|--------|
E|--------|--------|--------|--------|--------|--------|--------|--------|--------|


E|--------|--------|--------|--------|--------|--------|--------|--------|--------|
B|--------|--------|--------|--------|--------|--------|--------|--------|--------|
G|--------|--------|--------|--------|--------|--------|--------|--------|--------|
D|--------|--------|--------|--------|--------|--------|--------|--------|--------|
A|--------|--------|--------|--------|--------|--------|--------|--------|--------|
E|--------|--------|--------|--------|--------|--------|--------|--------|--------|


E|--------|--------|--------|--------|--------|--------|--------|--------|--------|
B|--------|--------|--------|--------|--------|--------|--------|--------|--------|
G|--------|--------|--------|--------|--------|--------|--------|--------|--------|
D|--------|--------|--------|--------|--------|--------|--------|--------|--------|
A|--------|--------|--------|--------|--------|--------|--------|--------|--------|
E|--------|--------|--------|--------|--------|--------|--------|--------|--------|


E|--------|--------|--------|--------|--------|--------|--------|--------|--------|
B|--------|--------|--------|--------|--------|--------|--------|--------|--------|
G|--------|--------|--------|--------|--------|--------|--------|--------|--------|
D|--------|--------|--------|--------|--------|--------|--------|--------|--------|
A|--------|--------|--------|--------|--------|--------|--------|--------|--------|
E|--------|--------|--------|--------|--------|--------|--------|--------|--------|


E|--------|--------|--------|--------|--------|--------|--------|--------|--------|
B|--------|--------|--------|--------|--------|--------|--------|--------|--------|
G|--------|--------|--------|--------|--------|--------|--------|--------|--------|
D|--------|--------|--------|--------|--------|--------|--------|--------|--------|
A|--------|--------|--------|--------|--------|--------|--------|--------|--------|
E|--------|--------|--------|--------|--------|--------|--------|--------|--------|


E|--------|--------|--------|--------|--------|--------|--------|--------|--------|
B|--------|--------|--------|--------|--------|--------|--------|--------|--------|
G|--------|--------|--------|--------|--------|--------|--------|--------|--------|
D|--------|--------|--------|--------|--------|--------|--------|--------|--------|
A|--------|--------|--------|--------|--------|--------|--------|--------|--------|
E|--------|--------|--------|--------|--------|--------|--------|--------|--------|


E|--------|--------|--------|--------|--------|--------|--------|--------|--------|
B|--------|--------|--------|--------|--------|--------|--------|--------|--------|
G|--------|--------|--------|--------|--------|--------|--------|--------|--------|
D|--------|--------|--------|--------|--------|--------|--------|--------|--------|
A|--------|--------|--------|--------|--------|--------|--------|--------|--------|
E|--------|--------|--------|--------|--------|--------|--------|--------|--------|


E|--------|-3-----5-----|-8------|-17-----|-3------|--------|-3------|--------|-3------|
B|--------|-------------|--------|--------|-3------|--------|-3------|--------|-3------|
G|--------|-------------|--------|--------|-0------|--------|-0------|--------|-0------|
D|--------|-------------|--------|--------|-0------|--------|-0------|--------|-0------|
A|--------|-------------|--------|--------|-2------|--------|-2------|--------|-2------|
E|--------|-------------|--------|--------|-3------|--------|-3------|--------|-3------|


E|-3------|-3------|-2------|-0------|-0------|-3------|-3------|-3------|-3------|
B|-3------|-3------|-3------|-1------|-0------|-3------|-3------|-3------|-3------|
G|-0------|-0------|-2------|-0------|-0------|-0------|-0------|-0------|-0------|
D|-2------|-0------|-0------|-2------|-2------|-0------|-0------|-0------|-2------|
A|-3------|-2------|-0------|-3------|-2------|-2------|-2------|-2------|-3------|
E|--------|-3------|-2------|-0------|-0------|-3------|-3------|-3------|--------|


E|-3------|-2------|-3------|-3------|-3------|-2------|--------|--------|--------|
B|-3------|-3------|-3------|-3------|-3------|-3------|--------|--------|--------|
G|-0------|-2------|-0------|-0------|-0------|-2------|--------|--------|--------|
D|-0------|-0------|-0------|-2------|-0------|-0------|--------|--------|--------|
A|-2------|-0------|-2------|-3------|-2------|-0------|--------|--------|--------|
E|-3------|-2------|-3------|--------|-3------|-2------|--------|--------|--------|


E|--------|--------|--------|--------|--------|--------|--------|--------|--------|
B|--------|--------|--------|--------|--------|--------|--------|--------|--------|
G|--------|--------|--------|--------|--------|--------|--------|--------|--------|
D|--------|--------|--------|--------|--------|--------|--------|--------|--------|
A|--------|--------|--------|--------|--------|--------|--------|--------|--------|
E|--------|--------|--------|--------|--------|--------|--------|--------|--------|


E|--------|--------|--------|--------|--------|--------|--------|--------|--------|
B|--------|--------|--------|--------|--------|--------|--------|--------|--------|
G|--------|--------|--------|--------|--------|--------|--------|--------|--------|
D|--------|--------|--------|--------|--------|--------|--------|--------|--------|
A|--------|--------|--------|--------|--------|--------|--------|--------|--------|
E|--------|--------|--------|--------|--------|--------|--------|--------|--------|


E|--------|--------|--------|--------|--------|--------|--------|--------|--------|
B|--------|--------|--------|--------|--------|--------|--------|--------|--------|
G|--------|--------|--------|--------|--------|--------|--------|--------|--------|
D|--------|--------|--------|--------|--------|--------|--------|--------|--------|
A|--------|--------|--------|--------|--------|--------|--------|--------|--------|
E|--------|--------|--------|--------|--------|--------|--------|--------|--------|


E|--------|--------|--------|--------|--------|--------|--------|--------|--------|
B|--------|--------|--------|--------|--------|--------|--------|--------|--------|
G|--------|--------|--------|--------|--------|--------|--------|--------|--------|
D|--------|--------|--------|--------|--------|--------|--------|--------|--------|
A|--------|--------|--------|--------|--------|--------|--------|--------|--------|
E|--------|--------|--------|--------|--------|--------|--------|--------|--------|


E|--------|--------|--------|--------|--------|--------|--------|--------|
B|--------|--------|--------|--------|--------|--------|--------|--------|
G|--------|--------|--------|--------|--------|--------|--------|--------|
D|--------|--------|--------|--------|--------|--------|--------|--------|
A|--------|--------|--------|--------|--------|--------|--------|--------|
E|--------|--------|--------|--------|--------|--------|--------|--------|





Track 7: Acoustic Guitar

E|--------|--------|--------|--------|--------|--------|--------|--------|--------|
B|--------|--------|--------|--------|--------|--------|--------|--------|--------|
G|--------|--------|--------|--------|--------|--------|--------|--------|--------|
D|--------|--------|--------|--------|--------|--------|--------|--------|--------|
A|--------|--------|--------|--------|--------|--------|--------|--------|--------|
E|--------|--------|--------|--------|--------|--------|--------|--------|--------|


E|--------|--------|--------|--------|--------|--------|--------|--------|--------|
B|--------|--------|--------|--------|--------|--------|--------|--------|--------|
G|--------|--------|--------|--------|--------|--------|--------|--------|--------|
D|--------|--------|--------|--------|--------|--------|--------|--------|--------|
A|--------|--------|--------|--------|--------|--------|--------|--------|--------|
E|--------|--------|--------|--------|--------|--------|--------|--------|--------|


E|--------|--------|--------|--------|--------|--------|--------|--------|--------|
B|--------|--------|--------|--------|--------|--------|--------|--------|--------|
G|--------|--------|--------|--------|--------|--------|--------|--------|--------|
D|--------|--------|--------|--------|--------|--------|--------|--------|--------|
A|--------|--------|--------|--------|--------|--------|--------|--------|--------|
E|--------|--------|--------|--------|--------|--------|--------|--------|--------|


E|--------|--------|--------|--------|--------|--------|--------|--------|--------|
B|--------|--------|--------|--------|--------|--------|--------|--------|--------|
G|--------|--------|--------|--------|--------|--------|--------|--------|--------|
D|--------|--------|--------|--------|--------|--------|--------|--------|--------|
A|--------|--------|--------|--------|--------|--------|--------|--------|--------|
E|--------|--------|--------|--------|--------|--------|--------|--------|--------|


E|--------|--------|--------|--------|--------|--------|--------|--------|--------|
B|--------|--------|--------|--------|--------|--------|--------|--------|--------|
G|--------|--------|--------|--------|--------|--------|--------|--------|--------|
D|--------|--------|--------|--------|--------|--------|--------|--------|--------|
A|--------|--------|--------|--------|--------|--------|--------|--------|--------|
E|--------|--------|--------|--------|--------|--------|--------|--------|--------|


E|--------|--------|--------|--------|--------|--------|--------|--------|--------|
B|--------|--------|--------|--------|--------|--------|--------|--------|--------|
G|--------|--------|--------|--------|--------|--------|--------|--------|--------|
D|--------|--------|--------|--------|--------|--------|--------|--------|--------|
A|--------|--------|--------|--------|--------|--------|--------|--------|--------|
E|--------|--------|--------|--------|--------|--------|--------|--------|--------|


E|--------|--------|--------|--------|--------|--------|--------|--------|--------|
B|--------|--------|--------|--------|--------|--------|--------|--------|--------|
G|--------|--------|--------|--------|--------|--------|--------|--------|--------|
D|--------|--------|--------|--------|--------|--------|--------|--------|--------|
A|--------|--------|--------|--------|--------|--------|--------|--------|--------|
E|--------|--------|--------|--------|--------|--------|--------|--------|--------|


E|--------|--------|--------|--------|--------|--------|--------|--------|--------|
B|--------|--------|--------|--------|--------|--------|--------|--------|--------|
G|--------|--------|--------|--------|--------|--------|--------|--------|--------|
D|--------|--------|--------|--------|--------|--------|--------|--------|--------|
A|--------|--------|--------|--------|--------|--------|--------|--------|--------|
E|--------|--------|--------|--------|--------|--------|--------|--------|--------|


E|--------|--------|--------|--------|--------|--------|--------|--------|--------|
B|--------|--------|--------|--------|--------|--------|--------|--------|--------|
G|--------|--------|--------|--------|--------|--------|--------|--------|--------|
D|--------|--------|--------|--------|--------|--------|--------|--------|--------|
A|--------|--------|--------|--------|--------|--------|--------|--------|--------|
E|--------|--------|--------|--------|--------|--------|--------|--------|--------|


E|--------|--------|--------|--------|--------|--------|-3---3--3--3---3---3--3--3---3---3---|
B|--------|--------|--------|--------|--------|--------|-3---3--3--3---3---3--3--3---3---3---|
G|--------|--------|--------|--------|--------|--------|-0---0--0--0---0---0--0--0---0---0---|
D|--------|--------|--------|--------|--------|--------|-0---0--0--0---0---0--0--0---0---0---|
A|--------|--------|--------|--------|--------|--------|-2---2--2--2---2---2--2--2---2---2---|
E|--------|--------|--------|--------|--------|--------|-3---3--3--3---3---3--3--3---3---3---|


E|-3---3--3--3---3---3--3--3---3---3---|-3---3--3--3---3---3--3--3---3---3---|-3---3--3--3---3---3--3--3---3---3---|
B|-3---3--3--3---3---3--3--3---3---3---|-3---3--3--3---3---3--3--3---3---3---|-3---3--3--3---3---3--3--3---3---3---|
G|-0---0--0--0---0---0--0--0---0---0---|-0---0--0--0---0---0--0--0---0---0---|-0---0--0--0---0---0--0--0---0---0---|
D|-2---2--2--2---2---2--2--2---2---2---|-0---0--0--0---0---0--0--0---0---0---|-0---0--0--0---0---0--0--0---0---0---|
A|-3---3--3--3---3---3--3--3---3---3---|-2---2--2--2---2---2--2--2---2---2---|-2---2--2--2---2---2--2--2---2---2---|
E|-------------------------------------|-3---3--3--3---3---3--3--3---3---3---|-3---3--3--3---3---3--3--3---3---3---|


E|-3---3--3--3---3---3--3--3---3---3---|-3---3--3--3---3---3--3--3---3---3---|-3---3--3--3---3---3--3--3---3---3---|
B|-3---3--3--3---3---3--3--3---3---3---|-3---3--3--3---3---3--3--3---3---3---|-3---3--3--3---3---3--3--3---3---3---|
G|-0---0--0--0---0---0--0--0---0---0---|-0---0--0--0---0---0--0--0---0---0---|-0---0--0--0---0---0--0--0---0---0---|
D|-0---0--0--0---0---0--0--0---0---0---|-2---2--2--2---2---2--2--2---2---2---|-0---0--0--0---0---0--0--0---0---0---|
A|-2---2--2--2---2---2--2--2---2---2---|-3---3--3--3---3---3--3--3---3---3---|-2---2--2--2---2---2--2--2---2---2---|
E|-3---3--3--3---3---3--3--3---3---3---|-------------------------------------|-3---3--3--3---3---3--3--3---3---3---|


E|-3---3--3--3---3---3--3--3---3---3---|-0---0--0--0---0---0--0--0---0---0---|-0---0---0--0--0--0--0---0---0--0--0--0--|
B|-3---3--3--3---3---3--3--3---3---3---|-1---1--1--1---1---1--1--1---1---1---|-0---0---0--0--0--0--0---0---0--0--1--1--|
G|-0---0--0--0---0---0--0--0---0---0---|-0---0--0--0---0---0--0--0---0---0---|-0---0---0--0--0--0--0---0---0--0--0--0--|
D|-2---2--2--2---2---2--2--2---2---2---|-2---2--2--2---2---2--2--2---2---2---|-2---2---2--2--2--2--2---2---2--2--2--2--|
A|-3---3--3--3---3---3--3--3---3---3---|-3---3--3--3---3---3--3--3---3---3---|-2---2---2--2--2--2--2---2---2--2--2--2--|
E|-------------------------------------|-0---0--0--0---0---0--0--0---0---0---|-0---0---0--0--0--0--0---0---0--0--0--0--|


E|-3---3---3--3--3--3--3---3---3--3--3--3--|-3---3---3--3--3--3--3---3---3--3--3--3--|
B|-3---3---3--3--3--3--3---3---3--3--3--3--|-3---3---3--3--3--3--3---3---3--3--3--3--|
G|-0---0---0--0--0--0--0---0---0--0--0--0--|-0---0---0--0--0--0--0---0---0--0--0--0--|
D|-0---0---0--0--0--0--2---2---2--2--2--2--|-0---0---0--0--0--0--2---2---2--2--2--2--|
A|-2---2---2--2--2--2--3---3---3--3--3--3--|-2---2---2--2--2--2--3---3---3--3--3--3--|
E|-3---3---3--3--3--3----------------------|-3---3---3--3--3--3----------------------|


E|-3--------------|--------|--------|--------|--------|--------|--------|--------|
B|-3--------------|--------|--------|--------|--------|--------|--------|--------|
G|-0--------------|--------|--------|--------|--------|--------|--------|--------|
D|-0--------------|--------|--------|--------|--------|--------|--------|--------|
A|-2--------------|--------|--------|--------|--------|--------|--------|--------|
E|-3--------------|--------|--------|--------|--------|--------|--------|--------|


E|--------|--------|--------|--------|--------|--------|--------|--------|--------|
B|--------|--------|--------|--------|--------|--------|--------|--------|--------|
G|--------|--------|--------|--------|--------|--------|--------|--------|--------|
D|--------|--------|--------|--------|--------|--------|--------|--------|--------|
A|--------|--------|--------|--------|--------|--------|--------|--------|--------|
E|--------|--------|--------|--------|--------|--------|--------|--------|--------|


E|--------|--------|--------|--------|--------|--------|--------|--------|--------|
B|--------|--------|--------|--------|--------|--------|--------|--------|--------|
G|--------|--------|--------|--------|--------|--------|--------|--------|--------|
D|--------|--------|--------|--------|--------|--------|--------|--------|--------|
A|--------|--------|--------|--------|--------|--------|--------|--------|--------|
E|--------|--------|--------|--------|--------|--------|--------|--------|--------|


E|--------|--------|--------|--------|--------|--------|--------|--------|--------|
B|--------|--------|--------|--------|--------|--------|--------|--------|--------|
G|--------|--------|--------|--------|--------|--------|--------|--------|--------|
D|--------|--------|--------|--------|--------|--------|--------|--------|--------|
A|--------|--------|--------|--------|--------|--------|--------|--------|--------|
E|--------|--------|--------|--------|--------|--------|--------|--------|--------|





Track 8: Untitled

G|--------|--------|--------|--------|--------|--------|--------|--------|--------|
D|--------|--------|--------|--------|--------|--------|--------|--------|--------|
A|--------|--------|--------|--------|--------|--------|--------|--------|--------|
E|--------|--------|--------|--------|--------|--------|--------|--------|--------|


G|--------|--------|--------|--------|--------|--------|--------|--------|--------|
D|--------|--------|--------|--------|--------|--------|--------|--------|--------|
A|--------|--------|--------|--------|--------|--------|--------|--------|--------|
E|--------|--------|--------|--------|--------|--------|--------|--------|--------|


G|--------|--------|--------|--------|--------|--------|--------|--------|--------|
D|--------|--------|--------|--------|--------|--------|--------|--------|--------|
A|--------|--------|--------|--------|--------|--------|--------|--------|--------|
E|--------|--------|--------|--------|--------|--------|--------|--------|--------|


G|--------|--------|--------|--------|--------|--------|--------|--------|--------|
D|--------|--------|--------|--------|--------|--------|--------|--------|--------|
A|--------|--------|--------|--------|--------|--------|--------|--------|--------|
E|--------|--------|--------|--------|--------|--------|--------|--------|--------|


G|--------|--------|--------|--------|--------|--------|--------|--------|--------|
D|--------|--------|--------|--------|--------|--------|--------|--------|--------|
A|--------|--------|--------|--------|--------|--------|--------|--------|--------|
E|--------|--------|--------|--------|--------|--------|--------|--------|--------|


G|--------|--------|--------|--------|--------|--------|--------|--------|--------|
D|--------|--------|--------|--------|--------|--------|--------|--------|--------|
A|--------|--------|--------|--------|--------|--------|--------|--------|--------|
E|--------|--------|--------|--------|--------|--------|--------|--------|--------|


G|--------|--------|--------|--------|--------|--------|--------|--------|--------|
D|--------|--------|--------|--------|--------|--------|--------|--------|--------|
A|--------|--------|--------|--------|--------|--------|--------|--------|--------|
E|--------|--------|--------|--------|--------|--------|--------|--------|--------|


G|--------|--------|--------|--------|--------|--------|--------|--------|--------|
D|--------|--------|--------|--------|--------|--------|--------|--------|--------|
A|--------|--------|--------|--------|--------|--------|--------|--------|--------|
E|--------|--------|--------|--------|--------|--------|--------|--------|--------|


G|--------|--------|--------|--------|--------|--------|--------|--------|--------|
D|--------|--------|--------|--------|--------|--------|--------|--------|--------|
A|--------|--------|--------|--------|--------|--------|--------|--------|--------|
E|--------|--------|--------|--------|--------|--------|--------|--------|--------|


G|--------|--------|--------|--------|--------|--------|--------|--------|--------|
D|--------|--------|--------|--------|--------|--------|--------|--------|--------|
A|--------|--------|--------|--------|--------|--------|--------|--------|--------|
E|--------|--------|--------|--------|--------|--------|--------|--------|--------|


G|--------|--------|--------|--------|--------|--------|--------|--------|--------|
D|--------|--------|--------|--------|--------|--------|--------|--------|--------|
A|--------|--------|--------|--------|--------|--------|--------|--------|--------|
E|--------|--------|--------|--------|--------|--------|--------|--------|--------|


G|--------|--------|--------|--------|--------|--------|--------|--------|--------|
D|--------|--------|--------|--------|--------|--------|--------|--------|--------|
A|--------|--------|--------|--------|--------|--------|--------|--------|--------|
E|--------|--------|--------|--------|--------|--------|--------|--------|--------|


G|--------|--------|--------|--------|--------|--------|--------|--------|--------|
D|--------|--------|--------|--------|--------|--------|--------|--------|--------|
A|--------|--------|--------|--------|--------|--------|--------|--------|--------|
E|--------|--------|--------|--------|--------|--------|--------|--------|--------|


G|--------|--------|--------|--------|--------|--------|--------|--------|--------|
D|--------|--------|--------|--------|--------|--------|--------|--------|--------|
A|--------|--------|--------|--------|--------|--------|--------|--------|--------|
E|--------|--------|--------|--------|--------|--------|--------|--------|--------|


G|--------|--------|--------|--------|--------|--------|--------|--------|
D|--------|--------|--------|--------|--------|--------|--------|--------|
A|--------|--------|--------|--------|--------|--------|--------|--------|
E|--------|--------|--------|--------|--------|--------|--------|--------|