Menu:

 

Search:

 

goo goo dolls - think about me:

 



Title: Think About Me
Artist: 
Album: Gutterflower
Author: John Rzeznik


Track 1: John Rzeznik

D|-------------0---0---0-------0---|-0---0---0--------0--------|------0---0---0---0-------0---|
D|-------------0---0---0-------0---|-0---0---0--------0--------|------0---0---0---0-------0---|
G|---------0---0---0---0-------0---|-0---0---0----0------------|-0----0---0---0---0-------0---|
D|-4---5-------------------5---4---|-4---4---4----4------------|-5----5---5---5---5---5---5---|
G|-0-----------------------0---0---|-0---0---0----0------------|-5----5---5---5---5---5---5---|
C|---------------------------------|----------------------4----|-0----0---0---0---0---0-------|


D|-0---0---0----0---0---0---0---|-------------0---0---0-------0---|-0---0---0--------0--------|
D|-0---0---0----0---0---0---0---|-------------0---0---0-------0---|-0---0---0--------0--------|
G|-0---0---0----0---0---0---0---|---------0---0---0---0-------0---|-0---0---0----0------------|
D|-5---5---5----5-------5---4---|-4---5-------------------5---4---|-4---4---4----4------------|
G|-5-------5----5-------5---0---|-0-----------------------0---0---|-0---0---0----0------------|
C|---------0----0---------------|---------------------------------|----------------------4----|


D|------0---0---0---0-------0---|-0---0---0----0---0---0---0---|---------0---0---0---0----0---|
D|------0---0---0---0-------0---|-0---0---0----0---0---0---0---|-0-------0---0---0---0----0---|
G|-0----0---0---0---0-------0---|-0---0---0----0---0---0---0---|-0-------0---0---0---0----0---|
D|-5----5---5---5---5---5---5---|-5---5---5----5-------5---4---|-4---5---5-----------5----4---|
G|-5----5---5---5---5---5---5---|-5-------5----5-------5---0---|-0-------0----------------0---|
C|-0----0---0---0---0---0-------|---------0----0---------------|------------------------------|


D|-0---0---0----0---------|------0---0---0---0-------0---|-----0---0----0---0---0---0---|
D|-0---0---0----0---------|------0---0---0---0-------0---|-----0---0----0---0---0---0---|
G|-0---0---0----0---------|------0---0---0---0-------0---|-----0---0----0---0---0---0---|
D|-4---4---4----4---------|------5---5---5---5-------5---|-----5---5----5---5---5---5---|
G|-0---0---0----0---------|-5----5---5---5---5-------5---|-----5---5----5---5---5---5---|
C|-------------------4----|-0----------------------------|------------------------------|


D|---------0---0---0---0----0---|-0---0---0----0---------|------0---0---0---0-------0---|
D|-0-------0---0---0---0----0---|-0---0---0----0---------|------0---0---0---0-------0---|
G|-0-------0---0---0---0----0---|-0---0---0----0---------|------0---0---0---0-------0---|
D|-4---5---5-----------5----4---|-4---4---4----4---------|------5---5---5---5-------5---|
G|-0-------0----------------0---|-0---0---0----0---------|-5----5---5---5---5-------5---|
C|------------------------------|-------------------4----|-0----------------------------|


D|-----0---0----0---0---0---0---|-0----0----0---0---0---0---|-0----0---0---0---0---0---0---|
D|-----0---0----0---0---0---0---|-0----0----0---0---0---0---|-0----0---0---0---0---0---0---|
G|-----0---0----0---0---0---0---|-0----0----0---0---0---0---|-0----0---0---0---0---0---0---|
D|-----5---5----5---5---5---5---|-2----2----2---2---2---2---|-4----4---4---4---4---4---4---|
G|-----5---5----5---5---5---5---|-2----2----2---2---2---2---|-4----4---4---4---4---4---4---|
C|------------------------------|-2----2----2---2---2---2---|-4----4---4---4---4---4---4---|


D|-0----0---0---0---0---0---0---|-0---0---0----0---0---0---0---|-0----0----0---0---0---0---|
D|-0----0---0---0---0---0---0---|-0---0---0----0---0---0---0---|-0----0----0---0---0---0---|
G|-0----0---0---0---0---0---0---|-0---0---0----0---0---0---0---|-0----0----0---0---0---0---|
D|-5----5---5---5---5---5---5---|-5---5---5----5---5---5-------|-4----4----4---4---4---4---|
G|-5----5---5---5---5---5---5---|-5---5---5----5---5---5-------|-4----4----4---4---4---4---|
C|-0----0---0---0---0---0---0---|-0---0---0----0---0---0-------|-4----4----4---4---4---4---|


D|-0----0---0---0---0---0---0---|-0----0----0---0---0---0---|-0---0---0---0---0---0---0---0---|
D|-0----0---0---0---0---0---0---|-0----0----0---0---0---0---|-0---0---0---0---0---0---0---0---|
G|-0----0---0---0---0---0---0---|-0----0----0---0---0---0---|-0---0---0---0---0---0---0---0---|
D|-2----2---2---2---2---2---2---|-0----0----0---0---0---0---|-0-------0-------0---0---0-------|
G|-2----2---2---2---2---2---2---|-0----0----0---0---0---0---|-0-------0-------0-------0-------|
C|-2----2---2---2---2---2---2---|-0----0----0---0---0---0---|-0-------0-------0-------0-------|


D|-0----0----0---0---0---0---|-0----0---0---0---0---0---0---|-0----0---0---0---0---0---0---|
D|-0----0----0---0---0---0---|-0----0---0---0---0---0---0---|-0----0---0---0---0---0---0---|
G|-0----0----0---0---0---0---|-0----0---0---0---0---0---0---|-0----0---0---0---0---0---0---|
D|-2----2----2---2---2---2---|-4----4---4---4---4---4---4---|-5----5---5---5---5---5---5---|
G|-2----2----2---2---2---2---|-4----4---4---4---4---4---4---|-5----5---5---5---5---5---5---|
C|-2----2----2---2---2---2---|-4----4---4---4---4---4---4---|-0----0---0---0---0---0---0---|


D|-0---0---0----0---0---0---0---|-0----0----0---0---0---0---|-0----0---0---0---0---0---0---|
D|-0---0---0----0---0---0---0---|-0----0----0---0---0---0---|-0----0---0---0---0---0---0---|
G|-0---0---0----0---0---0---0---|-0----0----0---0---0---0---|-0----0---0---0---0---0---0---|
D|-5---5---5----5---5---5-------|-4----4----4---4---4---4---|-2----2---2---2---2---2---2---|
G|-5---5---5----5---5---5-------|-4----4----4---4---4---4---|-2----2---2---2---2---2---2---|
C|-0---0---0----0---0---0-------|-4----4----4---4---4---4---|-2----2---2---2---2---2---2---|


D|-0----0----0---0---0---0---|-0---0---0---0---0---0---0---0---|--------|--------|
D|-0----0----0---0---0---0---|-0---0---0---0---0---0---0---0---|--------|--------|
G|-0----0----0---0---0---0---|-0---0---0---0---0---0---0---0---|--------|--------|
D|-0----0----0---0---0---0---|-0-------0-------0---0---0-------|--------|--------|
G|-0----0----0---0---0---0---|-0-------0-------0-------0-------|--------|--------|
C|-0----0----0---0---0---0---|-0-------0-------0-------0-------|--------|--------|


D|--------|--------|--------|--------|--------|--------|--------|--------|---------0---0---0---0----0---|
D|--------|--------|--------|--------|--------|--------|--------|--------|-0-------0---0---0---0----0---|
G|--------|--------|--------|--------|--------|--------|--------|--------|-0-------0---0---0---0----0---|
D|--------|--------|--------|--------|--------|--------|--------|--------|-4---5---5-----------5----4---|
G|--------|--------|--------|--------|--------|--------|--------|--------|-0-------0----------------0---|
C|--------|--------|--------|--------|--------|--------|--------|--------|------------------------------|


D|-0---0---0----0---------|------0---0---0---0-------0---|-----0---0----0---0---0---0---|
D|-0---0---0----0---------|------0---0---0---0-------0---|-----0---0----0---0---0---0---|
G|-0---0---0----0---------|------0---0---0---0-------0---|-----0---0----0---0---0---0---|
D|-4---4---4----4---------|------5---5---5---5-------5---|-----5---5----5---5---5---5---|
G|-0---0---0----0---------|-5----5---5---5---5-------5---|-----5---5----5---5---5---5---|
C|-------------------4----|-0----------------------------|------------------------------|


D|---------0---0---0---0----0---|-0---0---0----0---------|------0---0---0---0-------0---|
D|-0-------0---0---0---0----0---|-0---0---0----0---------|------0---0---0---0-------0---|
G|-0-------0---0---0---0----0---|-0---0---0----0---------|------0---0---0---0-------0---|
D|-4---5---5-----------5----4---|-4---4---4----4---------|------5---5---5---5-------5---|
G|-0-------0----------------0---|-0---0---0----0---------|-5----5---5---5---5-------5---|
C|------------------------------|-------------------4----|-0----------------------------|


D|-----0---0----0---0---0---0---|-0----0----0---0---0---0---|-0----0---0---0---0---0---0---|
D|-----0---0----0---0---0---0---|-0----0----0---0---0---0---|-0----0---0---0---0---0---0---|
G|-----0---0----0---0---0---0---|-0----0----0---0---0---0---|-0----0---0---0---0---0---0---|
D|-----5---5----5---5---5---5---|-2----2----2---2---2---2---|-4----4---4---4---4---4---4---|
G|-----5---5----5---5---5---5---|-2----2----2---2---2---2---|-4----4---4---4---4---4---4---|
C|------------------------------|-2----2----2---2---2---2---|-4----4---4---4---4---4---4---|


D|-0----0---0---0---0---0---0---|-0---0---0----0---0---0---0---|-0----0----0---0---0---0---|
D|-0----0---0---0---0---0---0---|-0---0---0----0---0---0---0---|-0----0----0---0---0---0---|
G|-0----0---0---0---0---0---0---|-0---0---0----0---0---0---0---|-0----0----0---0---0---0---|
D|-5----5---5---5---5---5---5---|-5---5---5----5---5---5-------|-4----4----4---4---4---4---|
G|-5----5---5---5---5---5---5---|-5---5---5----5---5---5-------|-4----4----4---4---4---4---|
C|-0----0---0---0---0---0---0---|-0---0---0----0---0---0-------|-4----4----4---4---4---4---|


D|-0----0---0---0---0---0---0---|-0----0----0---0---0---0---|-0---0---0---0---0---0---0---0---|
D|-0----0---0---0---0---0---0---|-0----0----0---0---0---0---|-0---0---0---0---0---0---0---0---|
G|-0----0---0---0---0---0---0---|-0----0----0---0---0---0---|-0---0---0---0---0---0---0---0---|
D|-2----2---2---2---2---2---2---|-0----0----0---0---0---0---|-0-------0-------0---0---0-------|
G|-2----2---2---2---2---2---2---|-0----0----0---0---0---0---|-0-------0-------0-------0-------|
C|-2----2---2---2---2---2---2---|-0----0----0---0---0---0---|-0-------0-------0-------0-------|


D|-0----0----0---0---0---0---|-0----0---0---0---0---0---0---|-0----0---0---0---0---0---0---|
D|-0----0----0---0---0---0---|-0----0---0---0---0---0---0---|-0----0---0---0---0---0---0---|
G|-0----0----0---0---0---0---|-0----0---0---0---0---0---0---|-0----0---0---0---0---0---0---|
D|-2----2----2---2---2---2---|-4----4---4---4---4---4---4---|-5----5---5---5---5---5---5---|
G|-2----2----2---2---2---2---|-4----4---4---4---4---4---4---|-5----5---5---5---5---5---5---|
C|-2----2----2---2---2---2---|-4----4---4---4---4---4---4---|-0----0---0---0---0---0---0---|


D|-0---0---0----0---0---0---0---|-0----0----0---0---0---0---|-0----0---0---0---0---0---0---|
D|-0---0---0----0---0---0---0---|-0----0----0---0---0---0---|-0----0---0---0---0---0---0---|
G|-0---0---0----0---0---0---0---|-0----0----0---0---0---0---|-0----0---0---0---0---0---0---|
D|-5---5---5----5---5---5-------|-4----4----4---4---4---4---|-2----2---2---2---2---2---2---|
G|-5---5---5----5---5---5-------|-4----4----4---4---4---4---|-2----2---2---2---2---2---2---|
C|-0---0---0----0---0---0-------|-4----4----4---4---4---4---|-2----2---2---2---2---2---2---|


D|-0----0----0---0---0---0---|-0---0---0---0---0---0---0---0---|-0----0---0---0-----------0---|
D|-0----0----0---0---0---0---|-0---0---0---0---0---0---0---0---|-0----0---0---0-----------0---|
G|-0----0----0---0---0---0---|-0---0---0---0---0---0---0---0---|-0----0---0---0-------0-------|
D|-0----0----0---0---0---0---|-0-------0-------0---0---0-------|-4----4-----------4-----------|
G|-0----0----0---0---0---0---|-0-------0-------0-------0-------|-4----4-----------------------|
C|-0----0----0---0---0---0---|-0-------0-------0-------0-------|-4----4-----------------------|


D|-0----------0----|------0----0---0---0---0---|-0----------------------------|------0---0---0---0---0---0---|
D|-0----------0----|------0----0---0---0---0---|-0---------------0------------|------0---0---0---0---0---0---|
G|------------0----|------0----0---0---0---0---|-0-----------0-------0--------|------0---0---0---0---0---0---|
D|-----------------|------4----4---4---4---4---|-4-------4---------------4----|------4---4---4---4---4---4---|
G|-------4---------|-4---------4---4---4---4---|-4---4------------------------|-4------------------------4---|
C|-------4---------|---------------------------|------------------------------|-4------------------------4---|


D|-0---0---0---0---0---0---0---0---|-0----0----0---0---0---0---|-0---0---0----0---0---0---0---|
D|-0---0---0---0---0---0---0---0---|-0----0----0---0---0---0---|-0---0---0----0---0---0---0---|
G|-0---0---0---0---0---0---0---0---|-0----0----0---0---0---0---|-0---0---0----0---0---0---0---|
D|-4-------------------------------|-2----2----2---2---2---2---|-2---2---2----2---2---2---2---|
G|-4-------------------------------|-2----2----2---2---2---2---|-2---2---2----2---2---2---2---|
C|-4-------------------------------|---------------------------|------------------------------|


D|-0----0----0---0----0---|-0---0---0----0---0---0---0---|---------0---0---0---0----0---|
D|-0----0----0---0----0---|-0---0---0----0---0---0---0---|-0-------0---0---0---0----0---|
G|-0----0----0---0----0---|-0---0---0----0---0---0---0---|-0-------0---0---0---0----0---|
D|-5----5----5---5----5---|-5---5---5----5---5---5-------|-4---5---5-----------5----4---|
G|-5----5----5---5----5---|-5---5---5----5---5---5-------|-0-------0----------------0---|
C|------------------------|------------------------------|------------------------------|


D|-0---0---0----0---------|------0---0---0---0-------0---|-----0---0----0---0---0---0---|
D|-0---0---0----0---------|------0---0---0---0-------0---|-----0---0----0---0---0---0---|
G|-0---0---0----0---------|------0---0---0---0-------0---|-----0---0----0---0---0---0---|
D|-4---4---4----4---------|------5---5---5---5-------5---|-----5---5----5---5---5---5---|
G|-0---0---0----0---------|-5----5---5---5---5-------5---|-----5---5----5---5---5---5---|
C|-------------------4----|-0----------------------------|------------------------------|


D|---------0---0---0---0----0---|-0---0---0----0---------|------0---0---0---0-------0---|
D|-0-------0---0---0---0----0---|-0---0---0----0---------|------0---0---0---0-------0---|
G|-0-------0---0---0---0----0---|-0---0---0----0---------|------0---0---0---0-------0---|
D|-4---5---5-----------5----4---|-4---4---4----4---------|------5---5---5---5-------5---|
G|-0-------0----------------0---|-0---0---0----0---------|-5----5---5---5---5-------5---|
C|------------------------------|-------------------4----|-0----------------------------|


D|-----0---0----0---0---0---0---|----------0---0------------|----------0---0---------------|
D|-----0---0----0---0---0---0---|----------0---0--------0---|----------0---0---------------|
G|-----0---0----0---0---0---0---|---------------------------|------0-----------0-----------|
D|-----5---5----5---5---5---5---|-4---5------------4--------|--------------------------0---|
G|-----5---5----5---5---5---5---|-0-------------------------|----------------------0-------|
C|------------------------------|---------------------------|-4----------------------------|


D|--------|--------|--------|--------|--------|--------|--------|--------|--------|
D|--------|--------|--------|--------|--------|--------|--------|--------|--------|
G|--------|--------|--------|--------|--------|--------|--------|--------|--------|
D|--------|--------|--------|--------|--------|--------|--------|--------|--------|
G|--------|--------|--------|--------|--------|--------|--------|--------|--------|
C|-0------|-0------|--------|--------|--------|--------|--------|--------|--------|


D|--------|----------0---0------------|----------0---0---------------|--------|--------|
D|--------|----------0---0--------0---|----------0---0---------------|--------|--------|
G|--------|---------------------------|------0-----------0-----------|--------|--------|
D|--------|-4---5------------4--------|--------------------------0---|--------|--------|
G|--------|-0-------------------------|----------------------0-------|--------|--------|
C|--------|---------------------------|-4----------------------------|-0------|-0------|


D|--------|--------|--------|--------|--------|--------|--------|--------|--------|
D|--------|--------|--------|--------|--------|--------|--------|--------|--------|
G|--------|--------|--------|--------|--------|--------|--------|--------|--------|
D|--------|--------|--------|--------|--------|--------|--------|--------|--------|
G|--------|--------|--------|--------|--------|--------|--------|--------|--------|
C|--------|--------|--------|--------|--------|--------|--------|--------|--------|


D|--------|--------|--------|--------|--------|--------|--------|--------|--------|
D|--------|--------|--------|--------|--------|--------|--------|--------|--------|
G|--------|--------|--------|--------|--------|--------|--------|--------|--------|
D|--------|--------|--------|--------|--------|--------|--------|--------|--------|
G|--------|--------|--------|--------|--------|--------|--------|--------|--------|
C|--------|--------|--------|--------|--------|--------|--------|--------|--------|


D|---------0---0---0---0----0---|-0---0---0----0---------|------0---0---0---0-------0---|
D|-0-------0---0---0---0----0---|-0---0---0----0---------|------0---0---0---0-------0---|
G|-0-------0---0---0---0----0---|-0---0---0----0---------|------0---0---0---0-------0---|
D|-4---5---5-----------5----4---|-4---4---4----4---------|------5---5---5---5-------5---|
G|-0-------0----------------0---|-0---0---0----0---------|-5----5---5---5---5-------5---|
C|------------------------------|-------------------4----|-0----------------------------|


D|-----0---0----0---0---0---0---|---------0---0---0---0----0---|-0---0---0----0---------|
D|-----0---0----0---0---0---0---|-0-------0---0---0---0----0---|-0---0---0----0---------|
G|-----0---0----0---0---0---0---|-0-------0---0---0---0----0---|-0---0---0----0---------|
D|-----5---5----5---5---5---5---|-4---5---5-----------5----4---|-4---4---4----4---------|
G|-----5---5----5---5---5---5---|-0-------0----------------0---|-0---0---0----0---------|
C|------------------------------|------------------------------|-------------------4----|


D|------0---0---0---0-------0---|-----0---0----0---0---0---0---|---------0---0---0---0----0---|
D|------0---0---0---0-------0---|-----0---0----0---0---0---0---|-0-------0---0---0---0----0---|
G|------0---0---0---0-------0---|-----0---0----0---0---0---0---|-0-------0---0---0---0----0---|
D|------5---5---5---5-------5---|-----5---5----5---5---5---5---|-4---5---5-----------5----4---|
G|-5----5---5---5---5-------5---|-----5---5----5---5---5---5---|-0-------0----------------0---|
C|-0----------------------------|------------------------------|------------------------------|


D|-0---0---0----0---------|------0---0---0---0-------0---|-----0---0----0---0---0---0---|
D|-0---0---0----0---------|------0---0---0---0-------0---|-----0---0----0---0---0---0---|
G|-0---0---0----0---------|------0---0---0---0-------0---|-----0---0----0---0---0---0---|
D|-4---4---4----4---------|------5---5---5---5-------5---|-----5---5----5---5---5---5---|
G|-0---0---0----0---------|-5----5---5---5---5-------5---|-----5---5----5---5---5---5---|
C|-------------------4----|-0----------------------------|------------------------------|


D|-0------|-0------|-0------|-0------|
D|-0------|-0------|-0------|-0------|
G|-0------|-0------|-0------|-0------|
D|-5------|-5------|-5------|-5------|
G|-0------|-0------|-0------|-0------|
C|--------|--------|--------|--------|





Track 2: Greg Suran

E|--------|--------|--------|--------|--------|-----------------|------------------------------|
B|--------|--------|--------|--------|--------|-----------------|------3---3---3---3-------3---|
G|--------|--------|--------|--------|--------|-----------------|------0---0---0---0-------0---|
D|--------|--------|--------|--------|--------|-----------------|------3---3---3---3-------3---|
A|--------|--------|--------|--------|--------|-----------------|-3----3---3---3---3-------3---|
D|--------|--------|--------|--------|--------|------------2----|------------------------------|


E|------------------------------|------------------------------|------------------------|
B|-----3---3----3---3---3---3---|-3-----------3---3---3----3---|-3---3---3----3---------|
G|-----0---0----0---0---0---0---|-0-------0---0---0---0----0---|-0---0---0----0---------|
D|-----3---3----3---3---3---3---|-4---5---5---5---5---5----4---|-4---4---4----4---------|
A|-----3---3----3---3---3---3---|------------------------------|------------------------|
D|------------------------------|------------------------------|-------------------2----|


E|------------------------------|---------------------------|------------------------------|
B|------3---3---3---3-------3---|-----3---3----3---3---3----|-3-----------3---3---3----3---|
G|------0---0---0---0-------0---|-----0---0----0---0---0----|-0-------0---0---0---0----0---|
D|------3---3---3---3-------3---|-----3---3----3---3--------|-4---5---5---5---5---5----4---|
A|-3----3---3---3---3-------3---|-----3---3----3---3--------|------------------------------|
D|------------------------------|---------------------------|------------------------------|


E|------------------------|------------------------------|---------------------------|
B|-3---3---3----3---------|------3---3---3---3-------3---|-----3---3----3---3---3----|
G|-0---0---0----0---------|------0---0---0---0-------0---|-----0---0----0---0---0----|
D|-4---4---4----4---------|------3---3---3---3-------3---|-----3---3----3---3--------|
A|------------------------|-3----3---3---3---3-------3---|-----3---3----3---3--------|
D|-------------------2----|------------------------------|---------------------------|


E|--------|--------|--------|------------------------|-----------------|---------------------------|
B|--------|--------|-3------|------------------------|-----------------|----------3---3------------|
G|-2------|--------|-0------|------------------0-----|-0-----0-----0---|-----0------------0--------|
D|-0------|-2------|-3------|----------0---2---------|-2-----2---------|-4---------------------0---|
A|--------|-2------|-3------|------------------------|-2-----2---------|---------------------------|
D|--------|-2------|--------|------------------------|-2-----2---------|---------------------------|


E|-----------------|---------------------------|--------|--------|--------|---------------------|
B|-----------------|----------3---3------------|--------|-0------|-3------|---------------------|
G|-----------------|-----0----0---0------------|-2------|-0------|-0------|-----------0---------|
D|-------------0---|-2----------------2----0---|-0------|-2------|-3------|------0---------0----|
A|-3-----3---------|---------------------------|--------|-2------|-3------|-3-------------------|
D|-----------------|---------------------------|--------|-2------|--------|---------------------|


E|----------------|----------------|-----------------|---------------------------|
B|----------------|----------------|-3-----3-----3---|-3---3---3----3---3---3----|
G|--------0-------|-2------2---0---|-0-----0-----0---|-0---0---0----0---0---0----|
D|--------2---0---|-0------0---0---|-0-----0-----3---|-3---3---3----3---3---3----|
A|-2------2---0---|-0--------------|-3-----3-----3---|-3---3---3----3---3---3----|
D|-2------2-------|-0--------------|-----------------|---------------------------|


E|-12----12--12----|-12----12--12--12----|--------|--------|-12-----|-12----12--12----|
B|-12----12--12----|-12----12--12--12----|-7------|-7------|-12-----|-12----12--12----|
G|-----------------|---------------------|-7------|-7------|--------|-----------------|
D|-----------------|---------------------|--------|--------|--------|-----------------|
A|-----------------|---------------------|--------|--------|--------|-----------------|
D|-----------------|---------------------|--------|--------|--------|-----------------|


E|------------------------------|------------------------------|--------------------------0---|
B|----------2---2-----------3---|-3-----------5---5------------|------3---3---3---3-------3---|
G|------------------------------|-----0---------------0--------|------0---0---0---0-------0---|
D|------2-----------2---4-------|-----4---5---------------5----|------3---3---3---3-------3---|
A|-0----------------------------|------------------------------|-3----3---3---3---3-------3---|
D|------------------------------|------------------------------|------------------------------|


E|------------------------------|------------------------------|------------------------|
B|-----3---3----3---3---3---3---|-3-----------3---3---3----3---|-3---3---3----3---------|
G|-----0---0----0---0---0---0---|-0-------0---0---0---0----0---|-0---0---0----0---------|
D|-----3---3----3---3---3---3---|-4---5---5---5---5---5----4---|-4---4---4----4---------|
A|-----3---3----3---3---3---3---|------------------------------|------------------------|
D|------------------------------|------------------------------|-------------------2----|


E|------------------------------|---------------------------|------------------------------|
B|------3---3---3---3-------3---|-----3---3----3---3---3----|-3-----------3---3---3----3---|
G|------0---0---0---0-------0---|-----0---0----0---0---0----|-0-------0---0---0---0----0---|
D|------3---3---3---3-------3---|-----3---3----3---3--------|-4---5---5---5---5---5----4---|
A|-3----3---3---3---3-------3---|-----3---3----3---3--------|------------------------------|
D|------------------------------|---------------------------|------------------------------|


E|------------------------|------------------------------|---------------------------|
B|-3---3---3----3---------|------3---3---3---3-------3---|-----3---3----3---3---3----|
G|-0---0---0----0---------|------0---0---0---0-------0---|-----0---0----0---0---0----|
D|-4---4---4----4---------|------3---3---3---3-------3---|-----3---3----3---3--------|
A|------------------------|-3----3---3---3---3-------3---|-----3---3----3---3--------|
D|-------------------2----|------------------------------|---------------------------|


E|--------|--------|-------------|---------------------------|-0--------------|-------0---0---------------|
B|--------|--------|-3----3------|-3-------------------------|-0--------------|---------------3-----------|
G|-2------|--------|-0----0------|-0-----0---2---2---2---0---|-0--------------|-2-----------------2-------|
D|-0------|--------|-3----3------|-3-----0-------------------|-2------2---0---|-0---------------------0---|
A|--------|-2------|-3----3------|-3-------------------------|-2------2---0---|---------------------------|
D|--------|-2------|-------------|---------------------------|-2--------------|---------------------------|


E|-------------3---|-3-----------2---2------------|----------0---0------------|----------0---0------------|
B|-3-----3---------|-----3---------------3--------|------3-----------3--------|------3---0---0--------0---|
G|-0-----0---------|---------0---------------0----|-2---------------------0---|----------0---0--------0---|
D|-3-----3---------|------------------------------|-0-------------------------|---------------------------|
A|-3-----3---------|------------------------------|---------------------------|-------------------2-------|
D|-----------------|------------------------------|---------------------------|-2-----------------2-------|


E|------------------------|--------------0---------|-------0---0------------|-------0---0------------|
B|------3----3---3----3---|-3--------3-------------|-------0---0------------|-------3---3---3--------|
G|------0----0---0--------|-----0-------------0----|--------------------0---|-2-------------0--------|
D|------------------------|-------------------0----|--------------------0---|-0-----------------0----|
A|-3----------------------|------------------------|-2--------------2---0---|-0----------------------|
D|------------------------|------------------------|-2--------------2-------|------------------------|


E|---------------------------|---------------------------|-12----12--12----|-12-----|
B|-3----3----3---3-------3---|-----3---3----3---3---0----|-12----12--12----|-12-----|
G|-0----0----0---0-------0---|-----0---0----0---0---0----|-----------------|--------|
D|-3----3----3---3-------3---|-----3---3----3---3---0----|-----------------|--------|
A|-3----3----3---3-------3---|-----3---3----3---3--------|-----------------|--------|
D|---------------------------|---------------------------|-----------------|--------|


E|-7------|-7------|-12----12--12----|-12-----|------------------------------|-----------------------|
B|-7------|-7------|-12----12--12----|-12-----|----------2---2-----------3---|-3-----------5---5-----|
G|--------|--------|-----------------|--------|------------------------------|-----------------------|
D|--------|--------|-----------------|--------|------2-----------2---4-------|-----4---5-------------|
A|--------|--------|-----------------|--------|-0----------------------------|-----------------------|
D|--------|--------|-----------------|--------|------------------------------|-----------------------|


E|------------------------|---------------------------------|------------------------------|
B|-----------5--------7---|-7---7---7---7---------------5---|-3-----------3---3---3----3---|
G|------5--------5----7---|-7---7---7---7---5---5---5-------|-0-------0---0---0---0----0---|
D|-5----------------------|-------------------------5-------|-4---5---5---5---5---5----4---|
A|------------------------|---------------------------------|------------------------------|
D|------------------------|---------------------------------|------------------------------|


E|------------------------|------------------------------|---------------------------|
B|-3---3---3----3---------|------3---3---3---3-------3---|-----3---3----3---3---3----|
G|-0---0---0----0---------|------0---0---0---0-------0---|-----0---0----0---0---0----|
D|-4---4---4----4---------|------3---3---3---3-------3---|-----3---3----3---3--------|
A|------------------------|-3----3---3---3---3-------3---|-----3---3----3---3--------|
D|-------------------2----|------------------------------|---------------------------|


E|------------------------------|------------------------|------------------------------|
B|-3-----------3---3---3----3---|-3---3---3----3---------|------3---3---3---3-------3---|
G|-0-------0---0---0---0----0---|-0---0---0----0---------|------0---0---0---0-------0---|
D|-4---5---5---5---5---5----4---|-4---4---4----4---------|------3---3---3---3-------3---|
A|------------------------------|------------------------|-3----3---3---3---3-------3---|
D|------------------------------|-------------------2----|------------------------------|


E|---------------------------|--------|--------|--------|--------|-----------------|
B|-----3---3----3---3---3----|--------|--------|--------|--------|-------------3---|
G|-----0---0----0---0---0----|--------|--------|--------|--------|-------------0---|
D|-----3---3----3---3--------|--------|--------|--------|--------|-------------3---|
A|-----3---3----3---3--------|--------|--------|--------|--------|-2-----------3---|
D|---------------------------|-5------|-5------|--------|--------|-2-----2---------|


E|-----------------------|------------------------|------------------------------|
B|-3---3---3-----3---3---|------3-----------------|------------------------------|
G|-0---0---0-----0---0---|------0-----------------|---------0---0---0-------0----|
D|-3---3---3-----3---3---|------------------------|-----4---------------2--------|
A|-3---3---3-----3---3---|-----------2---2----5---|-5----------------------------|
D|-----------------------|-2---------2---2--------|------------------------------|


E|---------------------------|---------------------------|------------------------|
B|---------------------------|---------3-----------------|------------------------|
G|------0---0--------0-------|---------0------------0----|------0---0--------0----|
D|-------------------0-------|-----2------------2--------|-------------------0----|
A|-----------------------3---|-3------------3------------|-2------------2---------|
D|-2------------2------------|---------------------------|-2------------2---------|


E|-------------------------------|--------|--------|--------|--------|-12----12--------|
B|-------------------------------|--------|--------|--------|--------|-12----12--------|
G|-----------0--------------0----|--------|--------|--------|--------|-------------12--|
D|------4--------------2---------|--------|--------|--------|--------|-------------12--|
A|-5--------------3--------------|--------|--------|--------|--------|-----------------|
D|-------------------------------|-5------|-5------|--------|--------|-----------------|


E|--------|-7------|-7------|-12----12----12--|-12-----|----------0---0---------|------------------------|
B|--------|-7------|-7------|-12----12----12--|-12-----|----------3---3-----3---|-3---3---2----2---------|
G|-12-----|-7------|-7------|-----------------|--------|--------------------2---|-2---2---2----2---------|
D|-12-----|--------|--------|-----------------|--------|------2-----------------|---------2----2---------|
A|--------|--------|--------|-----------------|--------|-0----------------------|--------------------0---|
D|--------|--------|--------|-----------------|--------|------------------------|------------------------|


E|------2---2---2---2----3---|-3---3---3----3---------|-12--------------|--------|
B|------3---3---3---3----3---|-3---3---3----3---------|-12----0---0-----|-0------|
G|------0---0---0---0----0---|-0---0---0----0----0----|-------0---0-----|-0------|
D|------3---3---3---3----3---|-3---3---3----3----0----|-----------------|--------|
A|-3----3---3---3---3----3---|-3---3---3----3---------|-----------------|--------|
D|---------------------------|------------------------|-----------------|--------|


E|-0---------------|-------------12--|---------------------------|------------------------------|
B|-------0---0-----|-0-----0-----12--|------2--------3---3---5---|-2-----------2---2---2--------|
G|-----------------|-----------------|------0--------4---4---5---|-0-----------0---0---0--------|
D|-----------------|-----------------|------2--------4---4---5---|-2-----------2---2---2--------|
A|-----------------|-----------------|-0---------0---------------|-----0---0-----------0----3---|
D|-----------------|-----------------|---------------------------|------------------------------|


E|------3----3---2--------|-2---2---3-----------3---2----|------------------------------|
B|------3----3---3--------|-3---3---3-----------3---3----|-3-----------3---3---3----3---|
G|------0----0---0--------|-0---0-------0---0-------0----|-0-------0---0---0---0----0---|
D|------3-----------------|------------------------------|-4---5---5---5---5---5----4---|
A|-3----3-------------3---|------------------------------|------------------------------|
D|------------------------|------------------------------|------------------------------|


E|------------------------|------------------------------|---------------------------|
B|-3---3---3----3---------|------3---3---3---3-------3---|-----3---3----3---3---3----|
G|-0---0---0----0---------|------0---0---0---0-------0---|-----0---0----0---0---0----|
D|-4---4---4----4---------|------3---3---3---3-------3---|-----3---3----3---3--------|
A|------------------------|-3----3---3---3---3-------3---|-----3---3----3---3--------|
D|-------------------2----|------------------------------|---------------------------|


E|------------------------------|------------------------|------------------------------|
B|-3-----------3---3---3----3---|-3---3---3----3---------|------3---3---3---3-------3---|
G|-0-------0---0---0---0----0---|-0---0---0----0---------|------0---0---0---0-------0---|
D|-4---5---5---5---5---5----4---|-4---4---4----4---------|------3---3---3---3-------3---|
A|------------------------------|------------------------|-3----3---3---3---3-------3---|
D|------------------------------|-------------------2----|------------------------------|


E|---------------------------|------------------------------|------------------------|
B|-----3---3----3---3---3----|-3-----------3---3---3----3---|-3---3---3----3---------|
G|-----0---0----0---0---0----|-0-------0---0---0---0----0---|-0---0---0----0---------|
D|-----3---3----3---3--------|-4---5---5---5---5---5----4---|-4---4---4----4---------|
A|-----3---3----3---3--------|------------------------------|------------------------|
D|---------------------------|------------------------------|-------------------2----|


E|------------------------------|---------------------------|--------|--------|--------|
B|------3---3---3---3-------3---|-----3---3----3---3---3----|--------|--------|--------|
G|------0---0---0---0-------0---|-----0---0----0---0---0----|--------|--------|--------|
D|------3---3---3---3-------3---|-----3---3----3---3--------|--------|--------|--------|
A|-3----3---3---3---3-------3---|-----3---3----3---3--------|-5------|-5------|-5------|
D|------------------------------|---------------------------|-5------|-5------|-5------|


E|--------|
B|--------|
G|--------|
D|--------|
A|-5------|
D|-5------|





Track 3: Distortion

D|--------|--------|--------|--------|--------|-----------------|------0---0---0---0----0---|
D|--------|--------|--------|--------|--------|-----------------|------0---0---0---0----0---|
G|--------|--------|--------|--------|--------|-----------------|------0---0---0---0----0---|
D|--------|--------|--------|--------|--------|-----------------|------5---5---5---5----5---|
G|--------|--------|--------|--------|--------|-----------------|------5---5---5---5----5---|
C|--------|--------|--------|--------|--------|------------4----|-0-------------------------|


D|-0---0---0----0---0---0---0---|--------|--------|--------|--------|--------|--------|
D|-0---0---0----0---0---0---0---|--------|--------|--------|--------|--------|--------|
G|-0---0---0----0---0---0---0---|--------|--------|--------|--------|--------|--------|
D|-5---5---5----5---5---5---5---|--------|--------|--------|--------|--------|--------|
G|-5---5---5----5---5---5---5---|--------|--------|--------|--------|--------|--------|
C|------------------------------|--------|--------|--------|--------|--------|--------|


D|--------|--------|--------|--------|--------|--------|--------|--------|--------|
D|--------|--------|--------|--------|--------|--------|--------|--------|--------|
G|--------|--------|--------|--------|--------|--------|--------|--------|--------|
D|--------|--------|--------|--------|--------|--------|--------|--------|--------|
G|--------|--------|--------|--------|--------|--------|--------|--------|--------|
C|--------|--------|--------|--------|--------|--------|--------|--------|--------|


D|--------|--------|--------|--------|--------|--------|--------|--------|--------|
D|--------|--------|--------|--------|--------|--------|--------|--------|--------|
G|--------|--------|--------|--------|--------|--------|--------|--------|--------|
D|--------|--------|--------|--------|--------|--------|--------|--------|--------|
G|--------|--------|--------|--------|--------|--------|--------|--------|--------|
C|--------|--------|--------|--------|--------|--------|--------|--------|--------|


D|-0----0---0---0-----------0---|-0----------0----|------0----0---0---0---0---|-0----------------------------|
D|-0----0---0---0-----------0---|-0----------0----|------0----0---0---0---0---|-0---------------0------------|
G|-0----0---0---0-------0-------|------------0----|------0----0---0---0---0---|-0-----------0-------0--------|
D|-4----4-----------4-----------|-----------------|------4----4---4---4---4---|-4-------4---------------4----|
G|-4----4-----------------------|-------4---------|-4---------4---4---4---4---|-4---4------------------------|
C|-4----4-----------------------|-------4---------|---------------------------|------------------------------|


D|------0---0---0---0---0---0---|-0---0---0---0---0---0---0---0---|-0----0----0---0---0---0---|
D|------0---0---0---0---0---0---|-0---0---0---0---0---0---0---0---|-0----0----0---0---0---0---|
G|------0---0---0---0---0---0---|-0---0---0---0---0---0---0---0---|-0----0----0---0---0---0---|
D|------4---4---4---4---4---4---|-4-------------------------------|-2----2----2---2---2---2---|
G|-4------------------------4---|-4-------------------------------|-2----2----2---2---2---2---|
C|-4------------------------4---|-4-------------------------------|---------------------------|


D|-0---0---0----0---0---0---0---|-0----0----0---0----0---|-0---0---0----0---0---0---0---|
D|-0---0---0----0---0---0---0---|-0----0----0---0----0---|-0---0---0----0---0---0---0---|
G|-0---0---0----0---0---0---0---|-0----0----0---0----0---|-0---0---0----0---0---0---0---|
D|-2---2---2----2---2---2---2---|-5----5----5---5----5---|-5---5---5----5---5---5-------|
G|-2---2---2----2---2---2---2---|-5----5----5---5----5---|-5---5---5----5---5---5-------|
C|------------------------------|------------------------|------------------------------|


D|--------|--------|--------|--------|--------|--------|--------|--------|--------|
D|--------|--------|--------|--------|--------|--------|--------|--------|--------|
G|--------|--------|--------|--------|--------|--------|--------|--------|--------|
D|--------|--------|--------|--------|--------|--------|--------|--------|--------|
G|--------|--------|--------|--------|--------|--------|--------|--------|--------|
C|--------|--------|--------|--------|--------|--------|--------|--------|--------|


D|--------|--------|--------|--------|--------|--------|--------|--------|--------|
D|--------|--------|--------|--------|--------|--------|--------|--------|--------|
G|--------|--------|--------|--------|--------|--------|--------|--------|--------|
D|--------|--------|--------|--------|--------|--------|--------|--------|--------|
G|--------|--------|--------|--------|--------|--------|--------|--------|--------|
C|--------|--------|--------|--------|--------|--------|--------|--------|--------|


D|--------|--------|--------|--------|--------|--------|--------|--------|--------|
D|--------|--------|--------|--------|--------|--------|--------|--------|--------|
G|--------|--------|--------|--------|--------|--------|--------|--------|--------|
D|--------|--------|--------|--------|--------|--------|--------|--------|--------|
G|--------|--------|--------|--------|--------|--------|--------|--------|--------|
C|--------|--------|--------|--------|--------|--------|--------|--------|--------|


D|--------|--------|--------|--------|--------|--------|--------|--------|--------|
D|--------|--------|--------|--------|--------|--------|--------|--------|--------|
G|--------|--------|--------|--------|--------|--------|--------|--------|--------|
D|--------|--------|--------|--------|--------|--------|--------|--------|--------|
G|--------|--------|--------|--------|--------|--------|--------|--------|--------|
C|--------|--------|--------|--------|--------|--------|--------|--------|--------|


D|--------|--------|--------|--------|--------|--------|-0------|-0------|-0------|
D|--------|--------|--------|--------|--------|--------|-0------|-0------|-0------|
G|--------|--------|--------|--------|--------|--------|-0------|-0------|-0------|
D|--------|--------|--------|--------|--------|--------|-5------|-5------|-5------|
G|--------|--------|--------|--------|--------|--------|-0------|-0------|-0------|
C|--------|--------|--------|--------|--------|--------|--------|--------|--------|


D|-0---------------|--------|--------|--------|--------|--------|--------|--------|
D|-0---------------|--------|--------|--------|--------|--------|--------|--------|
G|-0---------------|--------|--------|--------|--------|--------|--------|--------|
D|-5---------------|--------|--------|--------|--------|--------|--------|--------|
G|-0---------------|--------|--------|--------|--------|--------|--------|--------|
C|-----------------|--------|--------|--------|--------|--------|--------|--------|


D|--------|--------|--------|--------|--------|-0----0---0---0-----------0---|-0----------0----|
D|--------|--------|--------|--------|--------|-0----0---0---0-----------0---|-0----------0----|
G|--------|--------|--------|--------|--------|-0----0---0---0-------0-------|------------0----|
D|--------|--------|--------|--------|--------|-4----4-----------4-----------|-----------------|
G|--------|--------|--------|--------|--------|-4----4-----------------------|-------4---------|
C|--------|--------|--------|--------|--------|-4----4-----------------------|-------4---------|


D|------0----0---0---0---0---|-0----------------------------|------0---0---0---0---0---0---|
D|------0----0---0---0---0---|-0---------------0------------|------0---0---0---0---0---0---|
G|------0----0---0---0---0---|-0-----------0-------0--------|------0---0---0---0---0---0---|
D|------4----4---4---4---4---|-4-------4---------------4----|------4---4---4---4---4---4---|
G|-4---------4---4---4---4---|-4---4------------------------|-4------------------------4---|
C|---------------------------|------------------------------|-4------------------------4---|


D|-0---0---0---0---0---0---0---0---|-0----0----0---0---0---0---|-0---0---0----0---0---0---0---|
D|-0---0---0---0---0---0---0---0---|-0----0----0---0---0---0---|-0---0---0----0---0---0---0---|
G|-0---0---0---0---0---0---0---0---|-0----0----0---0---0---0---|-0---0---0----0---0---0---0---|
D|-4-------------------------------|-2----2----2---2---2---2---|-2---2---2----2---2---2---2---|
G|-4-------------------------------|-2----2----2---2---2---2---|-2---2---2----2---2---2---2---|
C|-4-------------------------------|---------------------------|------------------------------|


D|-0----0----0---0----0---|-0---0---0----0---0---0---0---|-0----0---0---0-----------0---|
D|-0----0----0---0----0---|-0---0---0----0---0---0---0---|-0----0---0---0-----------0---|
G|-0----0----0---0----0---|-0---0---0----0---0---0---0---|-0----0---0---0-------0-------|
D|-5----5----5---5----5---|-5---5---5----5---5---5-------|-4----4-----------4-----------|
G|-5----5----5---5----5---|-5---5---5----5---5---5-------|-4----4-----------------------|
C|------------------------|------------------------------|-4----4-----------------------|


D|-0----------0----|------0----0---0---0---0---|-0----------------------------|-0----0----0---0---0---0---|
D|-0----------0----|------0----0---0---0---0---|-0---------------0------------|-0----0----0---0---0---0---|
G|------------0----|------0----0---0---0---0---|-0-----------0-------0--------|-0----0----0---0---0---0---|
D|-----------------|------4----4---4---4---4---|-4-------4---------------4----|-2----2----2---2---2---2---|
G|-------4---------|-4---------4---4---4---4---|-4---4------------------------|-2----2----2---2---2---2---|
C|-------4---------|---------------------------|------------------------------|---------------------------|


D|-0---0---0----0---0---0---0---|-0----0----0---0----0---|-0---0---0----0---0---0---0---|
D|-0---0---0----0---0---0---0---|-0----0----0---0----0---|-0---0---0----0---0---0---0---|
G|-0---0---0----0---0---0---0---|-0----0----0---0----0---|-0---0---0----0---0---0---0---|
D|-2---2---2----2---2---2---2---|-5----5----5---5----5---|-5---5---5----5---5---5-------|
G|-2---2---2----2---2---2---2---|-5----5----5---5----5---|-5---5---5----5---5---5-------|
C|------------------------------|------------------------|------------------------------|


D|--------|--------|--------|--------|--------|--------|--------|--------|--------|
D|--------|--------|--------|--------|--------|--------|--------|--------|--------|
G|--------|--------|--------|--------|--------|--------|--------|--------|--------|
D|--------|--------|--------|--------|--------|--------|--------|--------|--------|
G|--------|--------|--------|--------|--------|--------|--------|--------|--------|
C|--------|--------|--------|--------|--------|--------|--------|--------|--------|


D|--------|--------|--------|--------|--------|--------|--------|
D|--------|--------|--------|--------|--------|--------|--------|
G|--------|--------|--------|--------|--------|--------|--------|
D|--------|--------|--------|--------|--------|--------|--------|
G|--------|--------|--------|--------|--------|--------|--------|
C|--------|--------|--------|--------|--------|--------|--------|





Track 4: Greg Suran 2

E|--------|--------|--------|--------|--------|--------|--------|--------|--------|
B|--------|--------|--------|--------|--------|--------|--------|--------|--------|
G|--------|--------|--------|--------|--------|--------|--------|--------|--------|
D|--------|--------|--------|--------|--------|--------|--------|--------|--------|
A|--------|--------|--------|--------|--------|--------|--------|--------|--------|
D|--------|--------|--------|--------|--------|--------|--------|--------|--------|


E|--------|--------|--------|--------|--------|--------|--------|--------|--------|
B|--------|--------|--------|--------|--------|--------|--------|--------|--------|
G|--------|--------|--------|--------|--------|--------|--------|--------|--------|
D|--------|--------|--------|--------|--------|--------|--------|--------|--------|
A|--------|--------|--------|--------|--------|--------|--------|--------|--------|
D|--------|--------|--------|--------|--------|--------|--------|--------|--------|


E|--------|--------|--------|--------|--------|--------|--------|--------|--------|
B|--------|--------|--------|--------|--------|--------|--------|--------|--------|
G|--------|--------|--------|--------|--------|--------|--------|--------|--------|
D|--------|--------|--------|--------|--------|--------|--------|--------|--------|
A|--------|--------|--------|--------|--------|--------|--------|--------|--------|
D|--------|--------|--------|--------|--------|--------|--------|--------|--------|


E|--------|--------|--------|--------|--------|--------|--------|--------|--------|
B|--------|--------|--------|--------|--------|--------|--------|--------|--------|
G|--------|--------|--------|--------|--------|--------|--------|--------|--------|
D|--------|--------|--------|--------|--------|--------|--------|--------|--------|
A|--------|--------|--------|--------|--------|--------|--------|--------|--------|
D|--------|--------|--------|--------|--------|--------|--------|--------|--------|


E|--------|--------|--------|--------|--------|--------|--------|--------|--------|
B|--------|--------|--------|--------|--------|--------|--------|--------|--------|
G|--------|--------|--------|--------|--------|--------|--------|--------|--------|
D|--------|--------|--------|--------|--------|--------|--------|--------|--------|
A|--------|--------|--------|--------|--------|--------|--------|--------|--------|
D|--------|--------|--------|--------|--------|--------|--------|--------|--------|


E|--------|--------|--------|--------|--------|--------|--------|--------|--------|
B|--------|--------|--------|--------|--------|--------|--------|--------|--------|
G|--------|--------|--------|--------|--------|--------|--------|--------|--------|
D|--------|--------|--------|--------|--------|--------|--------|--------|--------|
A|--------|--------|--------|--------|--------|--------|--------|--------|--------|
D|--------|--------|--------|--------|--------|--------|--------|--------|--------|


E|--------|--------|---------------------------|------------------------------|-----------------|
B|--------|--------|------5----3---------------|-----0---0--------------------|-----------------|
G|--------|--------|-----------0-------2---4---|-4---2---2---0---4---2---0----|-2-----2-----0---|
D|--------|--------|---------------------------|------------------------------|-0-----0-----0---|
A|--------|--------|---------------------------|------------------------------|-----------------|
D|--------|--------|---------------------------|------------------------------|-----------------|


E|--------|--------|-----0---------------------------|--------|--------|--------|--------|
B|--------|--------|---------3-------0---------------|--------|--------|--------|--------|
G|-0------|-0------|-------------0-------2---0-------|-0------|--------|--------|--------|
D|-0------|-0------|-----------------------------0---|-2------|--------|--------|--------|
A|--------|--------|---------------------------------|-2------|--------|--------|--------|
D|--------|--------|---------------------------------|-2------|--------|--------|--------|


E|--------|--------|--------|--------|--------|--------|--------|--------|--------|
B|--------|--------|--------|--------|--------|--------|--------|--------|--------|
G|--------|--------|--------|--------|--------|--------|--------|--------|--------|
D|--------|--------|--------|--------|--------|--------|--------|--------|--------|
A|--------|--------|--------|--------|--------|--------|--------|--------|--------|
D|--------|--------|--------|--------|--------|--------|--------|--------|--------|


E|--------|--------|--------|--------|--------|--------|--------|--------|--------|
B|--------|--------|--------|--------|--------|--------|--------|--------|--------|
G|--------|--------|--------|--------|--------|--------|--------|--------|--------|
D|--------|--------|--------|--------|--------|--------|--------|--------|--------|
A|--------|--------|--------|--------|--------|--------|--------|--------|--------|
D|--------|--------|--------|--------|--------|--------|--------|--------|--------|


E|--------|--------|--------|--------|--------|--------|--------|--------|--------|
B|--------|--------|--------|--------|--------|--------|--------|--------|--------|
G|--------|--------|--------|--------|--------|--------|--------|--------|--------|
D|--------|--------|--------|--------|--------|--------|--------|--------|--------|
A|--------|--------|--------|--------|--------|--------|--------|--------|--------|
D|--------|--------|--------|--------|--------|--------|--------|--------|--------|


E|--------|--------|--------|--------|--------|--------|--------|--------|--------|
B|--------|--------|--------|--------|--------|--------|--------|--------|--------|
G|--------|--------|--------|--------|--------|--------|--------|--------|--------|
D|--------|--------|--------|--------|--------|--------|--------|--------|--------|
A|--------|--------|--------|--------|--------|--------|--------|--------|--------|
D|--------|--------|--------|--------|--------|--------|--------|--------|--------|


E|--------|--------|--------|--------|--------|--------|--------|--------|--------|
B|--------|--------|--------|--------|--------|--------|--------|--------|--------|
G|--------|--------|--------|--------|--------|--------|--------|--------|--------|
D|--------|--------|--------|--------|--------|--------|--------|--------|--------|
A|--------|--------|--------|--------|--------|--------|--------|--------|--------|
D|--------|--------|--------|--------|--------|--------|--------|--------|--------|


E|--------|--------|--------|--------|--------|--------|--------|--------|--------|
B|--------|--------|--------|--------|--------|--------|--------|--------|--------|
G|--------|--------|--------|--------|--------|--------|--------|--------|--------|
D|--------|--------|--------|--------|--------|--------|--------|--------|--------|
A|--------|--------|--------|--------|--------|--------|--------|--------|--------|
D|--------|--------|--------|--------|--------|--------|--------|--------|--------|


E|--------|--------|--------|--------|--------|--------|--------|--------|--------|
B|--------|--------|--------|--------|--------|--------|--------|--------|--------|
G|--------|--------|--------|--------|--------|--------|--------|--------|--------|
D|--------|--------|--------|--------|--------|--------|--------|--------|--------|
A|--------|--------|--------|--------|--------|--------|--------|--------|--------|
D|--------|--------|--------|--------|--------|--------|--------|--------|--------|


E|--------|--------|--------|--------|--------|
B|--------|--------|--------|--------|--------|
G|--------|--------|--------|--------|--------|
D|--------|--------|--------|--------|--------|
A|--------|--------|--------|--------|--------|
D|--------|--------|--------|--------|--------|





Track 5: Solo Guitar

D|--------|--------|--------|--------|--------|--------|--------|--------|--------|
B|--------|--------|--------|--------|--------|--------|--------|--------|--------|
G|--------|--------|--------|--------|--------|--------|--------|--------|--------|
D|--------|--------|--------|--------|--------|--------|--------|--------|--------|
A|--------|--------|--------|--------|--------|--------|--------|--------|--------|
E|--------|--------|--------|--------|--------|--------|--------|--------|--------|


D|--------|--------|--------|--------|--------|--------|--------|--------|--------|
B|--------|--------|--------|--------|--------|--------|--------|--------|--------|
G|--------|--------|--------|--------|--------|--------|--------|--------|--------|
D|--------|--------|--------|--------|--------|--------|--------|--------|--------|
A|--------|--------|--------|--------|--------|--------|--------|--------|--------|
E|--------|--------|--------|--------|--------|--------|--------|--------|--------|


D|--------|--------|--------|--------|--------|--------|--------|--------|--------|
B|--------|--------|--------|--------|--------|--------|--------|--------|--------|
G|--------|--------|--------|--------|--------|--------|--------|--------|--------|
D|--------|--------|--------|--------|--------|--------|--------|--------|--------|
A|--------|--------|--------|--------|--------|--------|--------|--------|--------|
E|--------|--------|--------|--------|--------|--------|--------|--------|--------|


D|--------|--------|--------|--------|--------|--------|--------|--------|--------|
B|--------|--------|--------|--------|--------|--------|--------|--------|--------|
G|--------|--------|--------|--------|--------|--------|--------|--------|--------|
D|--------|--------|--------|--------|--------|--------|--------|--------|--------|
A|--------|--------|--------|--------|--------|--------|--------|--------|--------|
E|--------|--------|--------|--------|--------|--------|--------|--------|--------|


D|--------|--------|--------|--------|--------|--------|--------|--------|--------|
B|--------|--------|--------|--------|--------|--------|--------|--------|--------|
G|--------|--------|--------|--------|--------|--------|--------|--------|--------|
D|--------|--------|--------|--------|--------|--------|--------|--------|--------|
A|--------|--------|--------|--------|--------|--------|--------|--------|--------|
E|--------|--------|--------|--------|--------|--------|--------|--------|--------|


D|--------|--------|--------|--------|--------|--------|--------|--------|--------|
B|--------|--------|--------|--------|--------|--------|--------|--------|--------|
G|--------|--------|--------|--------|--------|--------|--------|--------|--------|
D|--------|--------|--------|--------|--------|--------|--------|--------|--------|
A|--------|--------|--------|--------|--------|--------|--------|--------|--------|
E|--------|--------|--------|--------|--------|--------|--------|--------|--------|


D|--------|--------|--------|--------|--------|--------|--------|--------|--------|
B|--------|--------|--------|--------|--------|--------|--------|--------|--------|
G|--------|--------|--------|--------|--------|--------|--------|--------|--------|
D|--------|--------|--------|--------|--------|--------|--------|--------|--------|
A|--------|--------|--------|--------|--------|--------|--------|--------|--------|
E|--------|--------|--------|--------|--------|--------|--------|--------|--------|


D|--------|--------|--------|--------|--------|--------|--------|--------|--------|
B|--------|--------|--------|--------|--------|--------|--------|--------|--------|
G|--------|--------|--------|--------|--------|--------|--------|--------|--------|
D|--------|--------|--------|--------|--------|--------|--------|--------|--------|
A|--------|--------|--------|--------|--------|--------|--------|--------|--------|
E|--------|--------|--------|--------|--------|--------|--------|--------|--------|


D|--------|--------|--------|--------|--------|--------|--------|--------|--------|
B|--------|--------|--------|--------|--------|--------|--------|--------|--------|
G|--------|--------|--------|--------|--------|--------|--------|--------|--------|
D|--------|--------|--------|--------|--------|--------|--------|--------|--------|
A|--------|--------|--------|--------|--------|--------|--------|--------|--------|
E|--------|--------|--------|--------|--------|--------|--------|--------|--------|


D|--------|--------|--------|--------|--------|--------|------------------|---------------------------|
B|--------|--------|--------|--------|--------|--------|------------------|---------------------------|
G|--------|--------|--------|--------|--------|--------|------------------|-0----5----------------5---|
D|--------|--------|--------|--------|--------|--------|------------0--2--|----------5---5----0-------|
A|--------|--------|--------|--------|--------|--------|------------------|---------------------------|
E|--------|--------|--------|--------|--------|--------|------------------|---------------------------|


D|------------------------------|----------------|---------------------------------|
B|------------------------------|----------------|-----7-------8---8---7-----------|
G|-5---4---5---4---5---4--------|------------7---|-7-------7---------------7---4---|
D|-------------------------5----|-2------0-------|---------------------------------|
A|------------------------------|----------------|---------------------------------|
E|------------------------------|----------------|---------------------------------|


D|---------------------------|------------------------------|--------------12--------|
B|-----7--------8------------|-----12------12--12--12---12--|-12--12-----------------|
G|-7--------7--------0---12--|-12------12-------------------|-12-------12-------12---|
D|---------------------------|------------------------------|------------------------|
A|---------------------------|------------------------------|------------------------|
E|---------------------------|------------------------------|------------------------|


D|-------------------------------|--------|-------------|--------|--------|-----------------|
B|------7---------8----7----7----|--------|-------------|--------|--------|-------------11--|
G|-7---------7-------------------|-0------|-0-----------|--------|--------|-9-----9-----11--|
D|-------------------------------|--------|-------------|--------|--------|-----------------|
A|-------------------------------|--------|-------------|--------|--------|-----------------|
E|-------------------------------|--------|-------------|--------|--------|-----------------|


D|---------------------|--------|--------|--------|--------|--------|--------|--------|
B|-12----10--8----8----|-3------|-3------|--------|--------|--------|--------|--------|
G|-12------------------|--------|--------|--------|--------|--------|--------|--------|
D|---------------------|--------|--------|--------|--------|--------|--------|--------|
A|---------------------|--------|--------|--------|--------|--------|--------|--------|
E|---------------------|--------|--------|--------|--------|--------|--------|--------|


D|--------|--------|--------|--------|--------|--------|--------|--------|--------|
B|--------|--------|--------|--------|--------|--------|--------|--------|--------|
G|--------|--------|--------|--------|--------|--------|--------|--------|--------|
D|--------|--------|--------|--------|--------|--------|--------|--------|--------|
A|--------|--------|--------|--------|--------|--------|--------|--------|--------|
E|--------|--------|--------|--------|--------|--------|--------|--------|--------|


D|--------|--------|--------|--------|--------|--------|--------|--------|--------|
B|--------|--------|--------|--------|--------|--------|--------|--------|--------|
G|--------|--------|--------|--------|--------|--------|--------|--------|--------|
D|--------|--------|--------|--------|--------|--------|--------|--------|--------|
A|--------|--------|--------|--------|--------|--------|--------|--------|--------|
E|--------|--------|--------|--------|--------|--------|--------|--------|--------|


D|--------|--------|--------|--------|--------|--------|--------|
B|--------|--------|--------|--------|--------|--------|--------|
G|--------|--------|--------|--------|--------|--------|--------|
D|--------|--------|--------|--------|--------|--------|--------|
A|--------|--------|--------|--------|--------|--------|--------|
E|--------|--------|--------|--------|--------|--------|--------|





Track 6: Robby Takac

G|--------|--------|--------|--------|--------|-----------------|------------------------------|
D|--------|--------|--------|--------|--------|-----------------|------------------------------|
A|--------|--------|--------|--------|--------|-----------------|-3----3---3---3---3-------3---|
D|--------|--------|--------|--------|--------|------------2----|------------------------------|


G|------------------------------|------------------------------|------------------------|
D|------------------------------|-5---5---5---5---5---5----4---|-4---4---4----4---------|
A|-----3---3----3---3---3---3---|------------------------------|------------------------|
D|------------------------------|------------------------------|-------------------2----|


G|------------------------------|------------------------------|------------------------------|
D|------------------------------|------------------------------|-5---5---5---5---5---5----4---|
A|-3----3---3---3---3-------3---|-----3---3----3---3---3---3---|------------------------------|
D|------------------------------|------------------------------|------------------------------|


G|------------------------|------------------------------|------------------------------|
D|-4---4---4----4---------|------------------------------|------------------------------|
A|------------------------|-3----3---3---3---3-------3---|-----3---3----3---3---3---3---|
D|-------------------2----|------------------------------|------------------------------|


G|---------------------------|------------------------------|------------------------------|
D|---------------------------|------------------------------|------------------------------|
A|---------------------------|------------------------------|-3----3---3---3---3---3---3---|
D|-0----0----0---0---0---0---|-2----2---2---2---2---2---2---|------------------------------|


G|------------------------------|---------------------------|------------------------------|
D|------------------------------|---------------------------|------------------------------|
A|-3---3---3----3---3---3---3---|---------------------------|------------------------------|
D|------------------------------|-2----2----2---2---2---2---|-0----0---0---0---0---0---0---|


G|---------------------------|---------------------------------|---------------------------|
D|---------------------------|---------------------------------|---------------------------|
A|-3----3----3---3---3---3---|-3---3---3---3---3---3---3---3---|---------------------------|
D|---------------------------|---------------------------------|-0----0----0---0---0---0---|


G|------------------------------|------------------------------|------------------------------|
D|------------------------------|------------------------------|------------------------------|
A|------------------------------|-3----3---3---3---3---3---3---|-3---3---3----3---3---3---3---|
D|-2----2---2---2---2---2---2---|------------------------------|------------------------------|


G|---------------------------|------------------------------|---------------------------|
D|---------------------------|------------------------------|---------------------------|
A|---------------------------|------------------------------|-3----3----3---3---3---3---|
D|-2----2----2---2---2---2---|-0----0---0---0---0---0---0---|---------------------------|


G|---------------------------------|------------------------|------------------------|
D|---------------------------------|------------------------|------------------------|
A|-3---3---3---3---3---3---3---3---|------------------------|------------------------|
D|---------------------------------|-2----2----2---2----2---|-2---2---2----2----2----|


G|---------------------------|------------------------------|------------------------------|
D|---------------------------|------------------------------|------------------------------|
A|-2----2----2---2---2---2---|-2---2---2----2---2---2---2---|------------------------------|
D|---------------------------|------------------------------|-2----2---2---2---2---2---2---|


G|---------------------------|------------------------------|---------------------------------|
D|---------------------------|------------------------------|---------------------------------|
A|---------------------------|-0----0---0---0---0---0---0---|-0---0---0---0---0---0---0---0---|
D|-2---2---2----2----2---2---|------------------------------|---------------------------------|


G|------------------------|------------------------------|------------------------------|
D|------------------------|------------------------------|-5---5---5---5---5---5----4---|
A|-3----3----3---3----3---|-3---3---3----3---3---3---3---|------------------------------|
D|------------------------|------------------------------|------------------------------|


G|------------------------|------------------------------|------------------------------|
D|-4---4---4----4---------|------------------------------|------------------------------|
A|------------------------|-3----3---3---3---3-------3---|-----3---3----3---3---3---3---|
D|-------------------2----|------------------------------|------------------------------|


G|------------------------------|------------------------|------------------------------|
D|-5---5---5---5---5---5----4---|-4---4---4----4---------|------------------------------|
A|------------------------------|------------------------|-3----3---3---3---3-------3---|
D|------------------------------|-------------------2----|------------------------------|


G|------------------------------|---------------------------|------------------------------|
D|------------------------------|---------------------------|------------------------------|
A|-----3---3----3---3---3---3---|---------------------------|------------------------------|
D|------------------------------|-0----0----0---0---0---0---|-2----2---2---2---2---2---2---|


G|------------------------------|------------------------------|---------------------------|
D|------------------------------|------------------------------|---------------------------|
A|-3----3---3---3---3---3---3---|-3---3---3----3---3---3---3---|---------------------------|
D|------------------------------|------------------------------|-2----2----2---2---2---2---|


G|------------------------------|---------------------------|---------------------------------|
D|------------------------------|---------------------------|---------------------------------|
A|------------------------------|-3----3----3---3---3---3---|-3---3---3---3---3---3---3---3---|
D|-0----0---0---0---0---0---0---|---------------------------|---------------------------------|


G|---------------------------|------------------------------|------------------------------|
D|---------------------------|------------------------------|------------------------------|
A|---------------------------|------------------------------|-3----3---3---3---3---3---3---|
D|-0----0----0---0---0---0---|-2----2---2---2---2---2---2---|------------------------------|


G|------------------------------|---------------------------|------------------------------|
D|------------------------------|---------------------------|------------------------------|
A|-3---3---3----3---3---3---3---|---------------------------|------------------------------|
D|------------------------------|-2----2----2---2---2---2---|-0----0---0---0---0---0---0---|


G|---------------------------|---------------------------------|------------------------|
D|---------------------------|---------------------------------|------------------------|
A|-3----3----3---3---3---3---|-3---3---3---3---3---3---3---3---|------------------------|
D|---------------------------|---------------------------------|-2----2----2---2----2---|


G|------------------------|---------------------------|------------------------------|
D|------------------------|---------------------------|------------------------------|
A|------------------------|-2----2----2---2---2---2---|-2---2---2----2---2---2---2---|
D|-2---2---2----2----2----|---------------------------|------------------------------|


G|------------------------------|---------------------------|------------------------------|
D|------------------------------|---------------------------|------------------------------|
A|------------------------------|---------------------------|-0----0---0---0---0---0---0---|
D|-2----2---2---2---2---2---2---|-2---2---2----2----2---2---|------------------------------|


G|---------------------------------|------------------------|------------------------------|
D|---------------------------------|------------------------|------------------------------|
A|-0---0---0---0---0---0---0---0---|-3----3----3---3----3---|-3---3---3----3---3---3---3---|
D|---------------------------------|------------------------|------------------------------|


G|------------------------------|------------------------|------------------------------|
D|-5---5---5---5---5---5----4---|-4---4---4----4---------|------------------------------|
A|------------------------------|------------------------|-3----3---3---3---3-------3---|
D|------------------------------|-------------------2----|------------------------------|


G|------------------------------|------------------------------|------------------------|
D|------------------------------|-5---5---5---5---5---5----4---|-4---4---4----4---------|
A|-----3---3----3---3---3---3---|------------------------------|------------------------|
D|------------------------------|------------------------------|-------------------2----|


G|------------------------------|------------------------------|--------|--------|
D|------------------------------|------------------------------|--------|--------|
A|-3----3---3---3---3-------3---|-----3---3----3---3---3---3---|--------|--------|
D|------------------------------|------------------------------|-5------|-5------|


G|--------|--------|---------------------------|---------------------------|---------------------------|
D|--------|--------|---------------------------|---------------------------|---------------------------|
A|--------|--------|-----------------------3---|-3---3---3----3---3---3----|---------------------------|
D|-5------|-5------|-2----2----2---2---2-------|---------------------------|-2----2----2---2---2---0---|


G|---------------------------------|---------------------------|------------------------------|
D|---------------------------------|---------------------------|------------------------------|
A|-------------3---3---3---3---3---|-----------------------3---|-3---3---3----3---3---3---3---|
D|-0---0---0-----------------------|-2----2----2---2---2-------|------------------------------|


G|---------------------|-------------------------------|--------|--------|--------|
D|---------------------|-------------------------------|--------|--------|--------|
A|---------------------|-5----5----5----3----3----3----|--------|--------|--------|
D|-2----2----2----2----|-------------------------------|-5------|-5------|-5------|


G|--------|------------------------|------------------------|---------------------------|
D|--------|------------------------|------------------------|---------------------------|
A|--------|------------------------|------------------------|-2----2----2---2---2---2---|
D|-5------|-2----2----2---2----2---|-2---2---2----2----2----|---------------------------|


G|------------------------------|------------------------------|---------------------------|
D|------------------------------|------------------------------|---------------------------|
A|-2---2---2----2---2---2---2---|------------------------------|---------------------------|
D|------------------------------|-2----2---2---2---2---2---2---|-2---2---2----2----2---2---|


G|------------------------------|---------------------------------|------------------------|
D|------------------------------|---------------------------------|------------------------|
A|-0----0---0---0---0---0---0---|-0---0---0---0---0---0---0---0---|-3----3----3---3----3---|
D|------------------------------|---------------------------------|------------------------|


G|------------------------------|------------------------|------------------------|
D|------------------------------|------------------------|------------------------|
A|-3---3---3----3---3---3---3---|------------------------|------------------------|
D|------------------------------|-2----2----2---2----2---|-2---2---2----2----2----|


G|---------------------------|------------------------------|------------------------------|
D|---------------------------|------------------------------|------------------------------|
A|-2----2----2---2---2---2---|-2---2---2----2---2---2---2---|-0----0---0---0---0---0---0---|
D|---------------------------|------------------------------|------------------------------|


G|---------------------------------|------------------------|------------------------------|
D|---------------------------------|------------------------|------------------------------|
A|-0---0---0---0---0---0---0---0---|-3----3----3---3----3---|-3---3---3----3---3---3---3---|
D|---------------------------------|------------------------|------------------------------|


G|------------------------------|------------------------|------------------------------|
D|-5---5---5---5---5---5----4---|-4---4---4----4---------|------------------------------|
A|------------------------------|------------------------|-3----3---3---3---3-------3---|
D|------------------------------|-------------------2----|------------------------------|


G|------------------------------|------------------------------|------------------------|
D|------------------------------|-5---5---5---5---5---5----4---|-4---4---4----4---------|
A|-----3---3----3---3---3---3---|------------------------------|------------------------|
D|------------------------------|------------------------------|-------------------2----|


G|------------------------------|------------------------------|------------------------------|
D|------------------------------|------------------------------|-5---5---5---5---5---5----4---|
A|-3----3---3---3---3-------3---|-----3---3----3---3---3---3---|------------------------------|
D|------------------------------|------------------------------|------------------------------|


G|------------------------|------------------------------|------------------------------|
D|-4---4---4----4---------|------------------------------|------------------------------|
A|------------------------|-3----3---3---3---3-------3---|-----3---3----3---3---3---3---|
D|-------------------2----|------------------------------|------------------------------|


G|--------|--------|--------|--------|
D|--------|--------|--------|--------|
A|--------|--------|--------|--------|
D|-5------|-5------|-5------|-5------|