Menu:

 

Search:

 

goo goo dolls - name:

 



Title: Name
Artist: 
Album: A Boy Named Goo
Author: John Rzeznik


Track 1: Acoustic

E|----------0---------------0---|----------0------------0---|----------0---------------0---|
E|----------0---------------0---|----------0------------0---|----------0---------------0---|
A|------0-----------0-----------|------0--------0-----------|--------------0---0-----------|
E|------0-------0---------------|------0------------0-------|------0---------------0-------|
A|-0--------------------0-------|---------------------------|-5----------------------------|
D|-7----------------------------|-6-------------------------|------------------------------|


E|----------0------------0---|------------------------0--0------|----------0-------0-------0---|
E|----------0------------0---|------------------------0--0------|----------0-------0-------0---|
A|------0------------0-------|----------------0-------0--0------|----------0-------0-------0---|
E|------0------------0-------|------5--5--7---7---9---9--9--12--|-12---12----------------------|
A|---------------------------|------7--7--9---9-------9--9--12--|-12---12----------------------|
D|-4------------2------------|-0--------------------------------|-0------------0-------0-------|


E|-----0---------------------0----|-------------0------------0---|----------0------------0---|
E|-----0---------------------0----|-------------0------------0---|----------0------------0---|
A|-----0---0---------0-------0----|-0-------0---0----0-----------|------0--------0-----------|
E|---------5--5--7---7---9---9----|-9---7---0---7----9---7-------|------0------------0-------|
A|---------7--7--9---9-------9----|---------9--------------------|-------------------0-------|
D|-0------------------------------|------------------------------|-7-------------------------|


E|----------0----------------|----------0------------0---|----------0------------0---|
E|----------0------------0---|----------0------------0---|----------0------------0---|
A|------0--------0-------0---|---------------0-----------|------0------------0-------|
E|------0------------0-------|------0------------0-------|------0------------0-------|
A|-------------------0-------|-5-------------------------|---------------------------|
D|-6-------------------------|---------------------------|-4------------2------------|


E|------------------------0--0------|-0--------0---0---0---0---0---|-0---0-------------------------0---|
E|------------------------0--0------|-0--------0---0---0---0---0---|-0---0-------------------------0---|
A|----------------0-------0--0------|-0--------0---0---0---0---0---|-0---0---0---------0-------0-------|
E|------5--5--7---7---9---9--9--12--|-12-----------12--12----------|---------5--5--7---7---9---9-------|
A|------7--7--9---9-------9--9--12--|-12---12------12--12----------|---------7--7--9---9-------9-------|
D|-0--------------------------------|-0----------------------------|-----------------------------------|


E|-----0-------0----0-------0---|----------0------------0---|----------0----------------|
E|-----0-------0----0-------0---|----------0------------0---|----------0------------0---|
A|-0---0---0---0----0-----------|------0--------0-----------|------0--------0-------0---|
E|-9---7---0---7----9---7-------|------0------------0-------|------0------------0-------|
A|-9-------9---9----9---9-------|-------------------0-------|-------------------0-------|
D|------------------------------|-7-------------------------|-6-------------------------|


E|----------0------------0---|----------0------------0---|------------------------0--0------|
E|----------0------------0---|----------0------------0---|------------------------0--0------|
A|---------------0-----------|------0------------0-------|----------------0-------0--0------|
E|------0------------0-------|------0------------0-------|------5--5--7---7---9---9--9--12--|
A|-5-------------------------|---------------------------|------7--7--9---9-------9--9--12--|
D|---------------------------|-4------------2------------|-0--------------------------------|


E|-0---0-------0-------0---0---0---|-0---0-------------------------0---|-----0-------0----0-------0---|
E|-0---0-------0-------0---0---0---|-0---0-------------------------0---|-----0-------0----0-------0---|
A|-0---0-------0-------0---0---0---|-0---0---0---------0-------0-------|-0---0---0---0----0-----------|
E|-12------------------12----------|---------5--5--7---7---9---9-------|-9---7---0---7----9---7-------|
A|-12------12----------12----------|---------7--7--9---9-------9-------|-9-------9---9----9---9-------|
D|-0---------------0---------------|-----------------------------------|------------------------------|


E|----------0------------0---|----------0----------------|----------0------------0---|
E|----------0------------0---|----------0------------0---|----------0------------0---|
A|------0--------0-----------|------0--------0-------0---|---------------0-----------|
E|------0------------0-------|------0------------0-------|------0------------0-------|
A|-------------------0-------|-------------------0-------|-5-------------------------|
D|-7-------------------------|-6-------------------------|---------------------------|


E|----------0------------0---|------------------------0--0------|-0---0-------0-------0---0---0---|
E|----------0------------0---|------------------------0--0------|-0---0-------0-------0---0---0---|
A|------0------------0-------|----------------0-------0--0------|-0---0-------0-------0---0---0---|
E|------0------------0-------|------5--5--7---7---9---9--9--12--|-12------------------------------|
A|---------------------------|------7--7--9---9-------9--9--12--|-12------12------12------12------|
D|-4------------2------------|-0--------------------------------|-0-------------------------------|


E|-0---0-------------------------0---|-----0-------0----0-------0---|----------0------------0---|
E|-0---0-------------------------0---|-----0-------0----0-------0---|----------0------------0---|
A|-0---0---0---------0-------0-------|-0---0---0---0----0-----------|------0--------0-----------|
E|---------5--5--7---7---9---9-------|-9---7---0---7----9---7-------|------0------------0-------|
A|---------7--7--9---9-------9-------|-9-------9---9----9---9-------|-------------------0-------|
D|-----------------------------------|------------------------------|-7-------------------------|


E|----------0----------------|----------0------------0---|----------0------------0---|
E|----------0------------0---|----------0------------0---|----------0------------0---|
A|------0--------0-------0---|---------------0-----------|------0------------0-------|
E|------0------------0-------|------0------------0-------|------0------------0-------|
A|-------------------0-------|-5-------------------------|---------------------------|
D|-6-------------------------|---------------------------|-4------------2------------|


E|------------------------0--0------|-0---0-------0-------0---0---0---|-0---0-------------------------0---|
E|------------------------0--0------|-0---0-------0-------0---0---0---|-0---0-------------------------0---|
A|----------------0-------0--0------|-0---0-------0-------0---0---0---|-0---0---0---------0-------0-------|
E|------5--5--7---7---9---9--9--12--|-12------------------------------|---------5--5--7---7---9---9-------|
A|------7--7--9---9-------9--9--12--|-12------12------12------12------|---------7--7--9---9-------9-------|
D|-0--------------------------------|-0-------------------------------|-----------------------------------|


E|-----0-------0---0---0---0---0---|------0-----------------|----------0----------------|
E|-----0-------0---0---0---0---0---|------0--------0--------|----------0----------------|
A|-0---0---0---0---0---0---0---0---|------0--------0----0---|------0--------4---2---0---|
E|-9---7---0---7---7---9---7-------|------0----0---0----0---|------0------------0---0---|
A|---------------------------------|-4---------4------------|-2-------------------------|
D|---------------------------------|-4----------------------|-2-------------------------|


E|------0-----------------|-------------0------------0---|------0---4----5-----|--------------------0---|
E|------0-----------------|-------------0------------0---|------0--------0-----|--------------------0---|
A|------0--------0--------|-----0------------0---2-------|------0--------0-----|-0----0---2----4--------|
E|----------0--------0----|-0-------0--------------------|---------------------|-0----0---0----0--------|
A|------------------------|------------------------------|-4-------------------|------------------------|
D|-0----------------------|------------------------------|-4-------------------|-2----------------------|


E|------0--------0-------0---|-------------0----------------|------0---4----5--------|
E|------0--------0-------0---|-------------0----------------|------0---0----0--------|
A|------0--------------------|-----0-------0-------0----4---|------0---0----0----0---|
E|------0----0-------0-------|-0-------0-------0------------|------------------------|
A|---------------------------|------------------------------|-4----------------------|
D|-0-------------------------|------------------------------|-4----------------------|


E|------0---4----5--------|------0--------0-------0---|-------------0-------------------|
E|------0---0----0--------|------0--------0-------0---|-------------0-------------------|
A|------0---0----0----0---|------0--------------------|-----0---------------0-------0---|
E|------------------------|------0----0-------0-------|-0-------0-------0-------0-------|
A|------------------------|---------------------------|---------------------------------|
D|-2----------------------|-0-------------------------|---------------------------------|


E|----------0------------0---|----------0------------0---|--------|--------|--------|
E|----------0------------0---|----------0------------0---|--------|--------|--------|
A|------------------0--------|-0----0--------4---2---0---|--------|--------|--------|
E|------0-------0------------|------0--------------------|--------|--------|--------|
A|-4-------------------------|---------------------------|--------|--------|--------|
D|-4-------------------------|---------------------------|-0------|-0------|-0------|


E|----------0------------0---|----------0----------------|----------0-------------------|
E|----------0------------0---|----------0----------------|----------0-------------------|
A|---------------0-----------|------0--------0-------0---|------------------0-------0---|
E|------0--------------------|------0--------------------|------0-------0-------0-------|
A|-------------------0-------|-------------------0-------|-5----------------------------|
D|-7-------------------------|-6-------------------------|------------------------------|


E|----------0----------------|------------------------0--0------|-0----0---0-------0---0---0---|
E|----------0----------------|------------------------0--0------|-0----0---0-------0---0---0---|
A|----------0------------0---|----------------0-------0--0------|-0----0---0-------0---0---0---|
E|------0------------0-------|------5--5--7---7---9---9--9--12--|-12---------------------------|
A|---------------------------|------7--7--9---9-------9--9--12--|-12---------------------------|
D|-4------------2------------|-0--------------------------------|-0------------0---------------|


E|----------------------------0---|-----0-------0----0-------0---|----------0------------0---|
E|----------------------------0---|-----0-------0----0-------0---|----------0------------0---|
A|------0---------0---------------|-0---0---0---0----0---0---0---|------0--------0-----------|
E|-0----5--5--7---7---9---9-------|-9---7---0---7----9---7-------|------0------------0-------|
A|------7--7--9---9-------9-------|-9-----------9----------------|-------------------0-------|
D|--------------------------------|------------------------------|-7-------------------------|


E|----------0----------------|----------0------------0---|----------0------------0---|
E|----------0------------0---|----------0------------0---|----------0------------0---|
A|------0--------0-------0---|---------------0-----------|------0------------0-------|
E|------0------------0-------|------0------------0-------|------0------------0-------|
A|-------------------0-------|-5-------------------------|---------------------------|
D|-6-------------------------|---------------------------|-4------------2------------|


E|------------------------0--0------|-0---0-------0-------0---0---0---|-0---0-------------------------0---|
E|------------------------0--0------|-0---0-------0-------0---0---0---|-0---0-------------------------0---|
A|----------------0-------0--0------|-0---0-------0-------0---0---0---|-0---0---0---------0-------0-------|
E|------5--5--7---7---9---9--9--12--|-12------------------12----------|---------5--5--7---7---9---9-------|
A|------7--7--9---9-------9--9--12--|-12------12----------12----------|---------7--7--9---9-------9-------|
D|-0--------------------------------|-0---------------0---------------|-----------------------------------|


E|-----0-------0----0-------0---|----------0------------0---|----------0----------------|
E|-----0-------0----0-------0---|----------0------------0---|----------0------------0---|
A|-0---0---0---0----0-----------|------0--------0-----------|------0--------0-------0---|
E|-9---7---0---7----9---7-------|------0------------0-------|------0------------0-------|
A|-9-------9---9----9---9-------|-------------------0-------|-------------------0-------|
D|------------------------------|-7-------------------------|-6-------------------------|


E|----------0------------0---|----------0------------0---|------------------------0--0------|
E|----------0------------0---|----------0------------0---|------------------------0--0------|
A|---------------0-----------|------0------------0-------|----------------0-------0--0------|
E|------0------------0-------|------0------------0-------|------5--5--7---7---9---9--9--12--|
A|-5-------------------------|---------------------------|------7--7--9---9-------9--9--12--|
D|---------------------------|-4------------2------------|-0--------------------------------|


E|-0---0-------0-------0---0---0---|-0---0-------------------------0---|-----0-------0----0-------0---|
E|-0---0-------0-------0---0---0---|-0---0-------------------------0---|-----0-------0----0-------0---|
A|-0---0-------0-------0---0---0---|-0---0---0---------0-------0-------|-0---0---0---0----0-----------|
E|-12------------------------------|---------5--5--7---7---9---9-------|-9---7---0---7----9---7-------|
A|-12------12------12------12------|---------7--7--9---9-------9-------|-9-------9---9----9---9-------|
D|-0-------------------------------|-----------------------------------|------------------------------|


E|----------0------------0---|----------0----------------|----------0------------0---|
E|----------0------------0---|----------0------------0---|----------0------------0---|
A|------0--------0-----------|------0--------0-------0---|---------------0-----------|
E|------0------------0-------|------0------------0-------|------0------------0-------|
A|-------------------0-------|-------------------0-------|-5-------------------------|
D|-7-------------------------|-6-------------------------|---------------------------|


E|----------0------------0---|------------------------0--0------|-0---0-------0-------0---0---0---|
E|----------0------------0---|------------------------0--0------|-0---0-------0-------0---0---0---|
A|------0------------0-------|----------------0-------0--0------|-0---0-------0-------0---0---0---|
E|------0------------0-------|------5--5--7---7---9---9--9--12--|-12------------------------------|
A|---------------------------|------7--7--9---9-------9--9--12--|-12------12------12------12------|
D|-4------------2------------|-0--------------------------------|-0-------------------------------|


E|-0---0-------------------------0---|-----0-------0---0---0---0---0---|------0-----------------|
E|-0---0-------------------------0---|-----0-------0---0---0---0---0---|------0--------0--------|
A|-0---0---0---------0-------0-------|-0---0---0---0---0---0---0---0---|------0--------0----0---|
E|---------5--5--7---7---9---9-------|-9---7---0---7---7---9---7-------|------0----0---0----0---|
A|---------7--7--9---9-------9-------|---------------------------------|-4---------4------------|
D|-----------------------------------|---------------------------------|-4----------------------|


E|----------0----------------|------0-----------------|-------------0------------0---|
E|----------0----------------|------0-----------------|-------------0------------0---|
A|------0--------4---2---0---|------0--------0--------|-----0------------0---2-------|
E|------0------------0---0---|----------0--------0----|-0-------0--------------------|
A|-2-------------------------|------------------------|------------------------------|
D|-2-------------------------|-0----------------------|------------------------------|


E|------0---4----5-----|--------------------0---|------0--------0-------0---|-------------0----------------|
E|------0--------0-----|--------------------0---|------0--------0-------0---|-------------0----------------|
A|------0--------0-----|-0----0---2----4--------|------0--------------------|-----0-------0-------0----4---|
E|---------------------|-0----0---0----0--------|------0----0-------0-------|-0-------0-------0------------|
A|-4-------------------|------------------------|---------------------------|------------------------------|
D|-4-------------------|-2----------------------|-0-------------------------|------------------------------|


E|------0---4----5--------|------0---4----5--------|------0--------0-------0---|-------------0-------------------|
E|------0---0----0--------|------0---0----0--------|------0--------0-------0---|-------------0-------------------|
A|------0---0----0----0---|------0---0----0----0---|------0--------------------|-----0---------------0-------0---|
E|------------------------|------------------------|------0----0-------0-------|-0-------0-------0-------0-------|
A|-4----------------------|------------------------|---------------------------|---------------------------------|
D|-4----------------------|-2----------------------|-0-------------------------|---------------------------------|


E|----------0------------0---|----------0------------0---|--------|--------|--------|
E|----------0------------0---|----------0------------0---|--------|--------|--------|
A|------------------0--------|-0----0--------4---2---0---|--------|--------|--------|
E|------0-------0------------|------0--------------------|--------|--------|--------|
A|-4-------------------------|---------------------------|--------|--------|--------|
D|-4-------------------------|---------------------------|-0------|-0------|-0------|


E|----------0------------0---|----------0----------------|----------0-------------------|
E|----------0------------0---|----------0----------------|----------0-------------------|
A|---------------0-----------|------0--------0-------0---|------------------0-------0---|
E|------0--------------------|------0--------------------|------0-------0-------0-------|
A|-------------------0-------|-------------------0-------|-5----------------------------|
D|-7-------------------------|-6-------------------------|------------------------------|


E|----------0----------------|------------------------0--0------|-0----0---0-------0---0---0---|
E|----------0----------------|------------------------0--0------|-0----0---0-------0---0---0---|
A|----------0------------0---|----------------0-------0--0------|-0----0---0-------0---0---0---|
E|------0------------0-------|------5--5--7---7---9---9--9--12--|-12---------------------------|
A|---------------------------|------7--7--9---9-------9--9--12--|-12---------------------------|
D|-4------------2------------|-0--------------------------------|-0------------0---------------|


E|----------------------------0---|-----0-------0----0-------0---|----------0---------------0---|
E|----------------------------0---|-----0-------0----0-------0---|----------0---------------0---|
A|------0---------0---------------|-0---0---0---0----0---0---0---|------0-----------0-----------|
E|-0----5--5--7---7---9---9-------|-9---7---0---7----9---7-------|------0-------0-------0-------|
A|------7--7--9---9-------9-------|-9-----------9----------------|-0----------------------------|
D|--------------------------------|------------------------------|------------------------------|


E|----------0------------0---|----------0---------------0---|----------0------------0---|
E|----------0------------0---|----------0---------------0---|----------0------------0---|
A|---------------0-----------|------------------0-----------|------0------------0-------|
E|------0------------0-------|------0-------0-------0-------|------0------------0-------|
A|---------------------------|-5----------------------------|-0------------0------------|
D|-6-------------------------|------------------------------|-4------------2------------|


E|----------------------------------|----------0-------0-------0---|-0----------------------0---0---|
E|----------------------------------|----------0-------0-------0---|-0----------------------0---0---|
A|----------------0-----------------|----------0-------0-------0---|-0----0---------0-------0---0---|
E|------5--5--7---7---9---9--9--12--|-12---12----------------------|------5--5--7---7---9---9---9---|
A|------7--7--9---9-------9--9--12--|-12---12----------------------|------7--7--9---9---------------|
D|-0--------------------------------|-0------------0-------0-------|--------------------------------|


E|-0---0-------0---0----0----|-0-------0---0---0---0---0---0---|-0--------0----0---0---0---|
E|-0---0-------0---0----0----|-0-------0---0---0---0---0---0---|-0--------0----0---0---0---|
A|-0---0---0-------0----0----|-------------------------0---0---|-0--------0----2---4---2---|
E|-9---7---0-------9----7----|-7---9---9---9---9---7---5-------|------0--------------------|
A|-----------------9----7----|---------------------------------|---------------------------|
D|---------------------------|---------------------------------|---------------------------|


E|-0----0----0---0---0---0---|-0---0----0----0----0---|-0----0---0---0---0---0---0---|
E|-0----0----0---0---0---0---|-0---0----0----0----0---|-0----0---0---0---0---0---0---|
A|-0----0----0---2---4---5---|-5---4----4----5----7---|-7----7---7---7---7---7---7---|
E|---------------------------|------------------------|------------------------------|
A|---------------------------|------------------------|------------------------------|
D|---------------------------|------------------------|------------------------------|


E|-0---0---0---0---0-------0---0---|-0----0----0------------|-----0---0---0----0---0----|
E|-0---0---0---0---0-------0---0---|-0----0----0------------|-----0---0---0----0---0----|
A|-7---4---4---2---2---4---2---0---|-0----0----0--------0---|-0---0---0---0----0---0----|
E|---------------------------------|-0----0----0--------0---|-0-----------0--------0----|
A|---------------------------------|------------------------|---------------------------|
D|---------------------------------|----------------0-------|---------------------------|


E|-0---0---0---0----0---0---0---|-0---0---0---0----0---0---0---|-0-------0---0---0---0---0---0---|
E|-0---0---0---0----0---0---0---|-0---0---0---0----0---0---0---|-0-------0---0---0---0---0---0---|
A|-0---2---4---5----4---0---0---|-----9---9---9----9---9---9---|-7---11--12------12----------11--|
E|------------------------------|------------------------------|---------------------------------|
A|------------------------------|------------------------------|---------------------------------|
D|------------------------------|------------------------------|---------------------------------|


E|-0---0----0----0----0---|-0---0---0----0---0---0---0---|-0---0----0----0---0-------|
E|-0---0----0----0----0---|-0---0---0----0---0---0---0---|-0---0----0----0---0-------|
A|-11--12---12---11---11--|-11--12--12---12--11--11--11--|-11--12---14---16--16--17--|
E|------------------------|------------------------------|---------------------------|
A|------------------------|------------------------------|---------------------------|
D|------------------------|------------------------------|---------------------------|


E|-0----0----0----0---0---|-0-------0---0----0----0---|-0----0---0---0---0---0---0---|
E|-0----0----0----0---0---|-0-------0---0----0----0---|-0----0---0---0---0---0---0---|
A|-17---16---16---16------|-16--17--16--16---14-------|-12---9---11--11--12--12--12--|
E|------------------------|---------------------------|------------------------------|
A|------------------------|---------------------------|------------------------------|
D|------------------------|---------------------------|------------------------------|


E|-0-------0---0---0-------0-------|-0-----0----0----0---|-0---0----0----0----0---|
E|-0-------0---0---0-------0-------|-0-----0----0----0---|-0---0----0----0----0---|
A|-12--11--11--11--11--12--12--14--|-12----11---12---14--|-14--16---16---17-------|
E|---------------------------------|-0-------------------|------------------------|
A|---------------------------------|---------------------|------------------------|
D|---------------------------------|---------------------|------------------------|


E|-0--------0---0-------0---0---|-0-------0---0----0---0---0---|-0------|-0------|
E|-0--------0---0-------0---0---|-0-------0---0----0---0---0---|-0------|-0------|
A|-17--16---14--14--12--12--12--|-12--11--11--11---12--12--12--|-12-----|-12-----|
E|------------------------------|------------------------------|--------|--------|
A|------------------------------|------------------------------|--------|--------|
D|------------------------------|------------------------------|--------|--------|


E|-0------|----------0------------0---|----------0------------0---|----------0---------------0---|
E|-0------|----------0------------0---|----------0------------0---|----------0---------------0---|
A|-12-----|---------------0-----------|---------------0-----------|------0-----------0-------0---|
E|--------|------0------------0-------|------0------------0-------|------0-------0-------0-------|
A|--------|---------------------------|---------------------------|-5--------------------5-------|
D|--------|-7-------------------------|-6-------------------------|------------------------------|


E|-----------------------0---|------------------------0--0------|-0----0---0---0---0---0---0---|
E|-----------------------0---|------------------------0--0------|-0----0---0---0---0---0---0---|
A|----------0--------0---0---|----------------0-------0--0------|-0----0---0---0---0---0---0---|
E|------0------------0-------|------5--5--7---7---9---9--9--12--|-12---12------12--------------|
A|---------------------------|------7--7--9---9-------9--9--12--|-12---12------12--------------|
D|-4------------2------------|-0--------------------------------|------------------------------|


E|-0---0-------------------------0---|-----0-------0----0-------0---|----------0------------0---|
E|-0---0-------------------------0---|-----0-------0----0-------0---|----------0------------0---|
A|-0---0---0---------0-------0-------|-0---0---0---0----0-----------|---------------0-----------|
E|---------5--5--7---7---9---9-------|-9---7---0---7----9---7-------|------0------------0-------|
A|---------7--7--9---9-------9-------|-9-----------9----9---9-------|---------------------------|
D|-----------------------------------|------------------------------|-7-------------------------|


E|----------0------------0---|----------0------------0---|--------------------0---|
E|----------0------------0---|----------0------------0---|--------------------0---|
A|---------------0-----------|------0--------0---0-------|------0---------0-------|
E|------0------------0-------|------0------------0-------|------0---------0-------|
A|---------------------------|-5-------------------------|------------------------|
D|-6-------------------------|---------------------------|-4---------2------------|


E|--------|--------|-0-----------0---0---0---0----|-0------|-0------|
E|--------|--------|-0-----------0---0---0---0----|-0------|-0------|
A|--------|--------|-0-------0---0---0---0---0----|-0------|-0------|
E|--------|--------|-7---9---9-------9---7---0----|-0------|-0------|
A|--------|--------|-9-------9-------9-------0----|-0------|-0------|
D|-0------|-0------|------------------------------|-7------|-7------|





Track 2: Acoustic

E|----------0----------------|----------0------------0---|----------0---------------0---|
E|----------0----------------|----------0------------0---|----------0---------------0---|
A|------------------0--------|------0--------0-----------|------0-----------0-----------|
E|-0----0-------0------------|------0------------0-------|-0----0-------0-------0-------|
A|-0--------------------0----|-0-----------------0-------|-5--------------------5-------|
D|-7--------------------7----|-6-------------------------|------------------------------|


E|----------0------------0---|-------------------0--0------|-0--------0-------0-------0---|
E|----------0------------0---|-------------------0--0------|-0--------0-------0-------0---|
A|------0------------0-------|-----------0-------0--0------|-0--------0-------0-------0---|
E|------0------------0-------|------7----7---9---9--9--12--|-12---12--12------------------|
A|-0------------0------------|------9----9-------9--9--12--|-12---12--12----------12------|
D|-4------------2------------|-0---------------------------|-0----0-------0-------0-------|


E|----------------------------0---|-------------0---------------0---|----------0----------------|
E|----------------------------0---|-------------0---------------0---|----------0----------------|
A|------0---------0-------0-------|-0---0-------0---0---------------|------------------0--------|
E|------5--5--7---7---9---9-------|-9---7---0-------7---9---7-------|------0-------0------------|
A|-0----7--7--9---9-------9-------|-9-------9-------9-------9-------|-0--------------------0----|
D|--------------------------------|---------------------------------|-7--------------------7----|


E|----------0------------0---|----------0---------------0---|----------0------------0---|
E|----------0------------0---|----------0---------------0---|----------0------------0---|
A|------0--------0-----------|------0-----------0-----------|------0------------0-------|
E|------0------------0-------|-0----0-------0-------0-------|------0------------0-------|
A|-0-----------------0-------|-5--------------------5-------|-0------------0------------|
D|-6-------------------------|------------------------------|-4------------2------------|


E|-------------------0--0------|-0--------0-------0-------0---|----------------------------0---|
E|-------------------0--0------|-0--------0-------0-------0---|----------------------------0---|
A|-----------0-------0--0------|-0--------0-------0-------0---|------0---------0-------0-------|
E|------7----7---9---9--9--12--|-12---12--12------------------|------5--5--7---7---9---9-------|
A|------9----9-------9--9--12--|-12---12--12----------12------|-0----7--7--9---9-------9-------|
D|-0---------------------------|-0----0-------0-------0-------|--------------------------------|


E|-------------0---------------0---|----------0----------------|----------0------------0---|
E|-------------0---------------0---|----------0----------------|----------0------------0---|
A|-0---0-------0---0---------------|------------------0--------|------0--------0-----------|
E|-9---7---0-------7---9---7-------|------0-------0------------|------0------------0-------|
A|-9-------9-------9-------9-------|-0--------------------0----|-0-----------------0-------|
D|---------------------------------|-7--------------------7----|-6-------------------------|


E|----------0---------------0---|----------0------------0---|-------------------0--0------|
E|----------0---------------0---|----------0------------0---|-------------------0--0------|
A|------0-----------0-----------|------0------------0-------|-----------0-------0--0------|
E|-0----0-------0-------0-------|------0------------0-------|------7----7---9---9--9--12--|
A|-5--------------------5-------|-0------------0------------|------9----9-------9--9--12--|
D|------------------------------|-4------------2------------|-0---------------------------|


E|-0--------0-------0-------0---|----------------------------0---|-------------0---------------0---|
E|-0--------0-------0-------0---|----------------------------0---|-------------0---------------0---|
A|-0--------0-------0-------0---|------0---------0-------0-------|-0---0-------0---0---------------|
E|-12---12--12------------------|------5--5--7---7---9---9-------|-9---7---0-------7---9---7-------|
A|-12---12--12----------12------|-0----7--7--9---9-------9-------|-9-------9-------9-------9-------|
D|-0----0-------0-------0-------|--------------------------------|---------------------------------|


E|----------0----------------|----------0------------0---|----------0---------------0---|
E|----------0----------------|----------0------------0---|----------0---------------0---|
A|------------------0--------|------0--------0-----------|------0-----------0-----------|
E|------0-------0------------|------0------------0-------|-0----0-------0-------0-------|
A|-0--------------------0----|-0-----------------0-------|-5--------------------5-------|
D|-7--------------------7----|-6-------------------------|------------------------------|


E|----------0------------0---|-------------------0--0------|-0--------0-------0-------0---|
E|----------0------------0---|-------------------0--0------|-0--------0-------0-------0---|
A|------0------------0-------|-----------0-------0--0------|-0--------0-------0-------0---|
E|------0------------0-------|------7----7---9---9--9--12--|-12---12--12------------------|
A|-0------------0------------|------9----9-------9--9--12--|-12---12--12----------12------|
D|-4------------2------------|-0---------------------------|-0----0-------0-------0-------|


E|----------------------------0---|-------------0---------------0---|----------0----------------|
E|----------------------------0---|-------------0---------------0---|----------0----------------|
A|------0---------0-------0-------|-0---0-------0---0---------------|------------------0--------|
E|------5--5--7---7---9---9-------|-9---7---0-------7---9---7-------|------0-------0------------|
A|-0----7--7--9---9-------9-------|-9-------9-------9-------9-------|-0--------------------0----|
D|--------------------------------|---------------------------------|-7--------------------7----|


E|----------0------------0---|----------0---------------0---|----------0------------0---|
E|----------0------------0---|----------0---------------0---|----------0------------0---|
A|------0--------0-----------|------0-----------0-----------|------0------------0-------|
E|------0------------0-------|-0----0-------0-------0-------|------0------------0-------|
A|-0-----------------0-------|-5--------------------5-------|-0------------0------------|
D|-6-------------------------|------------------------------|-4------------2------------|


E|-------------------0--0------|-0--------0-------0-------0---|----------------------------0---|
E|-------------------0--0------|-0--------0-------0-------0---|----------------------------0---|
A|-----------0-------0--0------|-0--------0-------0-------0---|------0---------0-------0-------|
E|------7----7---9---9--9--12--|-12---12--12------------------|------5--5--7---7---9---9-------|
A|------9----9-------9--9--12--|-12---12--12----------12------|-0----7--7--9---9-------9-------|
D|-0---------------------------|-0----0-------0-------0-------|--------------------------------|


E|-------------0---------------0---|-----------4---5----0---|----------0----------------|
E|-------------0---------------0---|--------------------0---|----------0----------------|
A|-0---0-------0---0---------------|------------------------|------0--------4---2---0---|
E|-9---7---0-------7---9---7-------|-0----0-----------------|------0------------0---0---|
A|-9-------9-------9-------9-------|-4----4-----------------|-2-------------------------|
D|---------------------------------|------------------------|---------------------------|


E|------------0----0---|----------0-------------|----------4---4---5----0---|------------------------|
E|------------0----0---|----------0-------------|----------0---0---0----0---|----------4----5----5---|
A|------0-----0--------|-----0---------0--------|----------0---0---0--------|-0----0---2----4--------|
E|------0--------------|--------------------0---|------0--------------------|-0----0-----------------|
A|------5--------------|--------------------0---|-4----4--------------------|------------------------|
D|-0----0--------------|-0----------------------|---------------------------|-2----------------------|


E|------0-----0--------|-----0----0---0---0---0---0---|------0---4---4---5-----|------------------------|
E|------0-----0----5---|-5---0----9---9---7---7---0---|------0-----------0-----|------0---0----0--------|
A|-0----0-----0----4---|-4---0----7---7---5---5---0---|------0-----------0-----|-0----0---2----4----0---|
E|-0----0--------------|-----0------------------------|------------------------|-0--------0----0--------|
A|-0-------------------|-----0------------------------|-4----------------------|------------------------|
D|-0-------------------|------------------------------|------------------------|------------------------|


E|------0-----0----0---|-0----0---0-------------|----------4----5----0---|---------------------------|
E|------0-----0----0---|-0----0---0-------------|----------0----0--------|---------------------------|
A|------------0--------|--------------------0---|----------0----0--------|------0---0----4---2-------|
E|---------------------|---------------0--------|------0-----------------|------0---0------------0---|
A|-7----7-----7--------|-7----7-----------------|------4-----------------|---------------------------|
D|-0-------------------|------0-----------------|-4----------------------|-2-------------------------|


E|--------|--------|--------|----------0-------------------|----------0------------0---|
E|--------|--------|--------|----------0-------------------|----------0------------0---|
A|--------|--------|--------|------------------0-------0---|------0--------0-----------|
E|--------|--------|--------|------0-------0---------------|------0------------0-------|
A|--------|--------|--------|-0--------------------0-------|-0-------------------------|
D|-0------|-0------|-0------|-7----------------------------|-6-------------------------|


E|----------0----------------|----------0------------0---|-------------------0--0------|
E|----------0----------------|----------0------------0---|-------------------0--0------|
A|------0--------0---0---0---|------0------------0-------|-----------0-------0--0------|
E|-0----0------------0-------|------0------------0-------|------7----7---9---9--9--12--|
A|-5-------------------------|-0------------0------------|------9----9-------9--9--12--|
D|---------------------------|-4------------2------------|-0---------------------------|


E|-0----0---0---0---0---0---0---|-----0-------------0-----------0---|-----0-------0----0-------0---|
E|-0----0---0---0---0---0---0---|-----0-------------0-----------0---|-----0-------0----0-------0---|
A|-0----0-------0-------0-------|-------------------0-------0-------|-0---0---0---0----0---0---0---|
E|------------------------------|---------5--5--7---7---9---9-------|-9---7---0---7----9---7---0---|
A|------------------------------|-7-------7--7--9---9-------9-------|-9---9---9------------9-------|
D|------------------------------|-0---------------------------------|------------------------------|


E|----------0----------------|----------0------------0---|----------0---------------0---|
E|----------0----------------|----------0------------0---|----------0---------------0---|
A|------------------0--------|------0--------0-----------|------0-----------0-----------|
E|------0-------0------------|------0------------0-------|-0----0-------0-------0-------|
A|-0--------------------0----|-0-----------------0-------|-5--------------------5-------|
D|-7--------------------7----|-6-------------------------|------------------------------|


E|----------0------------0---|-------------------0--0------|-0--------0-------0-------0---|
E|----------0------------0---|-------------------0--0------|-0--------0-------0-------0---|
A|------0------------0-------|-----------0-------0--0------|-0--------0-------0-------0---|
E|------0------------0-------|------7----7---9---9--9--12--|-12---12--12------------------|
A|-0------------0------------|------9----9-------9--9--12--|-12---12--12----------12------|
D|-4------------2------------|-0---------------------------|-0----0-------0-------0-------|


E|----------------------------0---|-------------0---------------0---|----------0----------------|
E|----------------------------0---|-------------0---------------0---|----------0----------------|
A|------0---------0-------0-------|-0---0-------0---0---------------|------------------0--------|
E|------5--5--7---7---9---9-------|-9---7---0-------7---9---7-------|------0-------0------------|
A|-0----7--7--9---9-------9-------|-9-------9-------9-------9-------|-0--------------------0----|
D|--------------------------------|---------------------------------|-7--------------------7----|


E|----------0------------0---|----------0---------------0---|----------0------------0---|
E|----------0------------0---|----------0---------------0---|----------0------------0---|
A|------0--------0-----------|------0-----------0-----------|------0------------0-------|
E|------0------------0-------|-0----0-------0-------0-------|------0------------0-------|
A|-0-----------------0-------|-5--------------------5-------|-0------------0------------|
D|-6-------------------------|------------------------------|-4------------2------------|


E|-------------------0--0------|-0--------0-------0-------0---|----------------------------0---|
E|-------------------0--0------|-0--------0-------0-------0---|----------------------------0---|
A|-----------0-------0--0------|-0--------0-------0-------0---|------0---------0-------0-------|
E|------7----7---9---9--9--12--|-12---12--12------------------|------5--5--7---7---9---9-------|
A|------9----9-------9--9--12--|-12---12--12----------12------|-0----7--7--9---9-------9-------|
D|-0---------------------------|-0----0-------0-------0-------|--------------------------------|


E|-------------0---------------0---|----------0----------------|----------0------------0---|
E|-------------0---------------0---|----------0----------------|----------0------------0---|
A|-0---0-------0---0---------------|------------------0--------|------0--------0-----------|
E|-9---7---0-------7---9---7-------|------0-------0------------|------0------------0-------|
A|-9-------9-------9-------9-------|-0--------------------0----|-0-----------------0-------|
D|---------------------------------|-7--------------------7----|-6-------------------------|


E|----------0---------------0---|----------0------------0---|-------------------0--0------|
E|----------0---------------0---|----------0------------0---|-------------------0--0------|
A|------0-----------0-----------|------0------------0-------|-----------0-------0--0------|
E|-0----0-------0-------0-------|------0------------0-------|------7----7---9---9--9--12--|
A|-5--------------------5-------|-0------------0------------|------9----9-------9--9--12--|
D|------------------------------|-4------------2------------|-0---------------------------|


E|-0--------0-------0-------0---|----------------------------0---|-------------0---------------0---|
E|-0--------0-------0-------0---|----------------------------0---|-------------0---------------0---|
A|-0--------0-------0-------0---|------0---------0-------0-------|-0---0-------0---0---------------|
E|-12---12--12------------------|------5--5--7---7---9---9-------|-9---7---0-------7---9---7-------|
A|-12---12--12----------12------|-0----7--7--9---9-------9-------|-9-------9-------9-------9-------|
D|-0----0-------0-------0-------|--------------------------------|---------------------------------|


E|-----------4---5----0---|----------0----------------|------------0----0---|----------0-------------|
E|--------------------0---|----------0----------------|------------0----0---|----------0-------------|
A|------------------------|------0--------4---2---0---|------0-----0--------|-----0---------0--------|
E|-0----0-----------------|------0------------0---0---|------0--------------|--------------------0---|
A|-4----4-----------------|-2-------------------------|------5--------------|--------------------0---|
D|------------------------|---------------------------|-0----0--------------|-0----------------------|


E|----------4---4---5----0---|------------------------|------0-----0--------|-----0----0---0---0---0---0---|
E|----------0---0---0----0---|----------4----5----5---|------0-----0----5---|-5---0----9---9---7---7---0---|
A|----------0---0---0--------|-0----0---2----4--------|-0----0-----0----4---|-4---0----7---7---5---5---0---|
E|------0--------------------|-0----0-----------------|-0----0--------------|-----0------------------------|
A|-4----4--------------------|------------------------|-0-------------------|-----0------------------------|
D|---------------------------|-2----------------------|-0-------------------|------------------------------|


E|------0---4---4---5-----|------------------------|------0-----0----0---|-0----0---0-------------|
E|------0-----------0-----|------0---0----0--------|------0-----0----0---|-0----0---0-------------|
A|------0-----------0-----|-0----0---2----4----0---|------------0--------|--------------------0---|
E|------------------------|-0--------0----0--------|---------------------|---------------0--------|
A|-4----------------------|------------------------|-7----7-----7--------|-7----7-----------------|
D|------------------------|------------------------|-0-------------------|------0-----------------|


E|----------4----5----0---|---------------------------|--------|--------|--------|
E|----------0----0--------|---------------------------|--------|--------|--------|
A|----------0----0--------|------0---0----4---2-------|--------|--------|--------|
E|------0-----------------|------0---0------------0---|--------|--------|--------|
A|------4-----------------|---------------------------|--------|--------|--------|
D|-4----------------------|-2-------------------------|-0------|-0------|-0------|


E|----------0-------------------|----------0------------0---|----------0----------------|
E|----------0-------------------|----------0------------0---|----------0----------------|
A|------------------0-------0---|------0--------0-----------|------0--------0---0---0---|
E|------0-------0---------------|------0------------0-------|-0----0------------0-------|
A|-0--------------------0-------|-0-------------------------|-5-------------------------|
D|-7----------------------------|-6-------------------------|---------------------------|


E|----------0------------0---|-------------------0--0------|-0----0---0---0---0---0---0---|
E|----------0------------0---|-------------------0--0------|-0----0---0---0---0---0---0---|
A|------0------------0-------|-----------0-------0--0------|-0----0-------0-------0-------|
E|------0------------0-------|------7----7---9---9--9--12--|------------------------------|
A|-0------------0------------|------9----9-------9--9--12--|------------------------------|
D|-4------------2------------|-0---------------------------|------------------------------|


E|-----0-------------0-----------0---|-----0-------0----0-------0---|----------0----------------|
E|-----0-------------0-----------0---|-----0-------0----0-------0---|----------0----------------|
A|-------------------0-------0-------|-0---0---0---0----0---0---0---|------------------0--------|
E|---------5--5--7---7---9---9-------|-9---7---0---7----9---7---0---|------0-------0------------|
A|-7-------7--7--9---9-------9-------|-9---9---9------------9-------|-0--------------------0----|
D|-0---------------------------------|------------------------------|-7--------------------7----|


E|----------0------------0---|----------0---------------0---|----------0------------0---|
E|----------0------------0---|----------0---------------0---|----------0------------0---|
A|------0--------0-----------|------0-----------0-----------|------0------------0-------|
E|------0------------0-------|-0----0-------0-------0-------|------0------------0-------|
A|-0-----------------0-------|-5--------------------5-------|-0------------0------------|
D|-6-------------------------|------------------------------|-4------------2------------|


E|-------------------0--0------|-0--------0-------0-------0---|----------------------------0---|
E|-------------------0--0------|-0--------0-------0-------0---|----------------------------0---|
A|-----------0-------0--0------|-0--------0-------0-------0---|------0---------0-------0-------|
E|------7----7---9---9--9--12--|-12---12--12------------------|------5--5--7---7---9---9-------|
A|------9----9-------9--9--12--|-12---12--12----------12------|-0----7--7--9---9-------9-------|
D|-0---------------------------|-0----0-------0-------0-------|--------------------------------|


E|-------------0---------------0---|------------------------|------------------------|
E|-------------0---------------0---|------------------------|------------------------|
A|-0---0-------0---0---------------|------0--------0---0----|------0--------0---0----|
E|-9---7---0-------7---9---7-------|------0--------0---0----|------0--------0---0----|
A|-9-------9-------9-------9-------|-4---------4-------4----|-2---------2-------2----|
D|---------------------------------|-4---------4------------|-2---------2------------|


E|---------------------------|------------------------------|------------------------|
E|---------------------------|------------------------------|------------------------|
A|------0--------0-------0---|-----0-------0-------0--------|------0--------0---0----|
E|------0----0---0---0---0---|-0---0---0---0---0---0---0----|------0--------0---0----|
A|-0---------0-------0-------|-0-------0-------0-------0----|-4---------4-------4----|
D|-0---------0-------0-------|-0-------0-------0-------0----|-4---------4------------|


E|------------------------|---------------------------|------------------------------|
E|------------------------|---------------------------|------------------------------|
A|------0--------0---0----|------0--------0-------0---|-----0-------0-------0--------|
E|------0--------0---0----|------0----0---0---0---0---|-0---0---0---0---0---0---0----|
A|-2---------2-------2----|-0---------0-------0-------|-0-------0-------0-------0----|
D|-2---------2------------|-0---------0-------0-------|-0-------0-------0-------0----|


E|------------------------|------------------------|---------------------------|------------------------------|
E|------------------------|------------------------|---------------------------|------------------------------|
A|------0--------0---0----|------0--------0---0----|------0--------0-------0---|-----0-------0-------0--------|
E|------0--------0---0----|------0--------0---0----|------0----0---0---0---0---|-0---0---0---0---0---0---0----|
A|-4---------4-------4----|-2---------2-------2----|-0---------0-------0-------|-0-------0-------0-------0----|
D|-4---------4------------|-2---------2------------|-0---------0-------0-------|-0-------0-------0-------0----|


E|------------------------|------------------------|---------------------------|------------------------------|
E|------------------------|------------------------|---------------------------|------------------------------|
A|------0--------0---0----|------0--------0---0----|------0--------0-------0---|-----0-------0-------0--------|
E|------0--------0---0----|------0--------0---0----|------0----0---0---0---0---|-0---0---0---0---0---0---0----|
A|-4---------4-------4----|-2---------2-------2----|-0---------0-------0-------|-0-------0-------0-------0----|
D|-4---------4------------|-2---------2------------|-0---------0-------0-------|-0-------0-------0-------0----|


E|------------------------|------------------------|---------------------------|------------------------------|
E|------------------------|------------------------|---------------------------|------------------------------|
A|------0--------0---0----|------0--------0---0----|------0--------0-------0---|-----0-------0-------0--------|
E|------0--------0---0----|------0--------0---0----|------0----0---0---0---0---|-0---0---0---0---0---0---0----|
A|-4---------4-------4----|-2---------2-------2----|-0---------0-------0-------|-0-------0-------0-------0----|
D|-4---------4------------|-2---------2------------|-0---------0-------0-------|-0-------0-------0-------0----|


E|------------------------|------------------------|-0------|-0------|-0------|--------|
E|------------------------|------------------------|-0------|-0------|-0------|--------|
A|------0--------0---0----|------0--------0---0----|-0------|-0------|-0------|--------|
E|------0--------0---0----|------0--------0---0----|-0------|-0------|-0------|--------|
A|-4---------4-------4----|-2---------2-------2----|-0------|-0------|-0------|--------|
D|-4---------4------------|-2---------2------------|-0------|-0------|-0------|--------|


E|--------|--------|--------|--------|--------|--------|--------|--------|--------|
E|--------|--------|--------|--------|--------|--------|--------|--------|--------|
A|--------|--------|--------|--------|--------|--------|--------|--------|--------|
E|--------|--------|--------|--------|--------|--------|--------|--------|--------|
A|--------|--------|--------|--------|--------|--------|--------|--------|--------|
D|--------|--------|--------|--------|--------|--------|--------|--------|--------|


E|--------|--------|--------|--------|--------|--------|--------|
E|--------|--------|--------|--------|--------|--------|--------|
A|--------|--------|--------|--------|--------|--------|--------|
E|--------|--------|--------|--------|--------|--------|--------|
A|--------|--------|--------|--------|--------|--------|--------|
D|--------|--------|--------|--------|--------|--------|--------|





Track 3: Guitar  w' E-bow effect

E|--------|--------|--------|--------|--------|--------|--------|--------|--------|
E|--------|--------|--------|--------|--------|--------|--------|--------|--------|
A|--------|--------|--------|--------|--------|--------|--------|--------|--------|
E|--------|--------|--------|--------|--------|--------|--------|--------|--------|
A|--------|--------|--------|--------|--------|--------|--------|--------|--------|
D|--------|--------|--------|--------|--------|--------|--------|--------|--------|


E|--------|--------|--------|--------|--------|--------|--------|--------|--------|
E|--------|--------|--------|--------|--------|--------|--------|--------|--------|
A|--------|--------|--------|--------|--------|--------|--------|--------|--------|
E|--------|--------|--------|--------|--------|--------|--------|--------|--------|
A|--------|--------|--------|--------|--------|--------|--------|--------|--------|
D|--------|--------|--------|--------|--------|--------|--------|--------|--------|


E|--------|--------|--------|--------|--------|--------|--------|--------|--------|
E|--------|--------|--------|--------|--------|--------|--------|--------|--------|
A|--------|--------|--------|--------|--------|--------|--------|--------|--------|
E|--------|--------|--------|--------|--------|--------|--------|--------|--------|
A|--------|--------|--------|--------|--------|--------|--------|--------|--------|
D|--------|--------|--------|--------|--------|--------|--------|--------|--------|


E|--------|--------|--------|--------|--------|--------|--------|--------|--------|
E|--------|--------|--------|--------|--------|--------|--------|--------|--------|
A|--------|--------|--------|--------|--------|--------|--------|--------|--------|
E|--------|--------|--------|--------|--------|--------|--------|--------|--------|
A|--------|--------|--------|--------|--------|--------|--------|--------|--------|
D|--------|--------|--------|--------|--------|--------|--------|--------|--------|


E|--------|--------|--------|--------|--------|--------|--------|--------|--------|
E|--------|--------|--------|--------|--------|--------|--------|--------|--------|
A|--------|--------|--------|--------|--------|--------|--------|--------|--------|
E|--------|--------|--------|--------|--------|--------|--------|--------|--------|
A|--------|--------|--------|--------|--------|--------|--------|--------|--------|
D|--------|--------|--------|--------|--------|--------|--------|--------|--------|


E|--------|--------|--------|--------|--------|--------|--------|--------|--------|
E|--------|--------|--------|--------|--------|--------|--------|--------|--------|
A|--------|--------|--------|--------|--------|--------|--------|--------|--------|
E|--------|--------|--------|--------|--------|--------|--------|--------|--------|
A|--------|--------|--------|--------|--------|--------|--------|--------|--------|
D|--------|--------|--------|--------|--------|--------|--------|--------|--------|


E|--------|--------|--------|--------|--------|--------|--------|--------|--------|
E|--------|--------|--------|--------|--------|--------|--------|--------|--------|
A|--------|--------|--------|--------|--------|--------|--------|--------|--------|
E|--------|--------|--------|--------|--------|--------|--------|--------|--------|
A|--------|--------|--------|--------|--------|--------|--------|--------|--------|
D|--------|--------|--------|--------|--------|--------|--------|--------|--------|


E|--------|--------|--------|--------|--------|--------|--------|--------|--------|
E|--------|--------|--------|--------|--------|--------|--------|--------|--------|
A|--------|--------|--------|--------|--------|--------|--------|--------|--------|
E|--------|--------|--------|--------|--------|--------|--------|--------|--------|
A|--------|--------|--------|--------|--------|--------|--------|--------|--------|
D|--------|--------|--------|--------|--------|--------|--------|--------|--------|


E|--------|--------|--------|--------|--------|--------|--------|--------|--------|
E|--------|--------|--------|--------|--------|--------|--------|--------|--------|
A|--------|--------|--------|--------|--------|--------|--------|--------|--------|
E|--------|--------|--------|--------|--------|--------|--------|--------|--------|
A|--------|--------|--------|--------|--------|--------|--------|--------|--------|
D|--------|--------|--------|--------|--------|--------|--------|--------|--------|


E|--------|--------|--------|--------|--------|--------|--------|--------|--------|
E|--------|--------|--------|--------|--------|--------|--------|--------|--------|
A|--------|--------|--------|--------|--------|--------|--------|--------|--------|
E|--------|--------|--------|--------|--------|--------|--------|--------|--------|
A|--------|--------|--------|--------|--------|--------|--------|--------|--------|
D|--------|--------|--------|--------|--------|--------|--------|--------|--------|


E|--------|--------|--------|--------|--------|--------|--------|--------|--------|
E|--------|--------|--------|--------|--------|--------|--------|--------|--------|
A|--------|--------|--------|--------|--------|--------|--------|--------|--------|
E|--------|--------|--------|--------|--------|--------|--------|--------|--------|
A|--------|--------|--------|--------|--------|--------|--------|--------|--------|
D|--------|--------|--------|--------|--------|--------|--------|--------|--------|


E|--------|--------|--------|--------|--------|--------|--------|--------|--------|
E|--------|--------|--------|--------|--------|--------|--------|--------|--------|
A|--------|--------|--------|--------|--------|--------|--------|--------|--------|
E|--------|--------|--------|--------|--------|--------|--------|--------|--------|
A|--------|--------|--------|--------|--------|--------|--------|--------|--------|
D|--------|--------|--------|--------|--------|--------|--------|--------|--------|


E|--------|--------|--------|--------|--------|--------|--------|--------|--------|
E|--------|--------|--------|--------|--------|--------|--------|--------|--------|
A|--------|--------|--------|--------|--------|--------|--------|--------|--------|
E|--------|--------|--------|--------|--------|--------|--------|--------|--------|
A|--------|--------|--------|--------|--------|--------|--------|--------|--------|
D|--------|--------|--------|--------|--------|--------|--------|--------|--------|


E|--------|--------|--------|--------|--------|--------|--------|--------|--------|
E|--------|--------|--------|--------|--------|--------|--------|--------|--------|
A|--------|--------|--------|--------|--------|--------|--------|--------|--------|
E|--------|--------|--------|--------|--------|--------|--------|--------|--------|
A|--------|--------|--------|--------|--------|--------|--------|--------|--------|
D|--------|--------|--------|--------|--------|--------|--------|--------|--------|


E|--------|--------|--------|--------|--------|--------|--------|--------|--------|
E|--------|--------|--------|--------|--------|--------|--------|--------|--------|
A|--------|--------|--------|--------|--------|--------|--------|--------|--------|
E|--------|--------|--------|--------|--------|--------|--------|--------|--------|
A|--------|--------|--------|--------|--------|--------|--------|--------|--------|
D|--------|--------|--------|--------|--------|--------|--------|--------|--------|


E|--------|--------|--------|--------|--------|--------|--------|--------|--------|
E|--------|--------|--------|--------|--------|--------|--------|--------|--------|
A|--------|--------|--------|--------|--------|--------|--------|--------|--------|
E|--------|--------|--------|--------|--------|--------|--------|--------|--------|
A|--------|--------|--------|--------|--------|--------|--------|--------|--------|
D|--------|--------|--------|--------|--------|--------|--------|--------|--------|


E|--------|--------|--------|--------|--------|--------|-0-----0-----|-0------|--------|
E|--------|--------|--------|--------|--------|--------|-0-----0-----|-0------|--------|
A|--------|--------|--------|--------|--------|--------|-5-----4-----|-4------|--------|
E|--------|--------|--------|--------|--------|--------|-------------|--------|--------|
A|--------|--------|--------|--------|--------|--------|-------------|--------|--------|
D|--------|--------|--------|--------|--------|--------|-------------|--------|--------|


E|--------|--------|--------|--------|--------|--------|--------|--------|--------|
E|--------|--------|--------|--------|--------|--------|--------|--------|--------|
A|--------|--------|--------|--------|--------|--------|--------|--------|--------|
E|--------|--------|--------|--------|--------|--------|--------|--------|--------|
A|--------|--------|--------|--------|--------|--------|--------|--------|--------|
D|--------|--------|--------|--------|--------|--------|--------|--------|--------|


E|--------|--------|
E|--------|--------|
A|--------|--------|
E|--------|--------|
A|--------|--------|
D|--------|--------|





Track 4: Bass

G|--------|--------|--------|--------|--------|--------|--------|--------|--------|
D|--------|--------|--------|--------|--------|--------|--------|--------|--------|
A|--------|--------|--------|--------|--------|--------|--------|--------|--------|
E|--------|--------|--------|--------|--------|--------|--------|--------|-5------|


G|--------|--------|-------------|--------|--------|--------|--------|--------|--------|
D|--------|--------|-------------|--------|--------|--------|--------|--------|--------|
A|--------|-5------|-------------|-5------|-5------|-5------|-5------|--------|--------|
E|-4------|--------|-2-----0-----|--------|--------|--------|--------|-5------|-4------|


G|--------|-------------|--------|--------|--------|--------|--------|--------|--------|
D|--------|-------------|--------|--------|--------|--------|--------|--------|--------|
A|-5------|-------------|-5------|-5------|-5------|-5------|--------|--------|-5------|
E|--------|-2-----0-----|--------|--------|--------|--------|-5------|-4------|--------|


G|-------------|--------|--------|--------|--------|--------|--------|--------|-------------|
D|-------------|--------|--------|--------|--------|--------|--------|--------|-------------|
A|-------------|-5------|-5------|-5------|-5------|--------|--------|-5------|-------------|
E|-2-----0-----|--------|--------|--------|--------|-5------|-4------|--------|-2-----0-----|


G|--------|--------|--------|-----------------|------------------------|---------------------|
D|--------|--------|--------|-----------------|------------------------|---------------------|
A|-5------|-5------|-5------|-5-----5----5----|------------------------|---------------------|
E|--------|--------|--------|-----------------|-2----2----2----2---0---|-0----0----0----0----|


G|---------------------|------------------------|------------------------|---------------------|
D|---------------------|------------------------|------------------------|---------------------|
A|-5----5----5----5----|-5----5----5----5-------|------------------------|---------------------|
E|---------------------|--------------------5---|-2----2----2----2---0---|-0----0----0----0----|


G|---------------------|------------------------|------------------------|---------------------|
D|---------------------|------------------------|------------------------|---------------------|
A|-5----5----5----5----|-5----5----5----5-------|------------------------|---------------------|
E|---------------------|--------------------5---|-2----2----2----2---0---|-0----0----0----0----|


G|---------------------|------------------------|------------------------|---------------------|
D|---------------------|------------------------|------------------------|---------------------|
A|-5----5----5----5----|-5----5----5----5-------|------------------------|---------------------|
E|---------------------|--------------------5---|-2----2----2----2---0---|-0----0----0----0----|


G|--------|--------|--------|--------|--------|--------|-------------|--------|--------|
D|-0------|-0------|-0------|--------|--------|--------|-------------|--------|--------|
A|--------|--------|--------|--------|--------|-5------|-------------|-5------|-5------|
E|--------|--------|--------|-5------|-4------|--------|-2-----0-----|--------|--------|


G|--------|--------|--------|--------|--------|-------------|--------|--------|--------|
D|--------|--------|--------|--------|--------|-------------|--------|--------|--------|
A|-5------|-5------|--------|--------|-5------|-------------|-5------|-5------|-5------|
E|--------|--------|-5------|-4------|--------|-2-----0-----|--------|--------|--------|


G|--------|--------|--------|--------|-------------|--------|--------|--------|--------|
D|--------|--------|--------|--------|-------------|--------|--------|--------|--------|
A|-5------|--------|--------|-5------|-------------|-5------|-5------|-5------|-5------|
E|--------|-5------|-4------|--------|-2-----0-----|--------|--------|--------|--------|


G|--------|--------|--------|-------------|--------|--------|--------|-----------------|
D|--------|--------|--------|-------------|--------|--------|--------|-----------------|
A|--------|--------|-5------|-------------|-5------|-5------|-5------|-5-----5----5----|
E|-5------|-4------|--------|-2-----0-----|--------|--------|--------|-----------------|


G|------------------------|---------------------|---------------------|------------------------|
D|------------------------|---------------------|---------------------|------------------------|
A|------------------------|---------------------|-5----5----5----5----|-5----5----5----5-------|
E|-2----2----2----2---0---|-0----0----0----0----|---------------------|--------------------5---|


G|------------------------|---------------------|---------------------|------------------------|
D|------------------------|---------------------|---------------------|------------------------|
A|------------------------|---------------------|-5----5----5----5----|-5----5----5----5-------|
E|-2----2----2----2---0---|-0----0----0----0----|---------------------|--------------------5---|


G|------------------------|---------------------|---------------------|------------------------|
D|------------------------|---------------------|---------------------|------------------------|
A|------------------------|---------------------|-5----5----5----5----|-5----5----5----5-------|
E|-2----2----2----2---0---|-0----0----0----0----|---------------------|--------------------5---|


G|------------------------|---------------------|--------|--------|--------|--------|
D|------------------------|---------------------|-0------|-0------|-0------|--------|
A|------------------------|---------------------|--------|--------|--------|--------|
E|-2----2----2----2---0---|-0----0----0----0----|--------|--------|--------|-5------|


G|--------|--------|-------------|--------|--------|--------|--------|--------|--------|
D|--------|--------|-------------|--------|--------|--------|--------|--------|--------|
A|--------|-5------|-------------|-5------|-5------|-5------|-5------|--------|--------|
E|-4------|--------|-2-----0-----|--------|--------|--------|--------|-5------|-4------|


G|--------|-------------|--------|--------|--------|-----------------|------------------------|
D|--------|-------------|--------|--------|--------|-----------------|------------------------|
A|-5------|-------------|-5------|-5------|-5------|-5-----5----5----|------------------------|
E|--------|-2-----0-----|--------|--------|--------|-----------------|-2----2----2----2---0---|


G|---------------------|---------------------|------------------------|------------------------|
D|---------------------|---------------------|------------------------|------------------------|
A|---------------------|-5----5----5----5----|-5----5----5----5-------|------------------------|
E|-0----0----0----0----|---------------------|--------------------5---|-2----2----2----2---0---|


G|---------------------|---------------------|------------------------|------------------------|
D|---------------------|---------------------|------------------------|------------------------|
A|---------------------|-5----5----5----5----|-5----5----5----5-------|------------------------|
E|-0----0----0----0----|---------------------|--------------------5---|-2----2----2----2---0---|


G|---------------------|---------------------|------------------------|------------------------|
D|---------------------|---------------------|------------------------|------------------------|
A|---------------------|-5----5----5----5----|-5----5----5----5-------|------------------------|
E|-0----0----0----0----|---------------------|--------------------5---|-2----2----2----2---0---|


G|---------------------|---------------------|------------------------|------------------------|
D|---------------------|---------------------|------------------------|------------------------|
A|---------------------|-5----5----5----5----|-5----5----5----5-------|------------------------|
E|-0----0----0----0----|---------------------|--------------------5---|-2----2----2----2---0---|


G|---------------------|---------------------|------------------------|------------------------|
D|---------------------|---------------------|------------------------|------------------------|
A|---------------------|-5----5----5----5----|-5----5----5----5-------|------------------------|
E|-0----0----0----0----|---------------------|--------------------5---|-2----2----2----2---0---|


G|---------------------|--------|--------|--------|--------|--------|--------|--------|
D|---------------------|-0------|-0------|-0------|--------|--------|--------|--------|
A|---------------------|--------|--------|--------|--------|--------|--------|--------|
E|-0----0----0----0----|--------|--------|--------|--------|--------|--------|--------|


G|--------|--------|--------|--------|--------|--------|--------|--------|--------|
D|--------|--------|--------|--------|--------|--------|--------|--------|--------|
A|--------|--------|--------|--------|--------|--------|--------|--------|--------|
E|--------|--------|--------|--------|--------|--------|--------|--------|--------|


G|--------|--------|--------|--------|
D|--------|--------|--------|--------|
A|--------|--------|--------|--------|
E|--------|--------|--------|--------|