Menu:

 

Search:

 

finntroll - rivfader:

 



/---------------------------------------------------------------------------
/ The following is the author's own interpretation of the song, to be used -
/ for studying or private use only, removal of any part of this ten line   -
/ header is illegal!!!  Removal of the transcribers name or anything       -
/ relevant to the transcriber is also illegal, as so is the removal of the -
/ place inwhich the tab was downloaded. Publishing as well as printing of  -
/ the tab is illegal without permission of the transcriber and copyright   -
/ owner of the song. Failure to apply to these laws result will in legal   -
/ action from the appropriate parties.                                     -
/---------------------------------------------------------------------------


downloaded from the Catacombs of Displacer's Death Tab Site at
        http://www.dsrmusic.com/metaltab
Visit the site to enjoy the largest metal tab archive on the internet.
Email rich@dsrmusic.com for any questions



                         FINNTROLL - RIVFADER Vers. 1.1
                  From the Album Midnattens Widunder
                   Copyright 2000 SPIKEFARM RECORDS

tabbed by: UNKNOWN
slightly corrected by: Alex Yule (fixed riff C) 12/9/01

..  - palm mute          /  - slide up to
 \  - slide down to      ~  - vibrato
 h  - hammer on          b  - bend
 p  - pull off            Suffixes for bend
 t  - tremelo             ph - pinch harmonic
                           f - full bend    h - half bend
*  - see comment           r - release      t - tap bend
X  - percussion mute       ~ - vibrato bend
@  - slight palm mute     () - ghost note, sustained note

-- RIVFADER --
Tuning normal

Intro... then

           Riff A  -[are these really played here?? seems weird w/the open
string]-
|---------|-------0--------------------/2-3-2-0-2-0------------0---------------------------|
|---------|-0-2-3---3-2-3-2-0-2-0---0---------------3----0-2-3---3-2-3-2-0-2-0---0---------|
|---------|-----------------------2--------------------------------------------2-----------|Gtr
|---------|-------------------------------------------------------------------------4-5-4--| I
|-\\slide-|--------------------------------------------------------------------------------|
|-\\slide-|--------------------------------------------------------------------------------|
|
|
|---------|--------------------------------------------------------------------------------|
|---------|--------------------------------------------------------------------------------|
|---------|--------------------------------------------------------------------------------|Gtr
|---------|---9----4----5----7----9----4----5----7----9----4----5----7----9----4----5----7-| II
|-\\slide-|---9----4----5----7----9----4----5----7----9----4----5----7----9----4----5----7-|
|-\\slide-|-777--222--333--555--777--222--333--555--777--222--333--555--777--222--333--555-|
        pm  ..   ..   ..   ..   ..   ..   ..   ..   ..   ..   ..   ..   ..   ..   ..   ..

Riff B (x4)
|---------------|
|---------------|
|---------------|Gtr
|-9---4---5---7-| I & II
|-9---4---5---7-|
|-7---2---3---5-|

Riff A
Riff B

Riff C (x4)
|---------------------------------------------------------------------------|
|---------------------------------------------------------------------------|
|---------------------------------------------------------------------------|Gtr
|---------------------------------------------------------------------------| I & II
|-----11-11-----11-11-----11-11-------------12-12------12-12-12h10h9-10h9h7-|
|-9-9--.--.-9-9--.-.--9-9--.-.--12-9--10-10--.--.-10-10-.--.----------------|
  . .       . .       . .              .  .        .  .

Riff D (x4)
endings ->|1,3         |2,4
|---------|------------|---------|
|---------|------------|---------|
|---------|------------|---------|Gtr
|-9-4-5-7-|-9-11-12-14-|-9-9-9-9-| I & II
|-9-4-5-7-|-9-11-12-14-|-9-9-9-9-|
|-7-2-3-5-|-7--9-10-12-|-7-7-7-7-|
<-- x3 -->


Break
|------------------------------------------------------|
|------------------------------------------------------|
|-11-12-11-9-11---9------------------------------------|Gtr
|-------------------11---9-11-12--11h12h11-9-----------| I
|-------------------------------------------------10-9-|
|------------------------------------------------------|


Riff E (x2)
                          endings ->|1                        |2
|----14----14----12--12-------------|-------------------------|-----------------------------|
|-12----12----12--------15-14-15----|----12-14-15-14h15h14-12-|----12-14-15-12--------------|
|--------------------------------14-|-14----------------------|-14--------------------------|Gtr
|-----------------------------------|-------------------------|-----------------------------| II
|-----------------------------------|-------------------------|---------------(10-9-7-10-9)-|
|-----------------------------------|-------------------------|-----------------------------|

Then play Riff E and play Riff A to D till the end. Listen to the song to
count riffs.