Menu:

 

Search:

 

eric clapton - wonderful tonight:

 



Title: Wonderful Tonight
Artist: 
Album: Slowhand
Author: Eric Clapton


Track 1: Std. Tuning

E|---------------------------------|-----------------2---------------|-----------------0---------------|
B|---------3-----------3-----------|---------3-----------3-----------|---------1-----------1-----------|
G|-----4-----------4-------4-------|-----2-------------------2-------|-----0-------------------0-------|
D|-5-----------5---------------5---|-4-----------4---------------4---|-2-----------2---------------2---|
A|---------------------------------|---------------------------------|---------------------------------|
E|---------------------------------|---------------------------------|---------------------------------|


E|---------------------------------|---------------------------------|-----------------2---------------|
B|---------3-----------3-----------|---------3-----------3-----------|---------3-----------3-----------|
G|-----2-----------2-------2-------|-----4-----------4-------4-------|-----2-------2-----------2-------|
D|-0-----------0---0-----------0---|-5-----------5---------------0---|-4---------------------------4---|
A|---------------------------------|---------------------------------|---------------------------------|
E|---------------------------------|---------------------------------|---------------------------------|


E|-----------------0---------------|-----------------2---------------|-----------------3---------------|
B|---------1-----------1-----------|---------3-------3---3-----------|---------3-----------3-----------|
G|-----0-------0-----------0-------|-----2-------2-----------2-------|-----4-------4-----------4-------|
D|-2---------------------------2---|-0---------------------------0---|-5---------------------------5---|
A|---------------------------------|---------------------------------|---------------------------------|
E|---------------------------------|---------------------------------|---------------------------------|


E|---------------------------------|---------------------------------|------------------------------|
B|---------3-----------3-----------|---------1---------------1-------|---------3-----------3--------|
G|-----2-----------2-------2-------|-----0-------0-------0-------0---|-----2-----------2--------0---|
D|-4-----------4---------------4---|-2---------------0---------------|-0-----------0----------------|
A|---------------------------------|---------------------------------|------------------------------|
E|---------------------------------|---------------------------------|------------------------------|


E|------------------------------|---------------------------------|---------------------------------|
B|---------3-----------3--------|---------3-----------3-----------|---------1-----------1-----------|
G|-----4-------4-----------2----|-----2-----------2-------2-------|-----0-------0-----------0-------|
D|-5---------------5------------|-4-----------4---------------4---|-2---------------2-----------2---|
A|------------------------------|---------------------------------|---------------------------------|
E|------------------------------|---------------------------------|---------------------------------|


E|-----------------2---------------|---------------------------------|---------------------------------|
B|---------3-----------3-----------|---------3-----------3-----------|---------3-----------3-----------|
G|-----2-------2-------------------|-------------0---0-------0-------|-----2-----------2-------2-------|
D|-0-------------------------------|-----2-----------------------2---|-0-----------0---------------0---|
A|-------------------------0---2---|-3-------------------------------|---------------------------------|
E|---------------------------------|---------------------------------|---------------------------------|


E|---------------------------------|-------------0---0---0-----------|---------------------------------|
B|---------3---------------3-------|-------------0---0---0-----------|---------------------------------|
G|-------------0---0-------2---2---|---------0---0---0---0-----------|---------0-----------0-------0---|
D|-0---0---------------0-----------|-----2---2---------------0-------|-----2-------2---2-------2-------|
A|---------------------------------|-----2-----------------------2---|-3-------------------------------|
E|---------------------------------|-0-------------------------------|---------------------------------|


E|---------2---2---2---------------|---------------------------------|---------------------0--------|
B|---------3---3---3---3-----------|---------3-----------3-----------|---------3-----------3--------|
G|-----2---2---2---2-------2-------|-----4-----------4-------4-------|-----2-----------2------------|
D|-0---------------------------0---|-5-----------5---------------0---|-4-----------4------------4---|
A|---------------------------------|---------------------------------|------------------------------|
E|---------------------------------|---------------------------------|------------------------------|


E|-----------------0---------------|-----------------2---------------|-----------------3---------------|
B|---------1-----------1-----------|---------3-----------3-----------|---------3-----------3-----------|
G|-----0-------2-----------0-------|-----2-------2-----------2-------|-----4-------4-----------4-------|
D|-2---------------------------2---|-0---------------------------0---|-5---------------------------5---|
A|---------------------------------|---------------------------------|---------------------------------|
E|---------------------------------|---------------------------------|---------------------------------|


E|---------------------------------|---------------------------------|------------------------------|
B|---------3-----------3-----------|---------1---------------1-------|---------3-----------3--------|
G|-----2-----------2-------2-------|-----0-------0-------0-------0---|-----2-----------2--------0---|
D|-4-----------4---------------4---|-2---------------2---------------|-0-----------0----------------|
A|---------------------------------|---------------------------------|------------------------------|
E|---------------------------------|---------------------------------|------------------------------|


E|------------------------------|---------------------------------|---------------------------------|
B|---------3-----------3--------|---------3-----------3-----------|---------1-----------1-----------|
G|-----4-------4-----------2----|-----2-----------2-------2-------|-----0-------0-----------0-------|
D|-5---------------5------------|-4-----------4---------------4---|-2---------------2-----------2---|
A|------------------------------|---------------------------------|---------------------------------|
E|------------------------------|---------------------------------|---------------------------------|


E|-----------------2---------------|---------------------------------|---------------------------------|
B|---------3-----------3-----------|---------3-----------3-----------|---------3-----------3-----------|
G|-----2-------2-------------------|-------------0---0-------0-------|-----2-----------2-------2-------|
D|-0-------------------------------|-----2-----------------------2---|-0-----------0---------------0---|
A|-------------------------0---2---|-3-------------------------------|---------------------------------|
E|---------------------------------|---------------------------------|---------------------------------|


E|---------------------------------|-------------0---0---0-----------|---------------------------------|
B|---------3---------------3-------|-------------0---0---0-----------|---------------------------------|
G|-------------0---0-------2---2---|---------0---0---0---0-----------|---------0-----------0-------0---|
D|-0---0---------------0-----------|-----2---2---------------0-------|-----2-------2---2-------2-------|
A|---------------------------------|-----2-----------------------2---|-3-------------------------------|
E|---------------------------------|-0-------------------------------|---------------------------------|


E|---------2---2---2---------------|---------------------------------|------------------------------|
B|---------3---3---3---3-----------|---------3---------------3-------|---------3--------------------|
G|-----2---2---2---2-------2-------|-------------0-------0-------0---|-------------0---0------------|
D|-0---------------------------0---|-0---0-----------0---------------|-----0------------------------|
A|---------------------------------|-2-------------------------------|-2-------------------0---2----|
E|---------------------------------|---------------------------------|-3----------------------------|


E|-----------------0---------------|---------2-----------------------|---------------------------------|
B|---------1---------------1---0---|-------------3-------3-----------|---------3---------------3-------|
G|-----0-------0-------------------|-----2-----------------------0---|-----0-------0-------2-------2---|
D|---------------------2-----------|-0-----------------------0-------|---------------------------------|
A|-3-------------------------------|-----------------3---------------|---------------------------------|
E|---------------------------------|---------------------------------|-3---------------2---------------|


E|-----------------------------------|---------------------------------|---------------------------------|
B|-----------------------0-----------|-----1---------------1-----------|-----3-------------------3---0---|
G|---------------0---0---------------|-----0---0---------------0-------|---------2-----------2-------0---|
D|---------0--2--------------2---0---|-----2-------2---2-----------2---|-0-----------0---0---------------|
A|-----2-----------------------------|-3-------------------------------|---------------------------------|
E|-0---------------------------------|---------------------------------|---------------------------------|


E|------0--------------|-2------|---------------------------------|------------------------------|
B|-----------1---------|-3------|---------3-----------3-----------|---------3-----------3--------|
G|----------------0----|-2------|-----4-----------4-------2-------|-----2-----------2--------2---|
D|---------------------|-0------|-5-----------5---------------5---|-4-----------4----------------|
A|-3-------------------|--------|---------------------------------|------------------------------|
E|---------------------|--------|---------------------------------|------------------------------|


E|-----------------0------------|-----------------2------------|---------------------------------|
B|---------1-----------1--------|---------3-------3----3-------|---------3-----------3-----------|
G|-----0-------------------0----|-----2-----------2--------0---|-----4-----------4-------4-------|
D|-2-----------2-----------2----|-0-----------0----------------|-5-----------5---------------0---|
A|------------------------------|------------------------------|---------------------------------|
E|------------------------------|------------------------------|---------------------------------|


E|---------------------------------|---------------------------------|-----------------2---------------|
B|---------3-----------3-----------|---------1-----------1-----------|---------3-----------3-----------|
G|-----2-----------2-------2-------|-----0-----------0---------------|-----2-------2-----------2-------|
D|-4-----------4---------------4---|-2-----------2---------------2---|-0---------------------------0---|
A|---------------------------------|-------------------------3-------|---------------------------------|
E|---------------------------------|---------------------------------|---------------------------------|


E|---------------------------------|-----------------2---------------|-----------------0---------------|
B|---------3-----------3-----------|---------3-----------3-----------|---------1-----------1-----------|
G|-----4-----------4-------4-------|-----2-------------------2-------|-----0-------------------0-------|
D|-5-----------5---------------5---|-4-----------4---------------4---|-2-----------2---------------2---|
A|---------------------------------|---------------------------------|---------------------------------|
E|---------------------------------|---------------------------------|---------------------------------|


E|---------------------------------|---------------------------------|-----------------2---------------|
B|---------3-----------3-----------|---------3-----------3-----------|---------3-----------3-----------|
G|-----2-----------2-------2-------|-----4-----------4-------4-------|-----2-------2-----------2-------|
D|-0-----------0---------------0---|-5-----------5---------------0---|-4---------------------------4---|
A|---------------------------------|---------------------------------|---------------------------------|
E|---------------------------------|---------------------------------|---------------------------------|


E|-----------------0---------------|-----------------2---------------|-3------|-3------|
B|---------1-----------1-----------|---------3-------3---3-----------|-3------|-3------|
G|-----0-------0-----------0-------|-----2-------2-----------2-------|-0------|-0------|
D|-2---------------------------2---|-0---------------------------0---|-0------|-0------|
A|---------------------------------|---------------------------------|-2------|-2------|
E|---------------------------------|---------------------------------|-3------|-3------|





Track 2: Std. Tuning

E|-----------------3---------------|-----------------2---------------|-----------------0---------------|
B|---------3-----------3-----------|---------3-----------3-----------|---------1-----------1-----------|
G|-----4-------------------4-------|-----2-------------------2-------|-----0-------------------0-------|
D|-5-----------5---------------5---|-4-----------4---------------4---|-2-----------2---------------2---|
A|---------------------------------|---------------------------------|---------------------------------|
E|---------------------------------|---------------------------------|---------------------------------|


E|---------------------|-----------------------|---------5-----------5-----------|
B|---------------------|-------8-----------8---|-----7-----------7-------7-------|
G|-2----4----5----9----|-7---------7-----------|-------------7---------------7---|
D|-4----5----7----10---|-9-------------9-------|---------------------------------|
A|---------------------|-----------------------|---------------------------------|
E|---------------------|-----------------------|---------------------------------|


E|-------------3---3-------3-------|---------------------|--------|-----------5-----------|
B|-----3---------------5-----------|---------------------|--------|-------5-------5-------|
G|-5-------5-----------------------|-2----4----5----9----|-7------|-------------------7---|
D|---------------------------------|-4----5----7----10---|-9------|-----------------------|
A|---------------------------------|---------------------|--------|-----------------------|
E|---------------------------------|---------------------|--------|-----------------------|


E|-------------|-----------------5------------|-7------|-------5---------------|--------|
B|-------------|---------7-----------7--------|-8------|-----------7---5-------|--------|
G|-5-----------|-----7-------7-----------7----|-7------|-------------------7---|-5------|
D|-------------|------------------------------|--------|-----------------------|--------|
A|-------------|------------------------------|--------|-----------------------|--------|
E|-------------|------------------------------|--------|-----------------------|--------|


E|---------5-----------------------|-------------3---3------------|-----------------5---------------|
B|-----------------7-------7-------|-----3---------------3--------|-----5-------5-------5-----------|
G|-----7-------7-------7-------7---|-5-------5---------------5----|-7-------7---------------7-------|
D|---------------------------------|------------------------------|-----------------------------7---|
A|---------------------------------|------------------------------|---------------------------------|
E|---------------------------------|------------------------------|---------------------------------|


E|---------7---------------5-------|-------------7---7------------|-------3----------------|
B|-----8---------------7-------5---|-----8------------------------|-----------3-------5----|
G|-7-----------7---7---------------|-9-------7-----------9---7----|-5-------------5--------|
D|---------------------------------|------------------------------|------------------------|
A|---------------------------------|------------------------------|------------------------|
E|---------------------------------|------------------------------|------------------------|


E|----------------------5----|-------------3-----------3-------|--------------2---------------|
B|-----5-------7---7---------|---------3-----------3-----------|---------3--------3-----------|
G|---------7-----------------|-----4-----------4---------------|-----2----------------2-------|
D|---------------------------|-----------------------------5---|-4------------------------4---|
A|---------------------------|---------------------------------|------------------------------|
E|---------------------------|---------------------------------|------------------------------|


E|-----------------0------------|---------------------|--------|--------------5---------------|
B|---------1-----------1--------|---------------------|--------|------------------7-------5---|
G|-----0-------------------0----|-2----4----5----9----|-7------|----------7-----------7-------|
D|-2-----------2----------------|-4----5----7----10---|-9------|------------------------------|
A|------------------------------|---------------------|--------|------------------------------|
E|------------------------------|---------------------|--------|------------------------------|


E|-------------|-----------------5------------|-7------|-----------------5---------------|
B|-------------|---------7-----------7--------|-8------|-----7---------------7-------5---|
G|-5-----------|-----7-------7-----------7----|-7------|-7-------7---------------7-------|
D|-------------|------------------------------|--------|-------------7-------------------|
A|-------------|------------------------------|--------|---------------------------------|
E|-------------|------------------------------|--------|---------------------------------|


E|-------------|-----5-------------------5-------|-------------3---3---------------|
B|-------------|---------7-------5---7-------7---|-----3-------------------5-------|
G|-5-----------|-7-----------7-------------------|-5-------5-----------5-------5---|
D|-------------|---------------------------------|---------------------------------|
A|-------------|---------------------------------|---------------------------------|
E|-------------|---------------------------------|---------------------------------|


E|---------------------5---5----|---------7---------------5-------|-------------7---7---------------|
B|-----5-------7---7------------|-----8-------8-------8-----------|-----8---------------8-----------|
G|-7-------7--------------------|-7---------------7-----------7---|-7-------9---------------9---7---|
D|------------------------------|---------------------------------|---------------------------------|
A|------------------------------|---------------------------------|---------------------------------|
E|------------------------------|---------------------------------|---------------------------------|


E|---------------------3-----------|-------------5---5------------|---------7---------------7----|
B|-----3-------5---5-------5-------|-----7---------------7--------|-----8-------8-------8--------|
G|-5-------5-------------------5---|---------7---------------7----|-7---------------7------------|
D|---------------------------------|------------------------------|------------------------------|
A|---------------------------------|------------------------------|------------------------------|
E|---------------------------------|------------------------------|------------------------------|


E|-7-------7--------------------|----------3---3---------------|---------5---------------5----|
B|-----10------8---8---8---8----|------------------3-------3---|-5---7-----------7------------|
G|------------------------------|----------------------5-------|-------------7-------7--------|
D|------------------------------|------5-----------------------|------------------------------|
A|------------------------------|------------------------------|------------------------------|
E|------------------------------|------------------------------|------------------------------|


E|---------7---------------5-------|----------7---7---------------|-------------3---3---------------|
B|-----8-------8-------7-----------|-----8------------8-------0---|-----5---------------5-----------|
G|-7---------------7-----------7---|-9--------------------9-------|-5-------5---------------5---0---|
D|---------------------------------|------------------------------|---------------------------------|
A|---------------------------------|------------------------------|---------------------------------|
E|---------------------------------|------------------------------|---------------------------------|


E|-------------5---5---------------|-------------3---3---------------|-5------|---------------------------------|
B|-----5---------------7-----------|-----5---------------5-----------|-7------|---------3-----------3-----------|
G|-7-------7---------------7----5--|-5-------5---------------5-------|-7------|-----4-----------4-------2-------|
D|---------------------------------|---------------------------------|--------|-5-----------5---------------5---|
A|---------------------------------|---------------------------------|--------|---------------------------------|
E|---------------------------------|---------------------------------|--------|---------------------------------|


E|---------------------------------|------------------------------|---------------------|
B|---------3-----------3-----------|---------1-----------1--------|---------------------|
G|-----2-----------2-------2-------|-----0-----------0-------0----|-2----4----5----9----|
D|-4-----------4---------------4---|-2-----------2----------------|-4----5----7----10---|
A|---------------------------------|------------------------------|---------------------|
E|---------------------------------|------------------------------|---------------------|


E|--------|---------5-----------5-----------|------------------------------|---------------------|
B|--------|-----7-------7---5-----------5---|---------1-----------1--------|---------------------|
G|-7------|-7-----------------------7-------|-----0-----------0-------0----|-2----4----5----9----|
D|-9------|---------------------------------|-2-----------2----------------|-4----5----7----10---|
A|--------|---------------------------------|------------------------------|---------------------|
E|--------|---------------------------------|------------------------------|---------------------|


E|-----------------3---------------|-----------------2---------------|-----------------0---------------|
B|---------3-----------3-----------|---------3-----------3-----------|---------1-----------1-----------|
G|-----4-------------------4-------|-----2-------------------2-------|-----0-------------------0-------|
D|-5-----------5---------------5---|-4-----------4---------------4---|-2-----------2---------------2---|
A|---------------------------------|---------------------------------|---------------------------------|
E|---------------------------------|---------------------------------|---------------------------------|


E|---------------------|-----------------------|---------5-----------5-----------|
B|---------------------|-------8-----------8---|-----7-----------7-------7-------|
G|-2----4----5----9----|-7---------7-----------|-------------7---------------7---|
D|-4----5----7----10---|-9-------------9-------|---------------------------------|
A|---------------------|-----------------------|---------------------------------|
E|---------------------|-----------------------|---------------------------------|


E|-------------3---3-------3-------|---------------------|--------|--------|
B|-----3---------------5-----------|---------------------|--------|--------|
G|-5-------5-----------------------|-2----4----5----9----|-7------|-7------|
D|---------------------------------|-4----5----7----10---|-9------|-9------|
A|---------------------------------|---------------------|--------|--------|
E|---------------------------------|---------------------|--------|--------|





Track 3: Std. Tuning

E|-----------------------|-----------------------|-----------------------|--------|
B|-------10--10--8---10--|-10----10--10--8-------|-------10--10--8---10--|-10-----|
G|-----------------------|-------------------9---|-9---------------------|--------|
D|-----------------------|-----------------------|-----------------------|--------|
A|-----------------------|-----------------------|-----------------------|--------|
E|-----------------------|-----------------------|-----------------------|--------|


E|-----------------------|-----------------------|--------------------|----------------10-12---|
B|-------10--10--8---10--|-10----10--10--8-------|-------10--10--8----|-10---12---13-----------|
G|-----------------------|-------------------9---|-9------------------|------------------------|
D|-----------------------|-----------------------|--------------------|------------------------|
A|-----------------------|-----------------------|--------------------|------------------------|
E|-----------------------|-----------------------|--------------------|------------------------|


E|-10-----|--------|--------|--------|--------|--------|--------|--------|--------|
B|--------|--------|--------|--------|--------|--------|--------|--------|--------|
G|--------|--------|--------|--------|--------|--------|--------|--------|--------|
D|--------|--------|--------|--------|--------|--------|--------|--------|--------|
A|--------|--------|--------|--------|--------|--------|--------|--------|--------|
E|--------|--------|--------|--------|--------|--------|--------|--------|--------|


E|--------|--------|--------|--------|--------|-----------------------|-----------------------|
B|--------|--------|--------|--------|--------|-------10--10--8---10--|-10----10--10--8-------|
G|--------|--------|--------|--------|--------|-----------------------|-------------------9---|
D|--------|--------|--------|--------|--------|-----------------------|-----------------------|
A|--------|--------|--------|--------|--------|-----------------------|-----------------------|
E|--------|--------|--------|--------|--------|-----------------------|-----------------------|


E|--------------------|----------------10-12---|-10-----|--------|--------|--------|
B|-------10--10--8----|-10---12---13-----------|--------|--------|--------|--------|
G|-9------------------|------------------------|--------|--------|--------|--------|
D|--------------------|------------------------|--------|--------|--------|--------|
A|--------------------|------------------------|--------|--------|--------|--------|
E|--------------------|------------------------|--------|--------|--------|--------|


E|--------|--------|--------|--------|--------|--------|--------|--------|--------|
B|--------|--------|--------|--------|--------|--------|--------|--------|--------|
G|--------|--------|--------|--------|--------|--------|--------|--------|--------|
D|--------|--------|--------|--------|--------|--------|--------|--------|--------|
A|--------|--------|--------|--------|--------|--------|--------|--------|--------|
E|--------|--------|--------|--------|--------|--------|--------|--------|--------|


E|--------|----------------------10--10--|-10-12---10-------------|----------------|
B|--------|----------8---10--12----------|--------------10---8----|----8----8------|
G|--------|------9-----------------------|------------------------|-9--------------|
D|--------|------------------------------|------------------------|----------------|
A|--------|------------------------------|------------------------|----------------|
E|--------|------------------------------|------------------------|----------------|


E|--------|--------|--------|--------|--------|--------|--------|-----------------------|
B|--------|--------|--------|--------|--------|--------|--------|-------10--10--8---10--|
G|--------|--------|--------|--------|--------|--------|--------|-----------------------|
D|--------|--------|--------|--------|--------|--------|--------|-----------------------|
A|--------|--------|--------|--------|--------|--------|--------|-----------------------|
E|--------|--------|--------|--------|--------|--------|--------|-----------------------|


E|-----------------------|--------------------|----------------10-12---|-10--------------------|
B|-10----10--10--8-------|-------10--10--8----|-10---12---13-----------|-------10--10--8---10--|
G|-------------------9---|-9------------------|------------------------|-----------------------|
D|-----------------------|--------------------|------------------------|-----------------------|
A|-----------------------|--------------------|------------------------|-----------------------|
E|-----------------------|--------------------|------------------------|-----------------------|


E|-----------------------|--------------------|----------------10-12---|-10--------------------|
B|-10----10--10--8-------|-------10--10--8----|-10---12---13-----------|-------10--10--8---10--|
G|-------------------9---|-9------------------|------------------------|-----------------------|
D|-----------------------|--------------------|------------------------|-----------------------|
A|-----------------------|--------------------|------------------------|-----------------------|
E|-----------------------|--------------------|------------------------|-----------------------|


E|-----------------------|-----------------------|--------|-----------------------|
B|-10----10--10--8-------|-------10--10--8---10--|-10-----|-------10--10--8---10--|
G|-------------------9---|-9---------------------|--------|-----------------------|
D|-----------------------|-----------------------|--------|-----------------------|
A|-----------------------|-----------------------|--------|-----------------------|
E|-----------------------|-----------------------|--------|-----------------------|


E|-----------------------|--------------------|----------------10-12---|-10-----|-10-----|
B|-10----10--10--8-------|-------10--10--8----|-10---12---13-----------|--------|--------|
G|-------------------9---|-9------------------|------------------------|--------|--------|
D|-----------------------|--------------------|------------------------|--------|--------|
A|-----------------------|--------------------|------------------------|--------|--------|
E|-----------------------|--------------------|------------------------|--------|--------|





Track 4: Untitled

G|--------|--------|--------|--------|--------|--------|--------|--------|--------|
D|--------|--------|--------|--------|--------|--------|--------|--------|--------|
A|--------|--------|--------|--------|--------|--------|--------|--------|--------|
E|--------|--------|--------|--------|--------|--------|--------|--------|--------|


G|--------|--------|--------|--------|--------|--------|--------|--------|--------|
D|--------|--------|--------|--------|--------|--------|--------|--------|--------|
A|--------|--------|--------|--------|--------|--------|--------|--------|--------|
E|--------|--------|--------|--------|--------|--------|--------|--------|--------|


G|--------|--------|--------|--------|--------|--------|--------|--------|--------|
D|--------|--------|--------|--------|--------|--------|--------|--------|--------|
A|--------|--------|--------|--------|--------|--------|--------|--------|--------|
E|--------|--------|--------|--------|--------|--------|--------|--------|--------|


G|--------|--------|--------|--------|--------|--------|--------|--------|--------|
D|--------|--------|--------|--------|--------|--------|--------|--------|--------|
A|--------|--------|--------|--------|--------|--------|--------|--------|--------|
E|--------|--------|--------|--------|--------|--------|--------|--------|--------|


G|--------|--------|--------|--------|--------|--------|--------|--------|--------|
D|--------|--------|--------|--------|--------|--------|--------|--------|--------|
A|--------|--------|--------|--------|--------|--------|--------|--------|--------|
E|--------|--------|--------|--------|--------|--------|--------|--------|--------|


G|--------|--------|--------|--------|--------|--------|--------|--------|--------|
D|--------|--------|--------|--------|--------|--------|--------|--------|--------|
A|--------|--------|--------|--------|--------|--------|--------|--------|--------|
E|--------|--------|--------|--------|--------|--------|--------|--------|--------|


G|--------|--------|--------|--------|--------|--------|--------|--------|--------|
D|--------|--------|--------|--------|--------|--------|--------|--------|--------|
A|--------|--------|--------|--------|--------|--------|--------|--------|--------|
E|--------|--------|--------|--------|--------|--------|--------|--------|--------|


G|--------|--------|--------|--------|--------|
D|--------|--------|--------|--------|--------|
A|--------|--------|--------|--------|--------|
E|--------|--------|--------|--------|--------|