Menu:

 

Search:

 

eric clapton - son and sylvia:

 



Title: Son And Sylvia
Artist: 
Album: Reptile
Author: Eric Clapton


Track 1: gtr. 1 (acous.)

E|-------------0-------------------|-------------0-------------------|-------------3-----------2-------|
B|---------2---------------2-------|---------2---------------2-------|---------3-----------3-------3---|
G|-----2---------------2-------2---|-----1---------------1-------1---|-----0---------------------------|
D|---------------------------------|---------------------------------|---------------------------------|
A|---------------------------------|---------------------------------|---------------------------------|
E|-2---------------2---------------|-0---------------0---------------|-3---------------3---------------|


E|---------------------------------|-------------0-------------------|-------------0-------------------|
B|-------------0---------------0---|---------2---------------2-------|---------2---------------2-------|
G|---------2---------------2-------|-----2---------------2-------2---|-----1---------------1-------1---|
D|-----2---------------2-----------|---------------------------------|---------------------------------|
A|-0---------------0---------------|---------------------------------|---------------------------------|
E|---------------------------------|-2---------------2---------------|-0---------------0---------------|


E|-------------3---------------3---|-------------2-------------------|-------------2-------------------|
B|---------3---------------2-------|---------0---------------0-------|---------0---------------0-------|
G|-----0---------------0-----------|-----2---------------2-------2---|-----1---------------1-------1---|
D|---------------------------------|-0---------------0---------------|-0---------------0---------------|
A|-----------------0---------------|---------------------------------|---------------------------------|
E|-0-------------------------------|---------------------------------|---------------------------------|


E|-------------0-------------------|---------------------------------|---------------------------------|
B|---------0---------------0-------|-------------3---------------0---|-------------2---------------2---|
G|-----2---------------2-------2---|---------2---------------2-------|---------1---------------1-------|
D|---------------------------------|-----0---------------0-----------|-----2---------------2-----------|
A|-4---------------4---------------|-2-------------------------------|-0---------------0---------------|
E|---------------------------------|-----------------0---------------|---------------------------------|


E|---------------------------------|------------------------------|-------------0-------------------|
B|-------------0---------------0---|-------------0-----------0----|---------2---------------2-------|
G|---------2---------------2-------|---------2-----------2--------|-----2---------------2-------2---|
D|-----0---------------0-----------|-----0------------------------|---------------------------------|
A|---------------------------------|------------------------------|---------------------------------|
E|-2---------------2---------------|-0---------------0------------|-2---------------2---------------|


E|-------------0-------------------|-------------3-----------2-------|---------------------------------|
B|---------2---------------2-------|---------3-----------3-------3---|-------------0---------------0---|
G|-----1---------------1-------1---|-----0---------------------------|---------2---------------2-------|
D|---------------------------------|---------------------------------|-----2---------------2-----------|
A|---------------------------------|---------------------------------|-0---------------0---------------|
E|-0---------------0---------------|-3---------------3---------------|---------------------------------|


E|-------------0-------------------|-------------0-------------------|-------------3---------------3---|
B|---------2---------------2-------|---------2---------------2-------|---------3---------------2-------|
G|-----2---------------2-------2---|-----1---------------1-------1---|-----0---------------0-----------|
D|---------------------------------|---------------------------------|---------------------------------|
A|---------------------------------|---------------------------------|-----------------0---------------|
E|-2---------------2---------------|-0---------------0---------------|-0-------------------------------|


E|-------------2-------------------|-------------2-------------------|-------------0-------------------|
B|---------0---------------0-------|---------0---------------0-------|---------0---------------0-------|
G|-----2---------------2-------2---|-----1---------------1-------1---|-----2---------------2-------2---|
D|-0---------------0---------------|-0---------------0---------------|---------------------------------|
A|---------------------------------|---------------------------------|-4---------------4---------------|
E|---------------------------------|---------------------------------|---------------------------------|


E|---------------------------------|---------------------------------|---------------------------------|
B|-------------3---------------0---|-------------2---------------2---|-------------0---------------0---|
G|---------2---------------2-------|---------1---------------1-------|---------2---------------2-------|
D|-----0---------------0-----------|-----2---------------2-----------|-----0---------------0-----------|
A|-2-------------------------------|-0---------------0---------------|---------------------------------|
E|-----------------0---------------|---------------------------------|-2---------------2---------------|


E|------------------------------|-------------0-------------------|-------------0-------------------|
B|-------------0-----------0----|---------2---------------2-------|---------2---------------2-------|
G|---------2-----------2--------|-----2---------------2-------2---|-----1---------------1-------1---|
D|-----0------------------------|---------------------------------|---------------------------------|
A|------------------------------|---------------------------------|---------------------------------|
E|-0---------------0------------|-2---------------2---------------|-0---------------0---------------|


E|-------------3-----------2-------|---------------------------------|-------------0-------------------|
B|---------3-----------3-------3---|-------------0---------------0---|---------2---------------2-------|
G|-----0---------------------------|---------2---------------2-------|-----2---------------2-------2---|
D|---------------------------------|-----2---------------2-----------|---------------------------------|
A|---------------------------------|-0---------------0---------------|---------------------------------|
E|-3---------------3---------------|---------------------------------|-2---------------2---------------|


E|-------------0-------------------|-------------3---------------3---|-------------2-------------------|
B|---------2---------------2-------|---------3---------------2-------|---------0---------------0-------|
G|-----1---------------1-------1---|-----0---------------0-----------|-----2---------------2-------2---|
D|---------------------------------|---------------------------------|-0---------------0---------------|
A|---------------------------------|-----------------0---------------|---------------------------------|
E|-0---------------0---------------|-0-------------------------------|---------------------------------|


E|-------------2-------------------|-------------0-------------------|---------------------------------|
B|---------0---------------0-------|---------0---------------0-------|-------------3---------------0---|
G|-----1---------------1-------1---|-----2---------------2-------2---|---------2---------------2-------|
D|-0---------------0---------------|---------------------------------|-----0---------------0-----------|
A|---------------------------------|-4---------------4---------------|-2-------------------------------|
E|---------------------------------|---------------------------------|-----------------0---------------|


E|---------------------------------|---------------------------------|---------------------------------|
B|-------------2---------------2---|-------------0---------------0---|-------------0---------------0---|
G|---------1---------------1-------|---------2---------------2-------|---------2---------------2-------|
D|-----2---------------2-----------|-----0---------------0-----------|-----0---------------0-----------|
A|-0---------------0---------------|---------------------------------|---------------------------------|
E|---------------------------------|-2---------------2---------------|-3---------------3---------------|


E|---------------------------------|---------------------------|---------------------------------|
B|-------------0---------------0---|-------------0-------------|-------------0---------------0---|
G|---------2---------------2-------|---------2-----------------|---------0---------------0-------|
D|-----0---------------0-----------|-----0---------------------|-----0---------------0-----------|
A|---------------------------------|---------------------------|---------------------------------|
E|-0---------------0---------------|-0---------------0-----2---|-3---------------3---------------|


E|-----------------------------0---|---------------------------------|---------------------------------|
B|-2-----------2-----------2-------|-3-----------3---------------3---|-------------0---3-------2-------|
G|-----2---------------2-----------|-----0-------------------0-------|---------0-----------2-------2---|
D|---------0-----------------------|---------0-----------0-----------|-----0---------------------------|
A|---------------------------------|---------------------------------|-----------------0---------------|
E|-2---------------2---------------|-0---------------0---------------|-0-------------------------------|


E|---------------------------------|-----------------------------0---|---------------------------------|
B|-0-----------0---------------0---|-2-----------2-----------2-------|-3-----------3---------------3---|
G|---------0---------------0-------|-----2---------------2-----------|-----0-------------------0-------|
D|-----0---------------0-----------|---------0-----------------------|---------0-----------0-----------|
A|---------------------------------|---------------------------------|---------------------------------|
E|-3---------------3---------------|-2---------------2---------------|-0---------------0---------------|


E|---------------------------------|---------------------------------|-----------------------------0---|
B|-------------0---3-------2-------|-0-----------0---------------0---|-2-----------2-----------2-------|
G|---------0-----------2-------2---|---------0---------------0-------|-----2---------------2-----------|
D|-----0---------------------------|-----0---------------0-----------|---------0-----------------------|
A|-----------------0---------------|---------------------------------|---------------------------------|
E|-0-------------------------------|-3---------------3---------------|-2---------------2---------------|


E|---------------------------------|-----------------------|-------------0-------------------|
B|-3-----------3---------------3---|-------------0---1-----|---------2---------------2-------|
G|-----0-------------------0-------|---------0-------2-----|-----2---------------2-------2---|
D|---------0-----------0-----------|-----0-----------------|---------------------------------|
A|---------------------------------|-----------------------|---------------------------------|
E|-0---------------0---------------|-0---------------1-----|-2---------------2---------------|


E|-------------0-------------------|-------------3-----------2-------|---------------------------------|
B|---------2---------------2-------|---------3-----------3-------3---|-------------0---------------0---|
G|-----1---------------1-------1---|-----0---------------------------|---------2---------------2-------|
D|---------------------------------|---------------------------------|-----2---------------2-----------|
A|---------------------------------|---------------------------------|-0---------------0---------------|
E|-0---------------0---------------|-3---------------3---------------|---------------------------------|


E|-------------0-------------------|-------------0-------------------|-------------3---------------3---|
B|---------2---------------2-------|---------2---------------2-------|---------3---------------2-------|
G|-----2---------------2-------2---|-----1---------------1-------1---|-----0---------------0-----------|
D|---------------------------------|---------------------------------|---------------------------------|
A|---------------------------------|---------------------------------|-----------------0---------------|
E|-2---------------2---------------|-0---------------0---------------|-0-------------------------------|


E|-------------2-------------------|-------------2-------------------|-------------0-------------------|
B|---------0---------------0-------|---------0---------------0-------|---------0---------------0-------|
G|-----2---------------2-------2---|-----1---------------1-------1---|-----2---------------2-------2---|
D|-0---------------0---------------|-0---------------0---------------|---------------------------------|
A|---------------------------------|---------------------------------|-4---------------4---------------|
E|---------------------------------|---------------------------------|---------------------------------|


E|---------------------------------|---------------------------------|---------------------------------|
B|-------------3---------------0---|-------------2---------------2---|-------------0---------------0---|
G|---------2---------------2-------|---------1---------------1-------|---------2---------------2-------|
D|-----0---------------0-----------|-----2---------------2-----------|-----0---------------0-----------|
A|-2-------------------------------|-0---------------0---------------|---------------------------------|
E|-----------------0---------------|---------------------------------|-2---------------2---------------|


E|---------------------------------|---------------------------------|---------------------------|
B|-------------0---------------0---|-------------0---------------0---|-------------0-------------|
G|---------2---------------2-------|---------2---------------2-------|---------2-----------------|
D|-----0---------------0-----------|-----0---------------0-----------|-----0---------------------|
A|---------------------------------|---------------------------------|---------------------------|
E|-3---------------3---------------|-0---------------0---------------|-0---------------0-----2---|


E|---------------------------------|-----------------------------0---|---------------------------------|
B|-------------0---------------0---|-2-----------2-----------2-------|-3-----------3---------------3---|
G|---------0---------------0-------|-----2---------------2-----------|-----0-------------------0-------|
D|-----0---------------0-----------|---------0-----------------------|---------0-----------0-----------|
A|---------------------------------|---------------------------------|---------------------------------|
E|-3---------------3---------------|-2---------------2---------------|-0---------------0---------------|


E|---------------------------------|---------------------------------|-----------------------------0---|
B|-------------0---3-------2-------|-0-----------0---------------0---|-2-----------2-----------2-------|
G|---------0-----------2-------2---|---------0---------------0-------|-----2---------------2-----------|
D|-----0---------------------------|-----0---------------0-----------|---------0-----------------------|
A|-----------------0---------------|---------------------------------|---------------------------------|
E|-0-------------------------------|-3---------------3---------------|-2---------------2---------------|


E|---------------------------------|---------------------------------|---------------------------------|
B|-3-----------3---------------3---|-------------0---3-------2-------|-0-----------0---------------0---|
G|-----0-------------------0-------|---------0-----------2-------2---|---------0---------------0-------|
D|---------0-----------0-----------|-----0---------------------------|-----0---------------0-----------|
A|---------------------------------|-----------------0---------------|---------------------------------|
E|-0---------------0---------------|-0-------------------------------|-3---------------3---------------|


E|-----------------------------0---|---------------------------------|---------------------------------|
B|-2-----------2-----------2-------|-3-----------3---------------3---|-------------0---3-------2-------|
G|-----2---------------2-----------|-----0-------------------0-------|---------0-----------2-------2---|
D|---------0-----------------------|---------0-----------0-----------|-----0---------------------------|
A|---------------------------------|---------------------------------|-----------------0---------------|
E|-2---------------2---------------|-0---------------0---------------|-0-------------------------------|


E|---------------------------------|-----------------------------0---|---------------------------------|
B|-0-----------0---------------0---|-2-----------2-----------2-------|-3-----------3---------------3---|
G|---------0---------------0-------|-----2---------------2-----------|-----0-------------------0-------|
D|-----0---------------0-----------|---------0-----------------------|---------0-----------0-----------|
A|---------------------------------|---------------------------------|---------------------------------|
E|-3---------------3---------------|-2---------------2---------------|-0---------------0---------------|


E|---------------------------------|---------------------------------|-----------------------------0---|
B|-------------0---3-------2-------|-0-----------0---------------0---|-2-----------2-----------2-------|
G|---------0-----------2-------2---|---------0---------------0-------|-----2---------------2-----------|
D|-----0---------------------------|-----0---------------0-----------|---------0-----------------------|
A|-----------------0---------------|---------------------------------|---------------------------------|
E|-0-------------------------------|-3---------------3---------------|-2---------------2---------------|


E|---------------------------------|---------------------------------|---------------------------------|
B|-3-----------3---------------3---|-------------0---3-------2-------|-0-----------0---------------0---|
G|-----0-------------------0-------|---------0-----------2-------2---|---------0---------------0-------|
D|---------0-----------0-----------|-----0---------------------------|-----0---------------0-----------|
A|---------------------------------|-----------------0---------------|---------------------------------|
E|-0---------------0---------------|-0-------------------------------|-3---------------3---------------|


E|-----------------------------0---|---------------------------------|-----------------------|
B|-2-----------2-----------2-------|-3-----------3---------------3---|-------------0---1-----|
G|-----2---------------2-----------|-----0-------------------0-------|---------0-------2-----|
D|---------0-----------------------|---------0-----------0-----------|-----0-----------------|
A|---------------------------------|---------------------------------|-----------------------|
E|-2---------------2---------------|-0---------------0---------------|-0---------------1-----|


E|--------|--------|
B|-1------|-1------|
G|-2------|-2------|
D|--------|--------|
A|--------|--------|
E|-1------|-1------|





Track 2: gtr. 3 (nylon-str. acous.)

E|--------|--------|--------|--------|--------|--------|--------|--------|--------|
B|--------|--------|--------|--------|--------|--------|--------|--------|--------|
G|--------|--------|--------|--------|--------|--------|--------|--------|--------|
D|--------|--------|--------|--------|--------|--------|--------|--------|--------|
A|--------|--------|--------|--------|--------|--------|--------|--------|--------|
E|--------|--------|--------|--------|--------|--------|--------|--------|--------|


E|--------|--------|--------|--------|--------|-------------------------------|-------------------|
B|--------|--------|--------|--------|--------|-------------------------------|-------------------|
G|--------|--------|--------|--------|--------|--------------6----6---4-------|-------------------|
D|--------|--------|--------|--------|--------|---------------------------7---|-6--4--2-----2-----|
A|--------|--------|--------|--------|--------|----------7--------------------|-------------------|
E|--------|--------|--------|--------|--------|-------------------------------|-------------------|


E|--------------------------|-------------|----------------------------------|-------------------|
B|--------------------------|-------------|----------------------------------|-------------------|
G|--------------7-----7--9--|-6-----------|--------------6----6--6---4-------|-------------------|
D|--------------------------|-------------|------------------------------7---|-6--4--2-----2-----|
A|----------7---------------|-------------|----------7-----------------------|-------------------|
E|--------------------------|-------------|----------------------------------|-------------------|


E|--------------------------|--------|--------------------------------|--------|---------------------------------|
B|----------3--2--3-----2---|-7------|--------------7----7--7---7--9--|-5------|-------------------------7---5---|
G|--------------------------|--------|--------------------------------|--------|----------7--6--7----7-----------|
D|--------------------------|--------|----------6---------------------|--------|---------------------------------|
A|--------------------------|--------|--------------------------------|--------|---------------------------------|
E|--------------------------|--------|--------------------------------|--------|---------------------------------|


E|--------|--------------------------|--------|--------|--------|--------|--------|
B|--------|--------------------------|--------|--------|--------|--------|--------|
G|-6------|--------------2-----4--6--|-4------|--------|--------|--------|--------|
D|--------|----------4---------------|--------|--------|--------|--------|--------|
A|--------|--------------------------|--------|--------|--------|--------|--------|
E|--------|--------------------------|--------|--------|--------|--------|--------|


E|--------|--------|--------|--------|-----------------------------|--------|---------------------------------|
B|--------|--------|--------|--------|-----------7----7--7---7--9--|-5------|-------------------------7---5---|
G|--------|--------|--------|--------|-----------------------------|--------|----------7--6--7----7-----------|
D|--------|--------|--------|--------|-------6---------------------|--------|---------------------------------|
A|--------|--------|--------|--------|-----------------------------|--------|---------------------------------|
E|--------|--------|--------|--------|-----------------------------|--------|---------------------------------|


E|--------|--------------------------|-----------------------------|--------------------------|
B|--------|--------------------------|-----------------------------|--------------------------|
G|-6------|--------------2-----4--6--|-4-----4---------2---4---6---|-4--6--4-----4--------2---|
D|--------|----------4---------------|-----------2--4--------------|------------------4-------|
A|--------|--------------------------|-----------------------------|--------------------------|
E|--------|--------------------------|-----------------------------|--------------------------|


E|--------------------------|---------------------|--------------------------------|
B|--------------------------|---------------------|-----5---3---2--3--2------------|
G|-7----6---7--6--4----2----|---------------------|----------------------4---------|
D|--------------------------|-5-----5---5---------|----------------------------2---|
A|--------------------------|---------------------|--------------------------------|
E|--------------------------|---------------------|--------------------------------|


E|------------------------|--------------------------------|---------------------|
B|-----3--------3---------|---------3---5---7----5---7--5--|---------------------|
G|-4--------4-------------|-----4--------------------------|-7-----7---7---------|
D|------------------------|--------------------------------|---------------------|
A|------------------------|--------------------------------|---------------------|
E|------------------------|--------------------------------|---------------------|


E|--------------------------------|------------------------|--------------------------------|
B|-----5---3---2--3--2------------|-----3--------3---------|---------3---5---7----5---7--5--|
G|----------------------4---------|-4--------4-------------|-----4--------------------------|
D|----------------------------2---|------------------------|--------------------------------|
A|--------------------------------|------------------------|--------------------------------|
E|--------------------------------|------------------------|--------------------------------|


E|---------------------|--------------------------------|------------------------|
B|---------------------|-----5---3---2--3--2------------|-----3--------3---------|
G|-7-----7---7---------|----------------------4---------|-4--------4-------------|
D|---------------------|----------------------------2---|------------------------|
A|---------------------|--------------------------------|------------------------|
E|---------------------|--------------------------------|------------------------|


E|-----------------------|-------------------------------|-------------------|--------------------------|
B|---------3---5---------|-------------------------------|-------------------|--------------------------|
G|-----4-----------5-----|--------------6----6---4-------|-------------------|--------------7-----7--9--|
D|-----------------------|---------------------------7---|-6--4--2-----2-----|--------------------------|
A|-----------------------|----------7--------------------|-------------------|----------7---------------|
E|-----------------------|-------------------------------|-------------------|--------------------------|


E|-------------|----------------------------------|-------------------|--------------------------|
B|-------------|----------------------------------|-------------------|----------3--2--3-----2---|
G|-6-----------|--------------6----6--6---4-------|-------------------|--------------------------|
D|-------------|------------------------------7---|-6--4--2-----2-----|--------------------------|
A|-------------|----------7-----------------------|-------------------|--------------------------|
E|-------------|----------------------------------|-------------------|--------------------------|


E|--------|--------------------------------|--------|---------------------------------|
B|-7------|--------------7----7--7---7--9--|-5------|-------------------------7---5---|
G|--------|--------------------------------|--------|----------7--6--7----7-----------|
D|--------|----------6---------------------|--------|---------------------------------|
A|--------|--------------------------------|--------|---------------------------------|
E|--------|--------------------------------|--------|---------------------------------|


E|--------|--------------------------|----------------------------|--------------------------|
B|--------|--------------------------|----------------------------|--------------------------|
G|-6------|--------------2-----4--6--|-4-----4--------2---4---6---|-4--6--4-----4--------2---|
D|--------|----------4---------------|------------2---------------|------------------4-------|
A|--------|--------------------------|----------------------------|--------------------------|
E|--------|--------------------------|----------------------------|--------------------------|


E|--------------------------|---------------------|--------------------------------|
B|--------------------------|---------------------|-----5---3---2--3--2------------|
G|-7----6---7--6--4---------|---------------------|----------------------4---------|
D|---------------------7----|-5-----5---5---------|----------------------------2---|
A|--------------------------|---------------------|--------------------------------|
E|--------------------------|---------------------|--------------------------------|


E|------------------------|--------------------------------|---------------------|
B|-----3--------3---------|---------3---5---7----5---7--5--|---------------------|
G|-4--------4-------------|-----4--------------------------|-7-----7---7---------|
D|------------------------|--------------------------------|---------------------|
A|------------------------|--------------------------------|---------------------|
E|------------------------|--------------------------------|---------------------|


E|--------------------------------|------------------------|--------------------------------|
B|-----5---3---2--3--2------------|-----3--------3---------|---------3---5---7----5---7--5--|
G|----------------------4---------|-4--------4-------------|-----4--------------------------|
D|----------------------------2---|------------------------|--------------------------------|
A|--------------------------------|------------------------|--------------------------------|
E|--------------------------------|------------------------|--------------------------------|


E|---------------------|--------------------------------|------------------------|
B|---------------------|-----5---3---2--3--2------------|-----3--------3---------|
G|-7-----7---7---------|----------------------4---------|-4--------4-------------|
D|---------------------|----------------------------2---|------------------------|
A|---------------------|--------------------------------|------------------------|
E|---------------------|--------------------------------|------------------------|


E|--------------------------------|---------------------|--------------------------------|
B|---------3---5---7----5---7--5--|---------------------|-----5---3---2--3--2------------|
G|-----4--------------------------|-7-----7---7---------|----------------------4---------|
D|--------------------------------|---------------------|----------------------------2---|
A|--------------------------------|---------------------|--------------------------------|
E|--------------------------------|---------------------|--------------------------------|


E|------------------------|--------------------------------|---------------------|
B|-----3--------3---------|---------3---5---7----5---7--5--|---------------------|
G|-4--------4-------------|-----4--------------------------|-7-----7---7---------|
D|------------------------|--------------------------------|---------------------|
A|------------------------|--------------------------------|---------------------|
E|------------------------|--------------------------------|---------------------|


E|--------------------------------|------------------------|--------------------------------|
B|-----5---3---2--3--2------------|-----3--------3---------|---------3---5---7----5---7--5--|
G|----------------------4---------|-4--------4-------------|-----4--------------------------|
D|----------------------------2---|------------------------|--------------------------------|
A|--------------------------------|------------------------|--------------------------------|
E|--------------------------------|------------------------|--------------------------------|


E|---------------------|--------------------------------|------------------------|
B|---------------------|-----5---3---2--3--2------------|-----3--------3---------|
G|-7-----7---7---------|----------------------4---------|-4--------4-------------|
D|---------------------|----------------------------2---|------------------------|
A|---------------------|--------------------------------|------------------------|
E|---------------------|--------------------------------|------------------------|


E|-----------------------|--------|--------|
B|---------3---5---------|--------|--------|
G|-----4-----------5-----|-5------|-5------|
D|-----------------------|--------|--------|
A|-----------------------|--------|--------|
E|-----------------------|--------|--------|





Track 3: gtrs. 4 + 8 (elec.)

E|--------|--------|--------|--------|--------|--------|--------|--------|--------|
B|--------|--------|--------|--------|--------|--------|--------|--------|--------|
G|--------|--------|--------|--------|--------|--------|--------|--------|--------|
D|--------|--------|--------|--------|--------|--------|--------|--------|--------|
A|--------|--------|--------|--------|--------|--------|--------|--------|--------|
E|--------|--------|--------|--------|--------|--------|--------|--------|--------|


E|--------|--------|--------|--------|--------|--------|--------|--------|--------|
B|--------|--------|--------|--------|--------|--------|--------|--------|--------|
G|--------|--------|--------|--------|--------|--------|--------|--------|--------|
D|--------|--------|--------|--------|--------|--------|--------|--------|--------|
A|--------|--------|--------|--------|--------|--------|--------|--------|--------|
E|--------|--------|--------|--------|--------|--------|--------|--------|--------|


E|--------|--------|--------|--------|--------|--------|--------|--------|--------|
B|--------|--------|--------|--------|--------|--------|--------|--------|--------|
G|--------|--------|--------|--------|--------|--------|--------|--------|--------|
D|--------|--------|--------|--------|--------|--------|--------|--------|--------|
A|--------|--------|--------|--------|--------|--------|--------|--------|--------|
E|--------|--------|--------|--------|--------|--------|--------|--------|--------|


E|--------|-------------------------------|-------------------|--------------------------|
B|--------|-------------------------------|-------------------|--------------------------|
G|--------|--------------6----6---4-------|-------------------|--------------7-----7--9--|
D|--------|---------------------------7---|-6--4--2-----2-----|--------------------------|
A|--------|----------7--------------------|-------------------|----------7---------------|
E|--------|-------------------------------|-------------------|--------------------------|


E|--------|----------------------------------|-------------------|--------------------------|
B|--------|----------------------------------|-------------------|--------------------------|
G|-6------|--------------6-------------------|-------------------|----------7--6--7-----6---|
D|--------|-------------------11-11--9-------|-------------------|--------------------------|
A|--------|----------7-------------------12--|-11-9--7-----7-----|--------------------------|
E|--------|----------------------------------|-------------------|--------------------------|


E|--------|--------------------|--------|--------|--------|--------|--------|--------|
B|--------|--------------------|--------|--------|--------|--------|--------|--------|
G|-11-----|--------------------|--------|--------|--------|--------|--------|--------|
D|--------|--------------------|--------|--------|--------|--------|--------|--------|
A|--------|--------------------|--------|--------|--------|--------|--------|--------|
E|--------|--------------------|--------|--------|--------|--------|--------|--------|


E|--------|--------|----------------------------|------------------------|--------------------------------|
B|--------|--------|----------------------------|------------------------|--------------------------------|
G|--------|--------|-----------9---7---6--7--6--|------------------------|-----------------7----6---7--6--|
D|--------|--------|----------------------------|-9----7---7---7---------|---------7---9------------------|
A|--------|--------|----------------------------|------------------------|-----9--------------------------|
E|--------|--------|----------------------------|------------------------|--------------------------------|


E|---------------------|----------------------------|------------------------|--------------------------------|
B|---------------------|----------------------------|------------------------|--------------------------------|
G|---------------------|-----------9---7---6--7--6--|------------------------|-----------------7----6---7--6--|
D|-9-----9---9---------|----------------------------|-9----7---7---7---------|---------7---9------------------|
A|---------------------|----------------------------|------------------------|-----9--------------------------|
E|---------------------|----------------------------|------------------------|--------------------------------|


E|---------------------|----------------------------|------------------------|--------|
B|---------------------|----------------------------|------------------------|--------|
G|---------------------|-----------9---7---6--7--6--|------------------------|--------|
D|-9-----9---9---------|----------------------------|-9----7---7---7---------|--------|
A|---------------------|----------------------------|------------------------|--------|
E|---------------------|----------------------------|------------------------|--------|


E|-------------------------------|-------------------|--------------10----10-12-|-9------|
B|--------------14---14--12------|-------------------|--------------------------|--------|
G|----------9----------------14--|-13-11-9-----9-----|----------9---------------|--------|
D|-------------------------------|-------------------|--------------------------|--------|
A|-------------------------------|-------------------|--------------------------|--------|
E|-------------------------------|-------------------|--------------------------|--------|


E|-------------9----------------------|-------------------|--------------------------|
B|----------------14---14-14--12------|-------------------|----------12-10-12----10--|
G|----------9---------------------14--|-13-11-9-----9-----|--------------------------|
D|------------------------------------|-------------------|--------------------------|
A|------------------------------------|-------------------|--------------------------|
E|------------------------------------|-------------------|--------------------------|


E|-10-----|--------------14---14-14--14-16-|-12-----|-------------------------14--12--|
B|--------|----------9---------------------|--------|----------15-14-15---15----------|
G|--------|--------------------------------|--------|---------------------------------|
D|--------|--------------------------------|--------|---------------------------------|
A|--------|--------------------------------|--------|---------------------------------|
E|--------|--------------------------------|--------|---------------------------------|


E|--------|--------|--------|--------|--------|--------|----------------------------|
B|-14-----|--------|--------|--------|--------|--------|----------------------------|
G|--------|--------|--------|--------|--------|--------|-----------9---7---6--7--6--|
D|--------|--------|--------|--------|--------|--------|----------------------------|
A|--------|--------|--------|--------|--------|--------|----------------------------|
E|--------|--------|--------|--------|--------|--------|----------------------------|


E|------------------------|--------------------------------|---------------------|
B|------------------------|--------------------------------|---------------------|
G|------------------------|-----------------7----6---7--6--|---------------------|
D|-9----7---7---7---------|---------7---9------------------|-9-----9---9---------|
A|------------------------|-----9--------------------------|---------------------|
E|------------------------|--------------------------------|---------------------|


E|----------------------------|------------------------|--------------------------------|
B|----------------------------|------------------------|--------------------------------|
G|-----------9---7---6--7--6--|------------------------|-----------------7----6---7--6--|
D|----------------------------|-9----7---7---7---------|---------7---9------------------|
A|----------------------------|------------------------|-----9--------------------------|
E|----------------------------|------------------------|--------------------------------|


E|---------------------|----------------------------|------------------------|---------------------------|
B|---------------------|----------------------------|------------------------|---------------------------|
G|---------------------|-----------9---7---6--7--6--|------------------------|-----------------7----9----|
D|-9-----9---9---------|----------------------------|-9----7---7---7---------|---------7---9-------------|
A|---------------------|----------------------------|------------------------|-----9---------------------|
E|---------------------|----------------------------|------------------------|---------------------------|


E|------------------------|----------------------------|-----------------10--12--14--12-14-121412-10-12-|
B|---------------10-------|----------------------------|----------10-12---------------------------------|
G|-7-----7---7------------|-9--------------------------|-7--9--11---------------------------------------|
D|------------------------|-------12--9--------7---9---|------------------------------------------------|
A|------------------------|----------------9-----------|------------------------------------------------|
E|------------------------|----------------------------|------------------------------------------------|


E|-101210-9---9-109-----9---------------|----------------------------------|-14--12----15--14--12--10--|
B|-------------------12----12------10---|-----10-12---------------------10-|---------------------------|
G|-----------------------------11-------|-----------9----------------11----|---------------------------|
D|--------------------------------------|---------------12--12-------------|---------------------------|
A|--------------------------------------|----------------------------------|---------------------------|
E|--------------------------------------|----------------------------------|---------------------------|


E|------10--10--10----10-9--|-10----------------------------------|-----------------------------------|
B|-12-----------------------|-----12--10--------------------------|---------------------7--8--7-------|
G|--------------------------|-------------9---7-------7--9--7-----|-7----7-----7--7--9-----------9----|
D|--------------------------|---------------------9------------9--|---------7-------------------------|
A|--------------------------|-------------------------------------|-----------------------------------|
E|--------------------------|-------------------------------------|-----------------------------------|


E|-----------------------|-----10-9-----9--7-----7-----------------------|-----------------------------|
B|-----------------------|--------------------------10----10-8-----8--7--|-----------------------------|
G|-9---9-----------------|-----------------------------------------------|----9--7-----7--6------5-----|
D|---------9---7---7-----|-----------------------------------------------|-----------------------------|
A|-----------------------|-----------------------------------------------|-----------------------------|
E|-----------------------|-----------------------------------------------|-----------------------------|


E|--------|--------|
B|--------|--------|
G|-5------|-5------|
D|--------|--------|
A|--------|--------|
E|--------|--------|





Track 4: gtr. 5 (elec. w/flanger + echo)

E|--------|--------|--------|--------|--------|--------|--------|--------|--------|
B|--------|--------|--------|--------|--------|--------|--------|--------|--------|
G|--------|--------|--------|--------|--------|--------|--------|--------|--------|
D|--------|--------|--------|--------|--------|--------|--------|--------|--------|
A|--------|--------|--------|--------|--------|--------|--------|--------|--------|
E|--------|--------|--------|--------|--------|--------|--------|--------|--------|


E|--------|--------|--------|--------|--------|--------|--------|--------|--------|
B|--------|--------|--------|--------|--------|--------|--------|--------|--------|
G|--------|--------|--------|--------|--------|--------|--------|--------|--------|
D|--------|--------|--------|--------|--------|--------|--------|--------|--------|
A|--------|--------|--------|--------|--------|--------|--------|--------|--------|
E|--------|--------|--------|--------|--------|--------|--------|--------|--------|


E|--------|--------|--------|--------|--------|--------|--------|--------|--------|
B|--------|--------|--------|--------|--------|--------|--------|--------|--------|
G|--------|--------|--------|--------|--------|--------|--------|--------|--------|
D|--------|--------|--------|--------|--------|--------|--------|--------|--------|
A|--------|--------|--------|--------|--------|--------|--------|--------|--------|
E|--------|--------|--------|--------|--------|--------|--------|--------|--------|


E|--------|-------------|--------------------|----------------------|-------------|
B|--------|-------------|--------------------|----------------------|-------------|
G|--------|-------9-----|-9------------9-----|------------7--6------|-------9-----|
D|--------|-------------|--------------------|----------------------|-------------|
A|--------|-------------|--------------------|----------------------|-------------|
E|--------|-------------|--------------------|----------------------|-------------|


E|-------------|--------------------|--------------------|-----------------|--------------------|
B|-------------|--------------------|--------------------|-----7-----7-----|----------------12--|
G|-------9-----|-9------------9-----|-------7----6-------|-----------------|--------------------|
D|-------------|--------------------|--------------------|-----------------|--------------------|
A|-------------|--------------------|--------------------|-----------------|--------------------|
E|-------------|--------------------|--------------------|-----------------|--------------------|


E|-----------------|--------|--------|--------|--------|--------|--------|--------|
B|-12--10----10----|--------|--------|--------|--------|--------|--------|--------|
G|-----------------|--------|--------|--------|--------|--------|--------|--------|
D|-----------------|--------|--------|--------|--------|--------|--------|--------|
A|-----------------|--------|--------|--------|--------|--------|--------|--------|
E|-----------------|--------|--------|--------|--------|--------|--------|--------|


E|--------|--------|--------|--------|--------|--------|-------7----7-7-7-----------|
B|--------|--------|--------|--------|--------|--------|-------------------10-12--10|
G|--------|--------|--------|--------|--------|--------|----------------------------|
D|--------|--------|--------|--------|--------|--------|----------------------------|
A|--------|--------|--------|--------|--------|--------|----------------------------|
E|--------|--------|--------|--------|--------|--------|----------------------------|


E|-----------------|--------|--------|--------|--------|------------------------|--------------------------|
B|-12--------------|--------|--------|--------|--------|------------------------|--------------------------|
G|-----------------|--------|--------|--------|--------|-9------------------9---|-9-------------7--6-------|
D|-----------------|--------|--------|--------|--------|------------------------|--------------------------|
A|-----------------|--------|--------|--------|--------|------------------------|--------------------------|
E|-----------------|--------|--------|--------|--------|------------------------|--------------------------|


E|-------------|--------------------|--------|----------------------|--------|--------|
B|-------------|------------7-------|--------|----------------------|--------|--------|
G|-9-----------|--------------------|-9------|-----------7--6-------|--------|--------|
D|-------------|--------------------|--------|----------------------|--------|--------|
A|-------------|--------------------|--------|----------------------|--------|--------|
E|-------------|--------------------|--------|----------------------|--------|--------|


E|--------|--------|--------|--------|---------------------|-------------|-----------------|
B|--------|--------|--------|--------|---------------------|-------------|-----------------|
G|--------|--------|--------|--------|-----4-----4---------|-------4-----|-----------4-----|
D|--------|--------|--------|--------|---------------------|-------------|-----------------|
A|--------|--------|--------|--------|---------------------|-------------|-----------------|
E|--------|--------|--------|--------|---------------------|-------------|-----------------|


E|-----------------|--------|--------|------------------------|-----------------|-------------|
B|------8----------|--------|--------|-------14---14--14141414|-14--14----14----|-------12----|
G|-----------------|--------|--------|------------------------|-----------------|-------------|
D|-----------------|--------|--------|------------------------|-----------------|-------------|
A|-----------------|--------|--------|------------------------|-----------------|-------------|
E|-----------------|--------|--------|------------------------|-----------------|-------------|


E|--------|-----------14--14-12-------|--------|--------|--------|--------|---------------------|
B|--------|------------------------14-|-14-----|-10-----|--------|--------|-----10----10--------|
G|--------|---------------------------|--------|--------|--------|--------|---------------------|
D|--------|---------------------------|--------|--------|--------|--------|---------------------|
A|--------|---------------------------|--------|--------|--------|--------|---------------------|
E|--------|---------------------------|--------|--------|--------|--------|---------------------|


E|---------------------|--------|--------------------------|--------|--------|--------|
B|-----10----10--------|-8------|-----10-------------------|--------|--------|--------|
G|---------------------|--------|----------------9---9--7--|-9------|--------|--------|
D|---------------------|--------|--------------------------|--------|--------|--------|
A|---------------------|--------|--------------------------|--------|--------|--------|
E|---------------------|--------|--------------------------|--------|--------|--------|


E|--------|--------|-----------12-------|-----------------------|--------|--------------------------|
B|--------|--------|--------------------|-----------12------10--|--------|--------------------------|
G|--------|--------|--------------------|-----------------------|--------|-12----9--7--9----4---7---|
D|--------|--------|--------------------|-----------------------|--------|--------------------------|
A|--------|--------|--------------------|-----------------------|--------|--------------------------|
E|--------|--------|--------------------|-----------------------|--------|--------------------------|


E|--------|
B|--------|
G|-9------|
D|--------|
A|--------|
E|--------|





Track 5: gtr. 6 (harmonica arr. for guitar)

E|--------|--------|--------|--------|--------|--------|--------|--------|--------|
B|--------|--------|--------|--------|--------|--------|--------|--------|--------|
G|--------|--------|--------|--------|--------|--------|--------|--------|--------|
D|--------|--------|--------|--------|--------|--------|--------|--------|--------|
A|--------|--------|--------|--------|--------|--------|--------|--------|--------|
E|--------|--------|--------|--------|--------|--------|--------|--------|--------|


E|--------|--------|--------|--------|--------|--------|--------|--------|--------|
B|--------|--------|--------|--------|--------|--------|--------|--------|--------|
G|--------|--------|--------|--------|--------|--------|--------|--------|--------|
D|--------|--------|--------|--------|--------|--------|--------|--------|--------|
A|--------|--------|--------|--------|--------|--------|--------|--------|--------|
E|--------|--------|--------|--------|--------|--------|--------|--------|--------|


E|--------|--------|--------|--------|--------|--------|--------|--------|--------|
B|--------|--------|--------|--------|--------|--------|--------|--------|--------|
G|--------|--------|--------|--------|--------|--------|--------|--------|--------|
D|--------|--------|--------|--------|--------|--------|--------|--------|--------|
A|--------|--------|--------|--------|--------|--------|--------|--------|--------|
E|--------|--------|--------|--------|--------|--------|--------|--------|--------|


E|--------|--------|--------|--------|--------|--------|--------|--------|--------|
B|--------|--------|--------|--------|--------|--------|--------|--------|--------|
G|--------|--------|--------|--------|--------|--------|--------|--------|--------|
D|--------|--------|--------|--------|--------|--------|--------|--------|--------|
A|--------|--------|--------|--------|--------|--------|--------|--------|--------|
E|--------|--------|--------|--------|--------|--------|--------|--------|--------|


E|--------|--------|--------|--------|--------|--------|--------|--------|--------------------------------|
B|--------|--------|--------|--------|--------|--------|--------|--------|------10--10--10--10--10-10-7---|
G|--------|--------|--------|--------|--------|--------|--------|--------|--------------------------------|
D|--------|--------|--------|--------|--------|--------|--------|--------|--------------------------------|
A|--------|--------|--------|--------|--------|--------|--------|--------|--------------------------------|
E|--------|--------|--------|--------|--------|--------|--------|--------|--------------------------------|


E|-------------------|-----------------------|--------------------|-----------------------------|
B|-10----10-------7--|-8-----7-----8-----7---|-8---7--------------|--------------10---10--10-7--|
G|-------------9-----|----------7------------|---------7----------|----------7------------------|
D|-------------------|-----------------------|--------------------|-----------------------------|
A|-------------------|-----------------------|--------------------|-----------------------------|
E|-------------------|-----------------------|--------------------|-----------------------------|


E|----------------------|---------------------|--------------------|--------------------10--|
B|-10---10----10-----7--|-8-----7---8-----10--|-8---7--------------|--------------10--------|
G|----------------9-----|---------------------|---------7----------|----------7-------------|
D|----------------------|---------------------|--------------------|------------------------|
A|----------------------|---------------------|--------------------|------------------------|
E|----------------------|---------------------|--------------------|------------------------|


E|----------------------------|-15----14--10--------|----------------|--------|--------|
B|-10--10----10---10--12--10--|-----------------12--|----------------|--------|--------|
G|----------------------------|---------------------|-12--11---------|--------|--------|
D|----------------------------|---------------------|---------12-----|--------|--------|
A|----------------------------|---------------------|----------------|--------|--------|
E|----------------------------|---------------------|----------------|--------|--------|


E|--------|--------|--------|--------|--------|--------|--------|--------|--------|
B|--------|--------|--------|--------|--------|--------|--------|--------|--------|
G|--------|--------|--------|--------|--------|--------|--------|--------|--------|
D|--------|--------|--------|--------|--------|--------|--------|--------|--------|
A|--------|--------|--------|--------|--------|--------|--------|--------|--------|
E|--------|--------|--------|--------|--------|--------|--------|--------|--------|


E|--------|--------|--------|--------|--------|----------17--17----17-17-14-|-17---------14--|
B|--------|--------|--------|--------|--------|-----------------------------|----------------|
G|--------|--------|--------|--------|--------|-----------------------------|----------------|
D|--------|--------|--------|--------|--------|-----------------------------|----------------|
A|--------|--------|--------|--------|--------|-----------------------------|----------------|
E|--------|--------|--------|--------|--------|-----------------------------|----------------|


E|-15----14--15----14--|-15--14---------|--------------17-19---19--22--|-19--21--19--17--------14--|
B|---------------------|---------15-----|------------------------------|---------------------------|
G|---------------------|----------------|----------19------------------|---------------------------|
D|---------------------|----------------|------------------------------|---------------------------|
A|---------------------|----------------|------------------------------|---------------------------|
E|---------------------|----------------|------------------------------|---------------------------|


E|-15----14--15----17--|-15---14---12---------|--------------19-21-22-21-22-22---|
B|---------------------|----------------10----|----------------------------------|
G|---------------------|----------------------|----------19----------------------|
D|---------------------|----------------------|----------------------------------|
A|---------------------|----------------------|----------------------------------|
E|---------------------|----------------------|----------------------------------|


E|-22-21-22-17-19-17---17---17------------|-------------15-17-15---15-15-14-13----|
B|------------------------------19--------|---------------------------------------|
G|----------------------------------19-16-|---------------------------------------|
D|----------------------------------------|-19------------------------------------|
A|----------------------------------------|---------------------------------------|
E|----------------------------------------|---------------------------------------|


E|-10-12-10---------1213121012-------|----------17-----17-----17-----17-|-17----17------------------------|
B|------------12-10------------------|----------------------------------|-----------------17--17--17--17--|
G|-----------------------------------|----------------------------------|---------------------------------|
D|-----------------------------------|----------------------------------|---------------------------------|
A|-----------------------------------|----------------------------------|---------------------------------|
E|-----------------------------------|----------------------------------|---------------------------------|


E|-------------------------------------|-----------------------------|--------------22------------------22-----|
B|-17--17--17--17--15--15--15----------|-17--15----15---15--17-------|-----22-22-22------------22-22-22--------|
G|-------------------------------16-14-|--------16-------------------|-----------------------------------------|
D|-------------------------------------|-----------------------------|-----------------------------------------|
A|-------------------------------------|-----------------------------|-----------------------------------------|
E|-------------------------------------|-----------------------------|-----------------------------------------|


E|----------------------19--|--------------------------------------|----------------------------------|
B|------22-22--19-22--------|-----20-19-20-19-----20-19------------|----------------------------------|
G|--------------------------|-----------------19--------19---------|-19-21----19----19--------19--21--|
D|--------------------------|--------------------------------21-19-|-------21-----------21-19---------|
A|--------------------------|--------------------------------------|----------------------------------|
E|--------------------------|--------------------------------------|----------------------------------|


E|--------------17---17--17--14--|-17-----19------|-----19-----17-----15--14--12--12-10-|
B|----------15-------------------|----------------|-------------------------------------|
G|-------------------------------|----------------|-------------------------------------|
D|-------------------------------|----------------|-------------------------------------|
A|-------------------------------|----------------|-------------------------------------|
E|-------------------------------|----------------|-------------------------------------|


E|-12-10---10-----|-10----10----|--------|
B|----------------|-------------|--------|
G|----------------|-------------|--------|
D|----------------|-------------|--------|
A|----------------|-------------|--------|
E|----------------|-------------|--------|





Track 6: gtr. 7 (Dobro)

E|--------|--------|--------|--------|--------|--------|--------|--------|--------|
B|--------|--------|--------|--------|--------|--------|--------|--------|--------|
G|--------|--------|--------|--------|--------|--------|--------|--------|--------|
D|--------|--------|--------|--------|--------|--------|--------|--------|--------|
A|--------|--------|--------|--------|--------|--------|--------|--------|--------|
E|--------|--------|--------|--------|--------|--------|--------|--------|--------|


E|--------|--------|--------|--------|--------|--------|--------|--------|--------|
B|--------|--------|--------|--------|--------|--------|--------|--------|--------|
G|--------|--------|--------|--------|--------|--------|--------|--------|--------|
D|--------|--------|--------|--------|--------|--------|--------|--------|--------|
A|--------|--------|--------|--------|--------|--------|--------|--------|--------|
E|--------|--------|--------|--------|--------|--------|--------|--------|--------|


E|--------|--------|--------|--------|--------|--------|--------|--------|--------|
B|--------|--------|--------|--------|--------|--------|--------|--------|--------|
G|--------|--------|--------|--------|--------|--------|--------|--------|--------|
D|--------|--------|--------|--------|--------|--------|--------|--------|--------|
A|--------|--------|--------|--------|--------|--------|--------|--------|--------|
E|--------|--------|--------|--------|--------|--------|--------|--------|--------|


E|--------|--------|--------|--------|--------|--------|--------|--------|--------|
B|--------|--------|--------|--------|--------|--------|--------|--------|--------|
G|--------|--------|--------|--------|--------|--------|--------|--------|--------|
D|--------|--------|--------|--------|--------|--------|--------|--------|--------|
A|--------|--------|--------|--------|--------|--------|--------|--------|--------|
E|--------|--------|--------|--------|--------|--------|--------|--------|--------|


E|--------|--------|--------|--------|--------|--------|--------|--------|----------------|
B|--------|--------|--------|--------|--------|--------|--------|--------|-12---------12--|
G|--------|--------|--------|--------|--------|--------|--------|--------|----------------|
D|--------|--------|--------|--------|--------|--------|--------|--------|----------------|
A|--------|--------|--------|--------|--------|--------|--------|--------|----------------|
E|--------|--------|--------|--------|--------|--------|--------|--------|----------------|


E|-------------|------------------------|-----------------|-7---10----10-------7--10-|
B|-10----------|-8----7-----------------|-------12--------|--------------------------|
G|-------------|----------7---7---------|-----------------|--------------------------|
D|-------------|------------------7-----|-----------------|--------------------------|
A|-------------|------------------------|-----------------|--------------------------|
E|-------------|------------------------|-----------------|--------------------------|


E|-7---------------|-----------------|------------------------------|---------------------------|
B|-------10--10----|------------8----|-8---7-----------8----7---5---|----------12--12-------10--|
G|-----------------|-----------------|---------7--------------------|-7-------------------------|
D|-----------------|-----------------|-------------7----------------|---------------------------|
A|-----------------|-----------------|------------------------------|---------------------------|
E|-----------------|-----------------|------------------------------|---------------------------|


E|-9----------7--9--|-7-----7---7---------|-------------|--------|--------|--------|
B|------------------|---------------------|-8-----------|--------|--------|--------|
G|------------------|---------------------|------7------|--------|--------|--------|
D|------------------|---------------------|-------------|--------|--------|--------|
A|------------------|---------------------|-------------|--------|--------|--------|
E|------------------|---------------------|-------------|--------|--------|--------|


E|---------------------------|-------------|-----------------|------------------------|
B|---------------------------|-------------|-----------------|----------8---8----10---|
G|-6---9-----9---7---7---6---|-6-----------|-9-----11---9----|------------------------|
D|---------------------------|-------------|-----------------|------------------------|
A|---------------------------|-------------|-----------------|------------------------|
E|---------------------------|-------------|-----------------|------------------------|


E|-------------|-------------|--------|-----------------|--------|--------|--------|
B|-------------|-------------|--------|-----------------|--------|--------|--------|
G|-11----------|-11-----13---|-9------|-0---------------|--------|--------|--------|
D|-------------|-------------|--------|-----------------|--------|--------|--------|
A|-------------|-------------|--------|-----------------|--------|--------|--------|
E|-------------|-------------|--------|-----------------|--------|--------|--------|


E|--------|--------|--------|------------------------|--------------------|------------------------------|
B|--------|--------|--------|----------10--10--------|-8----7-------------|-------------0-----------0----|
G|--------|--------|--------|------------------------|----------7---7-----|---------0-----------0--------|
D|--------|--------|--------|------------------------|--------------------|-----0-----------0------------|
A|--------|--------|--------|------------------------|--------------------|------------------------------|
E|--------|--------|--------|------------------------|--------------------|------------------------------|


E|---------------------------|--------|------------------------------|------10---10--9----10--|
B|-0-----------0---0---10----|-8------|----------8---8---7-----------|------------------------|
G|---------0-----------------|--------|----------------------7-------|------------------------|
D|-----0---------------------|--------|--------------------------7---|-7----------------------|
A|---------------------------|--------|------------------------------|------------------------|
E|---------------------------|--------|------------------------------|------------------------|


E|-10-----10--10--|-9-----9---9-----7--9--|-7-----7---7---------|-------------|----------------|
B|----------------|-----------------------|---------------------|-8-----------|-12---------12--|
G|----------------|-----------------------|---------------------|-------------|----------------|
D|----------------|-----------------------|---------------------|-------------|----------------|
A|----------------|-----------------------|---------------------|-------------|----------------|
E|----------------|-----------------------|---------------------|-------------|----------------|


E|-----------------|--------------------|----------------10--|-10----10--10----10--|
B|-10----10--10----|-8----7---7---7-----|--------------------|---------------------|
G|-----------------|--------------------|-----------11-------|---------------------|
D|-----------------|--------------------|--------------------|---------------------|
A|-----------------|--------------------|--------------------|---------------------|
E|-----------------|--------------------|--------------------|---------------------|


E|-9-----9---9-----|-7----10--10--10-----------|------------------------|-10----10--10----9--10-|
B|-----------------|---------------------------|-8----7-----------------|-----------------------|
G|-----------------|-----------------------7---|----------7--------7----|-----------------------|
D|-----------------|---------------------------|--------------7---------|-----------------------|
A|-----------------|---------------------------|------------------------|-----------------------|
E|-----------------|---------------------------|------------------------|-----------------------|


E|-9-----9---9---------|-7-----------|--------------------|--------|--------|
B|---------------------|-------------|-8----7-------------|--------|--------|
G|---------------------|-------------|----------7---7-----|-7------|-7------|
D|---------------------|-------------|--------------------|--------|--------|
A|---------------------|-------------|--------------------|--------|--------|
E|---------------------|-------------|--------------------|--------|--------|