Menu:

 

Search:

 

eric clapton - reptile:

 



Title: Reptile
Artist: 
Album: Reptile
Author: Eric Clapton


Track 1: Eric Clapton - Guitar 1

E|-------------------------------------------------|-------------------------------------------------|
B|----0-----------0-----------0-----------0--------|----0-----------0-----------0-----------0--------|
G|----------2--2--------2--2--------2--2--------2--|----------2--2--------2--2--------2--2--------2--|
D|-------2-----------2-----------2-----------2-----|-------2-----------2-----------2-----------2-----|
A|-0-----------------------------------------------|-0-----------------------------------------------|
E|-------------------------------------------------|-------------------------------------------------|


E|-------------------------------------------------|-----------------------------------|
B|----0-----------0-----------0-----------0--------|-----------------------------------|
G|----------2--2--------2--2--------2--2--------2--|------0----4--6-----4-----2-----1--|
D|-------2-----------2-----------2-----------2-----|-----------4--6-----4-----2-----1--|
A|-0-----------------------------------------------|-0---------------0-----------------|
E|-------------------------------------------------|-----------------------------------|


E|-----------------------------------------|-------------------------------------------|
B|-----2----------2-----------2------------|-----2------------2--2------2--2--------0--|
G|-----1------1---1-----1-----1-----1------|-----1------1-----1--1------1--1--1--------|
D|------------1---------1------------------|------------0---------------------0--------|
A|-2-------2---------2-----2-----2-----2---|-------------------------------------------|
E|-----------------------------------------|-0-------0-----0---------0-----------0-----|


E|-----------------------------------------|-------------------------------------------|
B|-----0----------0--0--0-----0--0---------|-----0---0---------------------------------|
G|-----2------2---2--2--2-----2--2--2------|-----2---2--2------4--6-----4-----2-----1--|
D|-----2----------2--2--------2--2--2---2--|------------2------4--6-----4-----2-----1--|
A|-0-------0---------------0---------------|-0--------------0--------0-----------------|
E|-----------------------------------------|-------------------------------------------|


E|-------------------------------------------|-------------------------------------|
B|-----2----------2--2--2-----2--2-----------|-----2---2------2--2----2--2---------|
G|-----1------1---1--1--1-----1--1--1-----0--|-----1---1--1---1--1----1--1--1------|
D|------------1---------------------1--------|------------0-----------0--0--0------|
A|-2-------2---------------2-----------2-----|-------------------------------------|
E|-------------------------------------------|-0-------------------------------0---|


E|----------------------------0--0-------|----------------------------------|-----------------------------------4---|
B|-----0----------0--0--------0--0--0----|-----2------2---------2------3----|----4---------4---------6------7---7---|
G|-----2------2---2--2-----2--------2----|-----2------2---------2------4----|----4---------4---------4------4---4---|
D|-----2------2---2--2--2-----------2----|------------2---------------------|----4---------4------------------------|
A|-0-------0-----------------------------|----------------2--2------2-------|-----------------4---4------4----------|
E|---------------------------------------|-2-------2------------------------|-4------4------------------------------|


E|---------------------------------------|------------------------0--------------|
B|-----2------2---------2--------3-------|-----2------2-----0--0------2------0---|
G|-----2------2---------2--------4-------|-----2------2-----1--1------2------1---|
D|-----2------2--------------------------|-----2-------------------------2-------|
A|----------------2--2--------2------2---|---------------------------------------|
E|-2-------2-----------------------------|-0-------0-----------------------------|


E|-------------------------------|-----------------------------------------|-------------------------------------------|
B|-------------------------------|-----2----------2-----------2------------|-----2------------2--2------2--2--------0--|
G|-------4--6-----4-----2-----1--|-----1------1---1-----1-----1-----1------|-----1------1-----1--1------1--1--1--------|
D|-------4--6-----4-----2-----1--|------------1---------1------------------|------------0---------------------0--------|
A|-0-----------0-----------------|-2-------2---------2-----2-----2-----2---|-------------------------------------------|
E|-------------------------------|-----------------------------------------|-0-------0-----0---------0-----------0-----|


E|-----------------------------------------|-------------------------------------------|
B|-----0----------0--0--0-----0--0---------|-----0---0---------------------------------|
G|-----2------2---2--2--2-----2--2--2------|-----2---2--2------4--6-----4-----2-----1--|
D|-----2----------2--2--------2--2--2---2--|------------2------4--6-----4-----2-----1--|
A|-0-------0---------------0---------------|-0--------------0--------0-----------------|
E|-----------------------------------------|-------------------------------------------|


E|-------------------------------------------|-------------------------------------|
B|-----2----------2--2--2-----2--2-----------|-----2---2------2--2----2--2---------|
G|-----1------1---1--1--1-----1--1--1-----0--|-----1---1--1---1--1----1--1--1------|
D|------------1---------------------1--------|------------0-----------0--0--0------|
A|-2-------2---------------2-----------2-----|-------------------------------------|
E|-------------------------------------------|-0-------------------------------0---|


E|----------------------------0--0-------|----------------------------------|-----------------------------------4---|
B|-----0----------0--0--------0--0--0----|-----2------2---------2------3----|----4---------4---------6------7---7---|
G|-----2------2---2--2-----2--------2----|-----2------2---------2------4----|----4---------4---------4------4---4---|
D|-----2------2---2--2--2-----------2----|------------2---------------------|----4---------4------------------------|
A|-0-------0-----------------------------|----------------2--2------2-------|-----------------4---4------4----------|
E|---------------------------------------|-2-------2------------------------|-4------4------------------------------|


E|---------------------------------------|------------------------0--------------|
B|-----2------2---------2--------3-------|-----2--------2---0--0------2--2---0---|
G|-----2------2---------2--------4-------|-----2--------2---1--1------2--2---1---|
D|-----2------2--------------------------|-----2--------2------------------------|
A|----------------2--2--------2------2---|---------------------------------------|
E|-2-------2-----------------------------|-0------0--0---------------------------|


E|-------------------------------------|-----------------------------------------|
B|-----5------5---------5------5-------|-----3------3-----------3------3------5--|
G|-----4------4---------5------5-------|-----5------5-----------5------5------4--|
D|-----5------5---------5------5-------|-----3------3-----------3------3------5--|
A|-3-------3---------------------------|-5-------5-------------------------------|
E|----------------5--5------5------5---|------------------3--3------3------3-----|


E|-------------------------------------|---------------------------------------|-------------------------------------|
B|-----5------5---------5------5-------|----3---------3---------3------3-------|-----5------5---------5------5-------|
G|-----4------4---------5------5-------|----5---------5---------5------5-------|-----4------4---------5------5-------|
D|-----5------5---------5------5-------|----3---------3---------3------3-------|-----5------5---------5------5-------|
A|---------3---------------------------|-5------5--5---------------------------|-3-------3---------------------------|
E|-3--------------5--5------5------5---|------------------3--3------3------3---|----------------5--5------5------5---|


E|-------------------------------------|-------------------------------------|--------------------------------|
B|-----3------3---------3------3-------|-----5------5---------5------5-------|-----3------3------3------------|
G|-----5------5---------5------5----4--|-----4------4---------5------5-------|-----5------5------5---4---1----|
D|-----3------3---------3------3-------|-----5------5---------5------5-------|-----3------3------3-------0----|
A|-3-------5---------------------------|-3-------3---------------------------|-5-------5-----------------2----|
E|----------------3--3------3----------|----------------5--5------5------5---|----------------3----------0----|


E|-----------------------------------|-----------------------------------------|-------------------------------------------|
B|-2---------------------------------|-----2----------2-----------2------------|-----2------------2--2------2--2--------0--|
G|-2----0----4--6-----4-----2-----1--|-----1------1---1-----1-----1-----1------|-----1------1-----1--1------1--1--1--------|
D|-2---------4--6-----4-----2-----1--|------------1---------1------------------|------------0---------------------0--------|
A|-0---------------0-----------------|-2-------2---------2-----2-----2-----2---|-------------------------------------------|
E|-----------------------------------|-----------------------------------------|-0-------0-----0---------0-----------0-----|


E|-----------------------------------------|-------------------------------------------|
B|-----0----------0--0--0-----0--0---------|-----0---0---------------------------------|
G|-----2------2---2--2--2-----2--2--2------|-----2---2--2------4--6-----4-----2-----1--|
D|-----2----------2--2--------2--2--2---2--|------------2------4--6-----4-----2-----1--|
A|-0-------0---------------0---------------|-0--------------0--------0-----------------|
E|-----------------------------------------|-------------------------------------------|


E|-------------------------------------------|-------------------------------------|
B|-----2----------2--2--2-----2--2-----------|-----2---2------2--2----2--2---------|
G|-----1------1---1--1--1-----1--1--1-----0--|-----1---1--1---1--1----1--1--1------|
D|------------1---------------------1--------|------------0-----------0--0--0------|
A|-2-------2---------------2-----------2-----|-------------------------------------|
E|-------------------------------------------|-0-------------------------------0---|


E|----------------------------0--0-------|----------------------------------|-----------------------------------4---|
B|-----0----------0--0--------0--0--0----|-----2------2---------2------3----|----4---------4---------6------7---7---|
G|-----2------2---2--2-----2--------2----|-----2------2---------2------4----|----4---------4---------4------4---4---|
D|-----2------2---2--2--2-----------2----|------------2---------------------|----4---------4------------------------|
A|-0-------0-----------------------------|----------------2--2------2-------|-----------------4---4------4----------|
E|---------------------------------------|-2-------2------------------------|-4------4------------------------------|


E|---------------------------------------|------------------------0--------------|
B|-----2------2---------2--------3-------|-----2------2-----0--0------2------0---|
G|-----2------2---------2--------4-------|-----2------2-----1--1------2------1---|
D|-----2------2--------------------------|-----2-------------------------2-------|
A|----------------2--2--------2------2---|---------------------------------------|
E|-2-------2-----------------------------|-0-------0-----------------------------|


E|-------------------------------------|-----------------------------------------|
B|-----5------5---------5------5-------|-----3------3-----------3------3------5--|
G|-----4------4---------5------5-------|-----5------5-----------5------5------4--|
D|-----5------5---------5------5-------|-----3------3-----------3------3------5--|
A|-3-------3---------------------------|-5-------5-------------------------------|
E|----------------5--5------5------5---|------------------3--3------3------3-----|


E|-------------------------------------|-----------------------------------------|
B|-----5------5---------5------5-------|-----3------3-----------3------3------5--|
G|-----4------4---------5------5-------|-----5------5-----------5------5------4--|
D|-----5------5---------5------5-------|-----3------3-----------3------3------5--|
A|-3-------3---------------------------|-5-------5-------------------------------|
E|----------------5--5------5------5---|------------------3--3------3------3-----|


E|-------------------------------------|-----------------------------------------|
B|-----5------5---------5------5-------|-----3------3-----------3------3------5--|
G|-----4------4---------5------5-------|-----5------5-----------5------5------4--|
D|-----5------5---------5------5-------|-----3------3-----------3------3------5--|
A|-3-------3---------------------------|-5-------5-------------------------------|
E|----------------5--5------5------5---|------------------3--3------3------3-----|


E|-------------------------------------|-----------------------------------------|
B|-----5------5---------5------5-------|-----3------3-----------3------3------5--|
G|-----4------4---------5------5-------|-----5------5-----------5------5------4--|
D|-----5------5---------5------5-------|-----3------3-----------3------3------5--|
A|-3-------3---------------------------|-5-------5-------------------------------|
E|----------------5--5------5------5---|------------------3--3------3------3-----|


E|-------------------------------------|-----------------------------------------|
B|-----5------5---------5------5-------|-----3------3-----------3------3------5--|
G|-----4------4---------5------5-------|-----5------5-----------5------5------4--|
D|-----5------5---------5------5-------|-----3------3-----------3------3------5--|
A|-3-------3---------------------------|-5-------5-------------------------------|
E|----------------5--5------5------5---|------------------3--3------3------3-----|


E|-------------------------------------|-----------------------------------------|
B|-----5------5---------5------5-------|-----3------3-----------3------3------5--|
G|-----4------4---------5------5-------|-----5------5-----------5------5------4--|
D|-----5------5---------5------5-------|-----3------3-----------3------3------5--|
A|-3-------3---------------------------|-5-------5-------------------------------|
E|----------------5--5------5------5---|------------------3--3------3------3-----|


E|-------------------------------------|-----------------------------------------|
B|-----5------5---------5------5-------|-----3------3-----------3------3------5--|
G|-----4------4---------5------5-------|-----5------5-----------5------5------4--|
D|-----5------5---------5------5-------|-----3------3-----------3------3------5--|
A|-3-------3---------------------------|-5-------5-------------------------------|
E|----------------5--5------5------5---|------------------3--3------3------3-----|


E|-------------------------------------|--------------------------------|----------------------------------------|
B|-----5------5---------5------5-------|-----3------3------3---0--------|-2--------------------------------------|
G|-----4------4---------5------5-------|-----5------5------5-------1----|-2----0---------4--6-----4-----2-----1--|
D|-----5------5---------5------5-------|-----3------3------3-------0----|-2--------------4--6-----4-----2-----1--|
A|-3-------3---------------------------|-5-------5-----------------2----|-0--------------------------------------|
E|----------------5--5------5------5---|----------------3----------0----|----------------------5-----------------|


E|-----------------------------------------|-------------------------------------------|
B|-----2----------2-----------2------------|-----2------------2--2------2--2--------0--|
G|-----1------1---1-----1-----1-----1------|-----1------1-----1--1------1--1--1--------|
D|------------1---------1------------------|------------0---------------------0--------|
A|-2-------2---------2-----2-----2-----2---|-------------------------------------------|
E|-----------------------------------------|-0-------0-----0---------0-----------0-----|


E|-----------------------------------------|-------------------------------------------|
B|-----0----------0--0--0-----0--0---------|-----0---0---------------------------------|
G|-----2------2---2--2--2-----2--2--2------|-----2---2--2------4--6-----4-----2-----1--|
D|-----2----------2--2--------2--2--2---2--|------------2------4--6-----4-----2-----1--|
A|-0-------0---------------0---------------|-0--------------0--------0-----------------|
E|-----------------------------------------|-------------------------------------------|


E|-------------------------------------------|-------------------------------------|
B|-----2----------2--2--2-----2--2-----------|-----2---2------2--2----2--2---------|
G|-----1------1---1--1--1-----1--1--1-----0--|-----1---1--1---1--1----1--1--1------|
D|------------1---------------------1--------|------------0-----------0--0--0------|
A|-2-------2---------------2-----------2-----|-------------------------------------|
E|-------------------------------------------|-0-------------------------------0---|


E|----------------------------0--0-------|----------------------------------|-----------------------------------4---|
B|-----0----------0--0--------0--0--0----|-----2------2---------2------3----|----4---------4---------6------7---7---|
G|-----2------2---2--2-----2--------2----|-----2------2---------2------4----|----4---------4---------4------4---4---|
D|-----2------2---2--2--2-----------2----|------------2---------------------|----4---------4------------------------|
A|-0-------0-----------------------------|----------------2--2------2-------|------------------4--4------4----------|
E|---------------------------------------|-2-------2------------------------|-4------4------------------------------|


E|---------------------------------------|-----------------------------------4---|
B|-----2------2---------2--------3-------|-----4------4---------6--------7---7---|
G|-----2------2---------2--------4-------|-----4------4---------4--------4---4---|
D|-----2------2--------------------------|-----4------4---------6--------6-------|
A|----------------2--2--------2------2---|----------------4--4--------4----------|
E|-2-------2-----------------------------|-4-------4-----------------------------|


E|---------------------------------------|-----------------------------------4---|
B|-----2------2---------3------3---------|----4---------4---------6------7---7---|
G|-----2------2---------2------2---------|----4---------4---------4------4---4---|
D|-----2------2---------4------4------2--|----4---------4---------6--------------|
A|----------------2--2------2------2-----|------------------4--4------4----------|
E|-2-------2-----------------------------|-4------4------------------------------|


E|-------------------------------------|------------------------0--------------|------------------------0--------------|
B|-----2------2---------3------3-------|-----2------2-----0--0---------2---0---|-----2------2------------------2---0---|
G|-----2------2---------2------2-------|-----2------2-----1--1---------2---1---|-----2------2-----1--1---------2---1---|
D|-----2------2---------4------4-------|-----2------2-----2--2---------2---2---|-----2------2------------------2---2---|
A|----------------2--2------2------2---|---------------------------------------|---------------------------------------|
E|-2-------2---------------------------|-0--------------------------0----------|-0--------------------------0----------|


E|------------------------0--------------|-------------------------------|-0------|
B|-----2------2-----0--0---------2---0---|-------------------------------|-0------|
G|-----2------2-----1--1---------2---1---|-2-----4--6-----4-----2--------|-1------|
D|-----2------2-----2--2---------2---2---|-2-----4--6-----4-----2--------|-2------|
A|---------------------------------------|-0-----------0--------------0--|--------|
E|-0--------------------------0----------|-------------------------------|--------|


E|-0------|
B|-0------|
G|-1------|
D|-2------|
A|--------|
E|--------|





Track 2: Eric Clapton - Guitar 2

E|------------0----|-0-----0----0-----------|--------|---------------------------------|
B|------------0----|-0-----0----0--0--------|--------|------------------5-----7-----7--|
G|------------7----|-6-----6----6-----6-----|-6------|-6---------6--7------------------|
D|------------7----|-6-----6----6--------6--|--------|---------------------------------|
A|------------0----|-0-----0----0-----------|--------|---------------------------------|
E|-----------------|------------------------|--------|---------------------------------|


E|--------|------------------------------------|-----------------------|-----------------------------|
B|-9------|-9--------------9--9---7------------|------5--5-------------|-----------------5-----7--9--|
G|--------|-------------6---------------9------|-6-----------4---4-----|----------6---7--------------|
D|--------|------------------------------------|-------------4---4-----|-----------------------------|
A|--------|------------------------------------|-----------------------|-----------------------------|
E|--------|------------------------------------|-----------------------|-----------------------------|


E|----------------------|------------------9--9-----7------------|---------------------------------------|
B|----10-9---9----9-----|---------------9-----------------9------|-7-----------5---5------5--------------|
G|----------------------|---------7--9---------------------------|------6--6-----------6-----4--2--------|
D|----------------------|----------------------------------------|---------------------------------4--2--|
A|----------------------|----------------------------------------|---------------------------------------|
E|----------------------|----------------------------------------|---------------------------------------|


E|------------------------------------|-----------------|------------------------------------|
B|----------------2--2-----3-----5----|-4-----6----4----|-2--------------7--7-----5----------|
G|----------------2--2-----4-----6----|-4-----6----4----|-2-----------6-----------------6----|
D|-4-----------4----------------------|-----------------|------------------------------------|
A|------------------------------------|-----------------|------------------------------------|
E|------------------------------------|-----------------|------------------------------------|


E|-------------------------------|------------------------------------|--------|------------------------------------|
B|-------------------------------|---------------------5-----7-----7--|-9------|-9--------------9--9---7------------|
G|-4--------------2--4--2-----2--|-2------------6--7------------------|--------|-------------6---------------9------|
D|----------2--4-----------4-----|------------------------------------|--------|------------------------------------|
A|-------------------------------|------------------------------------|--------|------------------------------------|
E|-------------------------------|------------------------------------|--------|------------------------------------|


E|-----------------------|-----------------------------|----------------------|------------------9--9-----7------------|
B|------5--5-------------|-----------------5-----7--9--|----10-9---9----9-----|---------------9-----------------9------|
G|-6-----------4---4-----|----------6---7--------------|----------------------|---------7--9---------------------------|
D|-------------4---4-----|-----------------------------|----------------------|----------------------------------------|
A|-----------------------|-----------------------------|----------------------|----------------------------------------|
E|-----------------------|-----------------------------|----------------------|----------------------------------------|


E|---------------------------------------|------------------------------------|-----------------|
B|-7-----------5---5------5--------------|----------------2--2-----3-----5----|-4-----6----4----|
G|------6--6-----------6-----4--2--------|----------------2--2-----4-----6----|-4-----6----4----|
D|---------------------------------4--2--|-4-----------4----------------------|-----------------|
A|---------------------------------------|------------------------------------|-----------------|
E|---------------------------------------|------------------------------------|-----------------|


E|------------------------------------|---------------------|---------------------------|
B|-2--------------7--7-----5----------|-----------2----3----|-5--------5---3------------|
G|-2-----------6-----------------6----|-4---------2----4----|-5---------------5---4-----|
D|------------------------------------|---------------------|------------------------7--|
A|------------------------------------|---------------------|---------------------------|
E|------------------------------------|---------------------|---------------------------|


E|-------------------------|------------------------------------|-----------------------------------|
B|-------------------------|----------------5--5-----6-----8----|-----------------------------------|
G|-------------------------|------------------------------------|-7----7-------------5--7--5-----5--|
D|-7---5--5--5---7---------|-------------5----------------------|--------------5--7-----------7-----|
A|-------------------------|------------------------------------|-----------------------------------|
E|-------------------------|------------------------------------|-----------------------------------|


E|----------------------------------|-------------------------|------------------------------------|
B|-----------------5---3------------|-------------------------|------------------5---5--6-----8----|
G|-5----------------------5---4-----|-------------------------|------------------------------------|
D|-----7-------------------------7--|-7---5--5--5---7---------|---------5--4--5--------------------|
A|----------------------------------|-------------------------|------------------------------------|
E|----------------------------------|-------------------------|------------------------------------|


E|-----------------------------|---------------------------------|--------|------------------------------------|
B|-----------------------------|------------------5-----7-----7--|-9------|-9--------------9--9---7------------|
G|-7---------7--7---9--9---7---|-6---------6--7------------------|--------|-------------6---------------9------|
D|-----------------------------|---------------------------------|--------|------------------------------------|
A|-----------------------------|---------------------------------|--------|------------------------------------|
E|-----------------------------|---------------------------------|--------|------------------------------------|


E|-----------------------|-----------------------------|----------------------|------------------9--9-----7------------|
B|------5--5-------------|-----------------5-----7--9--|----10-9---9----9-----|---------------9-----------------9------|
G|-6-----------4---4-----|----------6---7--------------|----------------------|---------7--9---------------------------|
D|-------------4---4-----|-----------------------------|----------------------|----------------------------------------|
A|-----------------------|-----------------------------|----------------------|----------------------------------------|
E|-----------------------|-----------------------------|----------------------|----------------------------------------|


E|---------------------------------------|------------------------------------|-----------------|
B|-7-----------5---5------5--------------|----------------2--2-----3-----5----|-4-----6----4----|
G|------6--6-----------6-----4--2--------|----------------2--2-----4-----6----|-4-----6----4----|
D|---------------------------------4--2--|-4-----------4----------------------|-----------------|
A|---------------------------------------|------------------------------------|-----------------|
E|---------------------------------------|------------------------------------|-----------------|


E|------------------------------------|-----------------------------|---------------------------------------------|
B|-2--------------7--7-----5----------|-----------------------------|--------------------------8--10-8--8---------|
G|-2-----------6-----------------6----|-4------------------------5--|----7--------5------5--9---------------7--5--|
D|------------------------------------|--------------5-----7--------|----------7------7---------------------------|
A|------------------------------------|----------7------------------|---------------------------------------------|
E|------------------------------------|-----------------------------|---------------------------------------------|


E|-------------------------------8------|-8----------------------------8-----8-----8--|
B|-------------------------------10-----|-10--8-----8---10-8-----10----10----10----10-|
G|-7--5-----5--5---------------------9--|--------9------------------------------------|
D|-------7---------7--5-----------------|---------------------------------------------|
A|--------------------------------------|---------------------------------------------|
E|--------------------------------------|---------------------------------------------|


E|-8-------------------------------------------|---------------5--8-----8----8---------|
B|-10--8-----10-10-8--6--8-----------8---------|------------8--------------------10-8--|
G|--------9-----------------10-8-----8---------|------8--9-----------------------------|
D|--------------------------------10-----10-8--|-10------------------------------------|
A|---------------------------------------------|---------------------------------------|
E|---------------------------------------------|---------------------------------------|


E|-------------------------------------------------|---------------------------------------------|
B|----------------------------------5-----6-----8--|-8---6--5------------------------------------|
G|-7--5-----5-----7--5-----5--7--------------------|-----------7---5-----5--7--5-----5-----------|
D|-------7--------------7--------------------------|------------------7-----------7-----7--5-----|
A|-------------------------------------------------|------------------------------------------7--|
E|-------------------------------------------------|---------------------------------------------|


E|---------------------------------------------|-----------------------------------------|
B|---------------------------------------------|-----8--------8------5--8---8------8-----|
G|-----------------------------5--7--5-----5---|-9------9--9-----9------9------9------9--|
D|--------------------5-----7-----------7------|-----------------------------------------|
A|-5--3-----3-----7----------------------------|-----------------------------------------|
E|-------5-------------------------------------|-----------------------------------------|


E|-----------------------------------15-13-------|--------------------------------|
B|----11-------11-------13-13-----13-------15-15-|-13-----13-13--15-----------13--|
G|-12----10-12----11-14--------14----------------|-12--14-----------------14------|
D|-----------------------------------------------|--------------------------------|
A|-----------------------------------------------|--------------------------------|
E|-----------------------------------------------|--------------------------------|


E|-----15--------------------8------|-8-------------------------------------|-----------------------------------------------|
B|-16-----16-16--16-----------------|-----11-8--10-8------------------------|-----------------------------------------------|
G|----------------------------------|------------------9--9-----------------|----------------------------------12-----------|
D|----------------------------------|------------------------10-8-----------|----------10-12-10----10----12-14----12--10----|
A|----------------------------------|-------------------------------7-------|----7--12----------12-----------------------12-|
E|----------------------------------|---------------------------------------|-----------------------------------------------|


E|--------------------------------------|-----------------------------------------|
B|-----------------10-10-8--6-----------|-----------------------------------------|
G|-----------------------------8-----9--|-9---------------------------5--7--5--5--|
D|-10--10-------------------------10----|----10-----------------5--7--------------|
A|--------------------------------------|-------8---8---7---7---------------------|
E|--------------------------------------|-----------------------------------------|


E|-----------------------------|--------|------------------------------------|-----------------------|
B|--------------5-----7-----7--|-9------|-9--------------9--9---7------------|------5--5-------------|
G|-7-----6--7------------------|--------|-------------6---------------9------|-6-----------4---4-----|
D|-----------------------------|--------|------------------------------------|-------------4---4-----|
A|-----------------------------|--------|------------------------------------|-----------------------|
E|-----------------------------|--------|------------------------------------|-----------------------|


E|-----------------------------|----------------------|------------------9--9-----7------------|
B|-----------------5-----7--9--|----10-9---9----9-----|---------------9-----------------9------|
G|----------6---7--------------|----------------------|---------7--9---------------------------|
D|-----------------------------|----------------------|----------------------------------------|
A|-----------------------------|----------------------|----------------------------------------|
E|-----------------------------|----------------------|----------------------------------------|


E|---------------------------------------|------------------------------------|-----------------|
B|-7-----------5---5--------5--7--5------|-2--------------2--2-----3-----5----|-4-----6----4----|
G|------6--6----------4--6-----------4---|----------------2--2-----4-----6----|-4-----6----4----|
D|---------------------------------------|-------------4----------------------|-----------------|
A|---------------------------------------|------------------------------------|-----------------|
E|---------------------------------------|------------------------------------|-----------------|


E|-------------------------5--5--5------|-----------------|--------------7-8-7---7--5-----5--|
B|-2----------------7--7------------7---|-------6----4----|-2--------------------------7-----|
G|-2-------4--3--4----------------------|-4-----6----4----|-2--------------------------------|
D|--------------------------------------|-----------------|----------------------------------|
A|--------------------------------------|-----------------|----------------------------------|
E|--------------------------------------|-----------------|----------------------------------|


E|-5---------------------------------------------|---------------------------------------------|
B|-----7--5-----------------5--------------------|----------2--3--2----------------------------|
G|-----------4--2-----6--6-----4--2--4--2-----2--|-2-----2-----------4--2----------------------|
D|-----------------4-----------------------4-----|----4--------------------4--2-----2--2---4---|
A|-----------------------------------------------|-------------------------------4-------------|
E|-----------------------------------------------|---------------------------------------------|


E|------------------------------------|-----------------------------------|----------------------------------|
B|------------------------------------|-----------------------------------|--------------------5-----3---5---|
G|------------------------------------|--------------7--------------------|-----------------4-----4----------|
D|--------------6--7---9-----7--5--5--|-----------------7--5--7--------5--|-5--------------------------------|
A|---------7--------------------------|-7------------------------7--------|-----7----------------------------|
E|-0----0-----------------------------|-----------------------------------|----------------------------------|


E|-----------------------------|---------------------|-----------------|
B|------------------5----------|------5---------3----|-----2-----2-----|
G|-2---------6--7---------6----|---------------------|-----------------|
D|-----------------------------|-6---------4---------|-2---------------|
A|-----------------------------|---------------------|-----------------|
E|-----------------------------|---------------------|-----------------|





Track 3: Untitled

G|--------|--------|--------|--------|--------|--------|--------|--------|--------|
D|--------|--------|--------|--------|--------|--------|--------|--------|--------|
A|--------|--------|--------|--------|--------|--------|--------|--------|--------|
E|--------|--------|--------|--------|--------|--------|--------|--------|--------|


G|--------|--------|--------|--------|--------|--------|--------|--------|--------|
D|--------|--------|--------|--------|--------|--------|--------|--------|--------|
A|--------|--------|--------|--------|--------|--------|--------|--------|--------|
E|--------|--------|--------|--------|--------|--------|--------|--------|--------|


G|--------|--------|--------|--------|--------|--------|--------|--------|--------|
D|--------|--------|--------|--------|--------|--------|--------|--------|--------|
A|--------|--------|--------|--------|--------|--------|--------|--------|--------|
E|--------|--------|--------|--------|--------|--------|--------|--------|--------|


G|--------|--------|--------|--------|--------|--------|--------|--------|--------|
D|--------|--------|--------|--------|--------|--------|--------|--------|--------|
A|--------|--------|--------|--------|--------|--------|--------|--------|--------|
E|--------|--------|--------|--------|--------|--------|--------|--------|--------|


G|--------|--------|--------|--------|--------|--------|--------|--------|--------|
D|--------|--------|--------|--------|--------|--------|--------|--------|--------|
A|--------|--------|--------|--------|--------|--------|--------|--------|--------|
E|--------|--------|--------|--------|--------|--------|--------|--------|--------|


G|--------|--------|--------|--------|--------|--------|--------|--------|--------|
D|--------|--------|--------|--------|--------|--------|--------|--------|--------|
A|--------|--------|--------|--------|--------|--------|--------|--------|--------|
E|--------|--------|--------|--------|--------|--------|--------|--------|--------|


G|--------|--------|--------|--------|--------|--------|--------|--------|--------|
D|--------|--------|--------|--------|--------|--------|--------|--------|--------|
A|--------|--------|--------|--------|--------|--------|--------|--------|--------|
E|--------|--------|--------|--------|--------|--------|--------|--------|--------|


G|--------|--------|--------|--------|--------|--------|--------|--------|--------|
D|--------|--------|--------|--------|--------|--------|--------|--------|--------|
A|--------|--------|--------|--------|--------|--------|--------|--------|--------|
E|--------|--------|--------|--------|--------|--------|--------|--------|--------|


G|--------|--------|--------|--------|--------|--------|--------|--------|--------|
D|--------|--------|--------|--------|--------|--------|--------|--------|--------|
A|--------|--------|--------|--------|--------|--------|--------|--------|--------|
E|--------|--------|--------|--------|--------|--------|--------|--------|--------|


G|--------|--------|--------|
D|--------|--------|--------|
A|--------|--------|--------|
E|--------|--------|--------|