Menu:

 

Search:

 

eric clapton - me and the devil blues:

 



Title: Me And The Devil Blues
Artist: 
Album: Me And Mr. Johnson
Author: Robert Johnson


Track 1: Eric Clapton - Ac. Guitar

E|--------------------|-9-----9---8-----8---|-7---7-------7-------5-------5---5-------|
B|--------------------|-8-----8---7---------|-6-----------6---------------------------|
G|----------------9---|-----------8---------|-7-------7-------------------------------|
D|--------------------|---------------------|-----------------------------5-------5---|
A|--------------------|---------------------|-----------------0---0---0---------------|
E|--------------------|---------------------|-----------------------------------------|


E|-5---5---5---5-------0-------0-------0---|-0---0----------------------------|---------------------|
B|---------------------------------3-------|-----3-------5--------------------|-5----5----4---------|
G|-----------------------------------------|-----1-------6----------------6---|------6----6---------|
D|-4-------3-------3---2---1---------------|-------------5------------5-------|------5----4---------|
A|-----------------------------------------|-----------------0----0-----------|-0----0----0----0----|
E|-------------------------0---------------|-0-------0------------------------|---------------------|


E|----------0-----------0-----------|-------------------------------------|---------------------------------2---|
B|------4-------4---5-----------5---|-4---5---------------5---5---4---4---|-5---5-------------------1-------1---|
G|------5-------5---6---------------|-5-------------------6-------5-------|-6-----------------------2-----------|
D|------------------5---------------|-4-----------4-------5-------4-------|-5-----------5-----------0-----------|
A|-0----------------0-------0-------|-0-------0-------0---0-------0-------|-0-------0---------------------------|
E|------5---------------------------|-------------------------------------|-----------------0---2-------2-------|


E|----------2---------------2---|---------------------------|-------------------------------------0---|
B|----------1-------1-----------|--------------5--------5---|-4---5---------------5---5-------4-------|
G|----------2-------2-----------|----------6---6--------6---|-5-----------5-------6-------5-----------|
D|------------------------------|----------5----------------|-4-----------4-------5-------4-----------|
A|------------------------------|--------------0----0-------|-0-------0-------0---0-------0-----------|
E|-2----2-------2-------2-------|-2----2--------------------|-----------------------------------------|


E|----------------------------------|-0---0---------------2---------------|-----2-------------------5-------|
B|-5---5--------------------3---3---|-3---3-----------1-------------------|-1-------------------------------|
G|-6-----------0------------1---1---|-1---1-----------2---------------2---|---------------------------------|
D|-5---------------2---2------------|-----------------0-----------0-------|-------------2-----------5---5---|
A|-0-------0------------------------|-------------------------------------|-----------------0---0-----------|
E|---------------------0----0-------|-0-------0---2-----------2-----------|-2-------2-----------------------|


E|-5-------5-------0-------0-------0---|-0---0----------------------------|---------------------|
B|-----------------------------3-------|-----3----------------------------|-5----5----4---------|
G|-------------------------------------|-----1-------6----------------6---|------6----6---------|
D|-4---4---3---3---2---1---------------|-------------5------------5-------|------5----4---------|
A|-------------------------------------|-2---------------0----0-----------|-0----0----0----0----|
E|---------------------0---------------|---------0------------------------|---------------------|


E|----------0-----------0-----------|-------------------------------------|---------------------------------2---|
B|------4-------4---5-----------5---|-4---5---------------5---5---4---4---|-5---5-------------------1-------1---|
G|------5-------5---6---------------|-5-------------------6-------5-------|-6-----------------------2-----------|
D|------------------5---------------|-4-----------4-------5-------4-------|-5-----------5-----------0-----------|
A|-0----------------0-------0-------|-0-------0-------0---0-------0-------|-0-------0---------------------------|
E|------5---------------------------|-------------------------------------|-----------------0---2-------2-------|


E|----------2---------------2---|---------------------------|-------------------------------------0---|
B|----------1-------1-----------|--------------5--------5---|-4---5---------------5---5-------4-------|
G|----------2-------2-----------|----------6---6--------6---|-5-----------5-------6-------5-----------|
D|------------------------------|----------5----------------|-4-----------4-------5-------4-----------|
A|------------------------------|--------------0----0-------|-0-------0-------0---0-------0-----------|
E|-2----2-------2-------2-------|-2----2--------------------|-----------------------------------------|


E|----------------------------------|-0---0---------------2---------------|-----2-------------------5-------|
B|-5---5--------------------3---3---|-3---3-----------1-------------------|-1-------------------------------|
G|-6-----------0------------1---1---|-1---1-----------2---------------2---|---------------------------------|
D|-5---------------2---2------------|-----------------0-----------0-------|-------------2-----------5---5---|
A|-0-------0------------------------|-------------------------------------|-----------------0---0-----------|
E|---------------------0----0-------|-0-------0---2-----------2-----------|-2-------2-----------------------|


E|-5-------5-------0-------0-------0---|-0---0----------------------------|---------------------|
B|-----------------------------3-------|-----3----------------------------|-5----5----4---------|
G|-------------------------------------|-----1-------6----------------6---|------6----6---------|
D|-4---4---3---3---2---1---------------|-------------5------------5-------|------5----4---------|
A|-------------------------------------|-2---------------0----0-----------|------0----0----0----|
E|---------------------0---------------|---------0------------------------|-5-------------------|


E|----------0-----------0-----------|-------------------------------------|---------------------------------2---|
B|------4-------4---5-----------5---|-4---5---------------5---5---4---4---|-5---5-------------------1-----------|
G|------5-------5---6---------------|-5-------------------6-------5-------|-6-----------------------2-----------|
D|------------------5---------------|-4-----------4-------5-------4-------|-5-----------5-----------0-----------|
A|-0----------------0-------0-------|-0-------0-------0---0-------0-------|-0-------0---------------------------|
E|------5---------------------------|-------------------------------------|-----------------0---2-------2-------|


E|------2-------------------2---|---------------------------|-------------------------------------0---|
B|------1---0-------1-----------|--------------5--------5---|-4---5---------------5---5-------4-------|
G|------2---2-------2-----------|----------6---6--------6---|-5-----------5-------6-------5-----------|
D|------------------------------|----------5----------------|-4-----------4-------5-------4-----------|
A|------------------------------|--------------0----0-------|-0-------0-------0---0-------0-----------|
E|-2----2-------2-------2-------|-2----2--------------------|-----------------------------------------|


E|----------------------------------|-0---0---------------2-----------|-2---2-------------------5-------|
B|-5---5------------------------3---|-3---3-----------1-----------1---|---------------------------------|
G|-6-----------0-------1--------1---|-----1-----------2---------------|---------------------------------|
D|-5---------------2----------------|-----------------0---------------|-------------------------5---5---|
A|-0-------0------------------------|---------------------------------|-------------0---0---------------|
E|---------------------0----0-------|-0-------0---2-----------2-------|-2-------2-----------------------|


E|-5----5---5-------0-------0-------0---|-0---0-------9---9---9---9---9---9---|-9---9-------9---8---8-------8---|
B|------------------------------3-------|-3---3-------8---8---8---8---8---8---|-8---8-------8---7---7-------7---|
G|--------------------------------------|-1-----------9---9-----------9-------|-9-----------9---8---------------|
D|-4----3-------3---2---1---------------|-------------------------------------|---------------------------------|
A|--------------------------------------|-----------------0-----------0-------|-0-------0-------0-------0-------|
E|----------------------0---------------|-0-------0---------------------------|---------------------------------|


E|-8---8-------8---9---9---9---9---9---|-9---9--------9---9---9---8---8---|-9---9-----------------------2---|
B|-7---7-------7---8---8---8---8---8---|-8---8--------8---8---8---7---7---|-8---8---------------1-------1---|
G|-8---------------9-----------9-------|-9------------9-----------8---8---|-9---9---------------2-----------|
D|-------------------------------------|----------------------------------|---------------------0-----------|
A|-0-------0-------0-----------0-------|-0-------0----0-----------0-------|-0-------0---0-------------------|
E|-------------------------------------|----------------------------------|-------------2---2-------2-------|


E|----------2---------------2---|---------------------------|-------------------------------------0---|
B|----------1-------1-----------|--------------5--------5---|-4---5---------------5---5-------4-------|
G|----------2-------2-----------|----------6---6--------6---|-5-----------5-------6-------5-----------|
D|------------------------------|----------5----------------|-4-----------4-------5-------4-----------|
A|------------------------------|--------------0----0-------|-0-------0-------0---0-------0-----------|
E|-2----2-------2-------2-------|-2----2--------------------|-----------------------------------------|


E|----------------------------------|-0---0---------------2---------------|-----2-------------------5-------|
B|-5---5--------------------3---3---|-3---3-----------1-------------------|-1-------------------------------|
G|-6-----------0------------1---1---|-1---1-----------2---------------2---|---------------------------------|
D|-5---------------2---2------------|-----------------0-----------0-------|-------------2-----------5---5---|
A|-0-------0------------------------|-------------------------------------|-----------------0---0-----------|
E|---------------------0----0-------|-0-------0---2-----------2-----------|-2-------2-----------------------|


E|-5-------5-------0-------0-------0---|-0---0----------------------------|---------------------|
B|-----------------------------3-------|-----3----------------------------|-5----5----4---------|
G|-------------------------------------|-----1-------6----------------6---|------6----6---------|
D|-4---4---3---3---2---1---------------|-------------5------------5-------|------5----4---------|
A|-------------------------------------|-2---------------0----0-----------|-0----0----0----0----|
E|---------------------0---------------|---------0------------------------|---------------------|


E|----------0-----------0-----------|-------------------------------------|---------------------------------2---|
B|------4-------4---5-----------5---|-4---5---------------5---5---4---4---|-5---5-------------------1-----------|
G|------5-------5---6---------------|-5-------------------6-------5-------|-6-----------------------2-----------|
D|------------------5---------------|-4-----------4-------5-------4-------|-5-----------5-----------0-----------|
A|-0----------------0-------0-------|-0-------0-------0---0-------0-------|-0-------0---------------------------|
E|------5---------------------------|-------------------------------------|-----------------0---2-------2-------|


E|------2-----------2--------|---------------------------------|---------0---------------5---5---|
B|------1---0---1------------|---------------------------------|-----3-------2-----------2---2---|
G|------2---2---2------------|-------------0-------------------|-----------------2---------------|
D|--------------0------------|-------------0-----------2-------|-1-------------------------------|
A|---------------------------|-----------------0---0---0-------|---------2-------0---0-----------|
E|-2----2-------2-------2----|-2---0---2-------------------0---|-0-------------------------------|


E|-----5-----------------0---|-----0---------------2--------|----------5---5---5-----|
B|-----------------------3---|-----3-----------1------------|------------------------|
G|-----------------------1---|-----1-----------2------------|------------------------|
D|---------------------------|-----------------0------------|------------------5-----|
A|-0-------------------------|------------------------------|------------------------|
E|---------2----0----0-------|-0-------0---2---2-------2----|-2--------5---5---------|


E|-5--------5---0---------------|-----------------|
B|------------------------------|-----------------|
G|----------------------1---2---|-----2-----2-----|
D|-5--------3---2-------1---2---|-----2-----2-----|
A|------------------0-------0---|-----0-----0-----|
E|------------------------------|-----------------|





Track 2: Untitled

G|--------|--------|--------|--------|--------|--------|--------|--------|--------|
D|--------|--------|--------|--------|--------|--------|--------|--------|--------|
A|--------|--------|--------|--------|--------|--------|--------|--------|--------|
E|--------|--------|--------|--------|--------|--------|--------|--------|--------|


G|--------|--------|--------|--------|--------|--------|--------|--------|--------|
D|--------|--------|--------|--------|--------|--------|--------|--------|--------|
A|--------|--------|--------|--------|--------|--------|--------|--------|--------|
E|--------|--------|--------|--------|--------|--------|--------|--------|--------|


G|--------|--------|--------|--------|--------|--------|--------|--------|--------|
D|--------|--------|--------|--------|--------|--------|--------|--------|--------|
A|--------|--------|--------|--------|--------|--------|--------|--------|--------|
E|--------|--------|--------|--------|--------|--------|--------|--------|--------|


G|--------|--------|--------|--------|--------|--------|--------|--------|--------|
D|--------|--------|--------|--------|--------|--------|--------|--------|--------|
A|--------|--------|--------|--------|--------|--------|--------|--------|--------|
E|--------|--------|--------|--------|--------|--------|--------|--------|--------|


G|--------|--------|--------|--------|--------|--------|--------|--------|--------|
D|--------|--------|--------|--------|--------|--------|--------|--------|--------|
A|--------|--------|--------|--------|--------|--------|--------|--------|--------|
E|--------|--------|--------|--------|--------|--------|--------|--------|--------|


G|--------|--------|--------|--------|--------|--------|--------|--------|--------|
D|--------|--------|--------|--------|--------|--------|--------|--------|--------|
A|--------|--------|--------|--------|--------|--------|--------|--------|--------|
E|--------|--------|--------|--------|--------|--------|--------|--------|--------|


G|--------|--------|--------|--------|--------|--------|--------|--------|--------|
D|--------|--------|--------|--------|--------|--------|--------|--------|--------|
A|--------|--------|--------|--------|--------|--------|--------|--------|--------|
E|--------|--------|--------|--------|--------|--------|--------|--------|--------|


G|--------|--------|
D|--------|--------|
A|--------|--------|
E|--------|--------|