Menu:

 

Search:

 

eric clapton - let it rain:

 



Title: Let It Rain
Artist: 
Album: Eric Clapton
Author: Eric Clapton and Bonnie Bramlett


Track 1: Rhythm #1 / Outro Lead

E|-----------------------3---|-3-------------------|-3----3----3---2-------5---|-5--------------0-------------------|
B|-5----5----5---3---5-------|-----3-----3---------|-------------------3-------|----------0--2---------3--3-----2---|
G|---------------------------|---------------------|---------------------------|--------------------4--------2------|
D|---------------------------|---------------------|---------------------------|------------------------------------|
A|---------------------------|---------------------|---------------------------|------------------------------------|
E|---------------------------|---------------------|---------------------------|------------------------------------|


E|-----------------------3---|-3-------------------|-3----3----3---2-------5---|-5---3----2---2------------|
B|-5----5----5---3---5-------|-----3-----3---------|-------------------3-------|------------------5----3---|
G|---------------------------|---------------------|---------------------------|---------------------------|
D|---------------------------|---------------------|---------------------------|---------------------------|
A|---------------------------|---------------------|---------------------------|---------------------------|
E|---------------------------|---------------------|---------------------------|---------------------------|


E|--------|--------|--------|--------|--------|--------|--------|--------|-----------------------|
B|--------|--------|--------|--------|--------|--------|--------|--------|---------7---5---5-----|
G|--------|--------|--------|--------|--------|--------|--------|--------|-----2-----------------|
D|--------|--------|--------|--------|--------|--------|--------|--------|-----------------------|
A|--------|--------|--------|--------|--------|--------|--------|--------|-----------------------|
E|--------|--------|--------|--------|--------|--------|--------|--------|-----------------------|


E|-----------------------|--------|--------|-----------------------|-----------------------|
B|---------7---5---5-----|--------|--------|---------7---5---5-----|---------7---5---5-----|
G|-----2-----------------|--------|--------|-----2-----------------|-----2-----------------|
D|-----------------------|--------|--------|-----------------------|-----------------------|
A|-----------------------|--------|--------|-----------------------|-----------------------|
E|-----------------------|--------|--------|-----------------------|-----------------------|


E|--------|--------|-2-----2-----0---|-0----0----0------------|-0----0--------3----2---|
B|--------|--------|-3-----3-----1---|-1----1----1---1--------|-1----1----0---0----3---|
G|--------|--------|-2-----2-----2---|-2----2----2---2--------|-0----0----0---0----2---|
D|--------|--------|-0-----0-----2---|-2-------------2--------|-2----2----0--------0---|
A|--------|--------|-----------------|---------------0----2---|-3---------2------------|
E|--------|--------|-----------------|------------------------|-----------3------------|


E|-2----2----3--2------2----|------2--------2----0---|-0----0-----------0-----------|
B|-3----3----3-----3---3----|------3--------3----1---|-1----1-------1-------1-------|
G|-2----2----2-----2---2----|-2----2----2--------2---|-2----2---2---2-------2-------|
D|-0---------------0--------|-0---------0--------2---|-2------------2---------------|
A|--------------------------|------------------------|--------------------------2---|
E|--------------------------|------------------------|------------------------------|


E|--------|--------|-----------------------|-----------------------|--------|--------|
B|--------|--------|---------7---5---5-----|---------7---5---5-----|--------|--------|
G|--------|--------|-----2-----------------|-----2-----------------|--------|--------|
D|--------|--------|-----------------------|-----------------------|--------|--------|
A|--------|--------|-----------------------|-----------------------|--------|--------|
E|--------|--------|-----------------------|-----------------------|--------|--------|


E|-----------------------|-----------------------|--------|-----------------------3---|
B|---------7---5---5-----|---------7---5---5-----|--------|-5----5----5---3---5-------|
G|-----2-----------------|-----2-----------------|--------|---------------------------|
D|-----------------------|-----------------------|--------|---------------------------|
A|-----------------------|-----------------------|--------|---------------------------|
E|-----------------------|-----------------------|--------|---------------------------|


E|-3-------------------|-3----3----3---2-------5---|-5--------------0-------------------|
B|-----3-----3---------|-------------------3-------|----------0--2---------3--3-----2---|
G|---------------------|---------------------------|--------------------4--------2------|
D|---------------------|---------------------------|------------------------------------|
A|---------------------|---------------------------|------------------------------------|
E|---------------------|---------------------------|------------------------------------|


E|-----------------------3---|-3-------------------|-3----3----3---2-------5---|--------|
B|-5----5----5---3---5-------|-----3-----3---------|-------------------3-------|--------|
G|---------------------------|---------------------|---------------------------|--------|
D|---------------------------|---------------------|---------------------------|--------|
A|---------------------------|---------------------|---------------------------|--------|
E|---------------------------|---------------------|---------------------------|--------|


E|--------|--------|--------|--------|--------|--------|--------|--------|--------|
B|--------|--------|--------|--------|--------|--------|--------|--------|--------|
G|--------|--------|--------|--------|--------|--------|--------|--------|--------|
D|--------|--------|--------|--------|--------|--------|--------|--------|--------|
A|--------|--------|--------|--------|--------|--------|--------|--------|--------|
E|--------|--------|--------|--------|--------|--------|--------|--------|--------|


E|--------|--------|--------|--------|--------|--------|--------|--------|--------|
B|--------|--------|--------|--------|--------|--------|--------|--------|--------|
G|--------|--------|--------|--------|--------|--------|--------|--------|--------|
D|--------|--------|--------|--------|--------|--------|--------|--------|--------|
A|--------|--------|--------|--------|--------|--------|--------|--------|--------|
E|--------|--------|--------|--------|--------|--------|--------|--------|--------|


E|-----------------------|-----------------------|--------|--------|-----------------------|
B|---------7---5---5-----|---------7---5---5-----|--------|--------|---------7---5---5-----|
G|-----2-----------------|-----2-----------------|--------|--------|-----2-----------------|
D|-----------------------|-----------------------|--------|--------|-----------------------|
A|-----------------------|-----------------------|--------|--------|-----------------------|
E|-----------------------|-----------------------|--------|--------|-----------------------|


E|-----------------------|--------|--------|--------|--------|--------|--------|--------|
B|---------7---5---5-----|--------|--------|--------|--------|--------|--------|--------|
G|-----2-----------------|--------|--------|--------|--------|--------|--------|--------|
D|-----------------------|--------|--------|--------|--------|--------|--------|--------|
A|-----------------------|--------|--------|--------|--------|--------|--------|--------|
E|-----------------------|--------|--------|--------|--------|--------|--------|--------|


E|--------|--------|-----------------------3---|-3-------------------|-3----3----3---2-------5---|
B|--------|--------|-5----5----5---3---5-------|-----3-----3---------|-------------------3-------|
G|--------|--------|---------------------------|---------------------|---------------------------|
D|--------|--------|---------------------------|---------------------|---------------------------|
A|--------|--------|---------------------------|---------------------|---------------------------|
E|--------|--------|---------------------------|---------------------|---------------------------|


E|-5--------------0-------------------|-----------------------3---|-3-------------------|
B|----------0--2---------3--3-----2---|-5----5----5---3---5-------|-----3-----3---------|
G|--------------------4--------2------|---------------------------|---------------------|
D|------------------------------------|---------------------------|---------------------|
A|------------------------------------|---------------------------|---------------------|
E|------------------------------------|---------------------------|---------------------|


E|-3----3----3---2-------5---|-5--------------0-------------------|-17-17-17-17-17--17-17-17-17-17--17-17--17-|
B|-------------------3-------|----------0--2---------3--3-----2---|-------------------------------------------|
G|---------------------------|--------------------4--------2------|-------------------------------------------|
D|---------------------------|------------------------------------|-------------------------------------------|
A|---------------------------|------------------------------------|-------------------------------------------|
E|---------------------------|------------------------------------|-------------------------------------------|


E|-17-17-17-17-17-17-17-17-17-17-17-17-17-17-17--|-17-17-17-17-17-15-15-15-14-14-14-12-12-12-10-10-|
B|-----------------------------------------------|-------------------------------------------------|
G|-----------------------------------------------|-------------------------------------------------|
D|-----------------------------------------------|-------------------------------------------------|
A|-----------------------------------------------|-------------------------------------------------|
E|-----------------------------------------------|-------------------------------------------------|


E|--------|------------10--------|-----------------------|---------------------------------|
B|-12-----|------12--------12-12-|-10----12--12--12--10--|---------------------------------|
G|--------|----------------------|-----------------------|-12--14----14-14-14-14-12-14-14--|
D|--------|----------------------|-----------------------|---------------------------------|
A|--------|----------------------|-----------------------|---------------------------------|
E|--------|----------------------|-----------------------|---------------------------------|


E|----------------------|--------------------|-12----12----14-12----12-12-14-14-14-14-14-14-12-|
B|------------15--------|----------------14--|----14----14-------14----------------------------|
G|-14---16--------16-16-|-14-----------------|-------------------------------------------------|
D|----------------------|--------------------|-------------------------------------------------|
A|----------------------|--------------------|-------------------------------------------------|
E|----------------------|--------------------|-------------------------------------------------|


E|-17----17--17-19-17------|-19----19---19---|-19-19-17----------------21--|-21----21-21-21--21--21--|
B|---------------------19--|-----------------|-----------------------------|-------------------------|
G|-------------------------|-----------------|-----------------------------|-------------------------|
D|-------------------------|-----------------|-----------------------------|-------------------------|
A|-------------------------|-----------------|-----------------------------|-------------------------|
E|-------------------------|-----------------|-----------------------------|-------------------------|


E|-21----------17-------17-------17----|----17----------------17-19-17----19-17----19-17-|
B|-------17-19----17-19----17-19----17-|-19----17-19-20-17-19----------19-------19-------|
G|-------------------------------------|-------------------------------------------------|
D|-------------------------------------|-------------------------------------------------|
A|-------------------------------------|-------------------------------------------------|
E|-------------------------------------|-------------------------------------------------|


E|----19-17----19-17----19-19--19--17-19-17-----|-17-----|--------------------------------|
B|-19-------19-------19---------------------19--|--------|-19--19--17---------------------|
G|----------------------------------------------|--------|--------------16-14-----14---16-|
D|----------------------------------------------|--------|--------------------16----------|
A|----------------------------------------------|--------|--------------------------------|
E|----------------------------------------------|--------|--------------------------------|


E|---------------17----------|-------------|-------------------------------------------------|
B|-----17--17-------17-------|-------------|-------------------------------------------------|
G|-16------------------16-16-|-14----------|-------14-14-16-14----14-16-14----14-------------|
D|---------------------------|-------------|-14-16-------------16----------16----16-14-------|
A|---------------------------|-------------|-------------------------------------------16-14-|
E|---------------------------|-------------|-------------------------------------------------|


E|---------------------------------|-----------------|--------|--------|--------|--------|
B|---------------------------------|-----------------|--------|--------|--------|--------|
G|-------------------------14------|-14--------------|--------|--------|--------|--------|
D|-------------14-14----16-----16--|-------16--------|--------|--------|--------|--------|
A|-12----14-16-------14------------|-----------------|--------|--------|--------|--------|
E|---------------------------------|-----------------|--------|--------|--------|--------|


E|--------|--------|--------|--------|---------------17--19--|-19---19---19---19---|
B|--------|--------|--------|--------|-----------19----------|---------------------|
G|--------|--------|--------|--------|-----------------------|---------------------|
D|--------|--------|--------|--------|-----------------------|---------------------|
A|--------|--------|--------|--------|-----------------------|---------------------|
E|--------|--------|--------|--------|-----------------------|---------------------|


E|-19--19--19--19--19--19--19-17-----|-17-----------------19--|-19---19-17-----19--19-19-19-17-----|
B|-------------------------------19--|------19----------------|------------19------------------19--|
G|-----------------------------------|------------------------|------------------------------------|
D|-----------------------------------|------------------------|------------------------------------|
A|-----------------------------------|------------------------|------------------------------------|
E|-----------------------------------|------------------------|------------------------------------|


E|-19---19-19-17-----19---19-19-17-----|-19------17-----17-17-17----17-17---|-------17-17----17-------17-------17-------17----|
B|---------------19----------------19--|-----19------19----------19---------|-17-19-------19----17-19----17-19----17-19----17-|
G|-------------------------------------|------------------------------------|-------------------------------------------------|
D|-------------------------------------|------------------------------------|-------------------------------------------------|
A|-------------------------------------|------------------------------------|-------------------------------------------------|
E|-------------------------------------|------------------------------------|-------------------------------------------------|


E|----17-------17-------17---------------------|-------------------------------------------------|
B|-19----17-19----17-19----17-19----17---------|-------------------------17----------------------|
G|-------------------------------18----16--14--|-------14-14-16-14-16-16-16-16-16-14-16-14----14-|
D|---------------------------------------------|-14-16-------------------------------------16----|
A|---------------------------------------------|-------------------------------------------------|
E|---------------------------------------------|-------------------------------------------------|


E|-----------------------------------------------|---------------------------------------|
B|-----------------------------------------------|---------------------------------------|
G|-----------------------------------------------|-----14--------------------14----14-16-|
D|-16-14--14-------------------------------14-14-|-16------------------14-16----16-------|
A|-----------16-14-12-------12-14-12-14-16-------|---------0-----------------------------|
E|--------------------12-14----------------------|---------------------------------------|


E|--------------------|--------|---------14--------------------------|--------------------|
B|--------------------|--------|------------17-14------14------------|------17------------|
G|-16-14-------14-----|--------|-----16------------16------16-16-14--|-16---16--16--16----|
D|-------16-14--------|--------|-------------------------------------|--------------------|
A|--------------------|--------|-------------------------------------|--------------------|
E|--------------------|--------|-------------------------------------|--------------------|


E|-----------------------------------------------|----------------|-------------------------------------------|
B|-----17----------------------------------------|----------------|------------17--17-------17-------17-------|
G|--------16-16-14-------14----------------------|----------------|-----16--16--------16-16----16-16----16-16-|
D|-----------------16-14----14-15-14-------------|-----14--14-----|-------------------------------------------|
A|-----------------------------------16-14-12----|-16-------------|-------------------------------------------|
E|--------------------------------------------14-|----------------|-------------------------------------------|


E|-------------------------------------------------|-------------------------------------------------|
B|-17-------17-------17-------17-------17-------17-|-------17----------------------------------------|
G|----16-16----16-16----16-16----16-16----16-16----|-16-16-16-16-16-14-------14-------14-------14----|
D|-------------------------------------------------|-------------------16-14----16-14----16-14----14-|
A|-------------------------------------------------|-------------------------------------------------|
E|-------------------------------------------------|-------------------------------------------------|


E|-------------------------14----------------------|-------------------------------------------|
B|-------------------------------17-14----14-------|-------------------------------------------|
G|----14-16-14-------16-16-16-16-------16----16-14-|-----14--14-----------14-------------------|
D|-16----------14-16-------------------------------|-16----------14-14-16----16-14-14-14-------|
A|-------------------------------------------------|-------------------------------------16-14-|
E|-------------------------------------------------|-------------------------------------------|


E|------------------------|----------------------|-----------------21-|-21-----|--------|
B|--------------------12--|-12----12---10-12-10--|-10-----------------|--------|--------|
G|------------------------|----------------------|--------------------|--------|--------|
D|------------------------|----------------------|--------------------|--------|--------|
A|-12---------------------|----------------------|--------------------|--------|--------|
E|------------------------|----------------------|--------------------|--------|--------|


E|--------------------|---------------------11---11---|-----------------------------|
B|----------5---5-----|-10--10--10--10--10------------|-----------------------------|
G|------6-------------|-------------------------------|-9----9-------------------14-|
D|--------------------|-------------------------------|-----------------------16----|
A|--------------------|-------------------------------|-----------------------------|
E|--------------------|-------------------------------|-----------------------------|


E|---------------------------|
B|---------------------------|
G|-16-14---------------------|
D|-------14-12-14------------|
A|---------------------------|
E|---------------------------|





Track 2: Rhythm #2, 3

E|---------------------------------|---------------------|------------------------------|
B|---------------------------------|---------------------|--------------------------5---|
G|-6-------6-------6---4---6---7---|-----4-----4---------|-7-------7----7---6---4---6---|
D|-7-------7-------7---5---7---9---|-----5-----5---------|-9-------9----9---7---5-------|
A|---------------------------------|---------------------|------------------------------|
E|---------------------------------|---------------------|------------------------------|


E|---------------------------------|---------------------------------|---------------------|
B|-5-----------2-------------------|---------------------------------|---------------------|
G|-6-----0--2---------4--4-----2---|-6-------6-------6---4---6---7---|-----4-----4---------|
D|-------------5---4--4--4--2--2---|-7-------7-------7---5---7---9---|-----5-----5---------|
A|-------5--7------5--------4------|---------------------------------|---------------------|
E|---------------------------------|---------------------------------|---------------------|


E|------------------------------|---------------------------|-2-----2-----0---|-0----0----0------------|
B|--------------------------5---|-5-------------------------|-3-----3-----1---|-1----1----1---1--------|
G|-7-------7----7---6---4---6---|-6---4----2---2---0--------|-2-----2-----2---|-2----2----2---2--------|
D|-9-------9----9---7---5-------|-----------------------0---|-0-----0-----2---|-2-------------2--------|
A|------------------------------|---------------------------|-----------------|---------------0----2---|
E|------------------------------|---------------------------|-----------------|------------------------|


E|-0----0--------3----2---|-2----2----3--2------2----|------2--------2----0---|-0----0-----------0-----------|
B|-1----1----0---0----3---|-3----3----3-----3---3----|------3--------3----1---|-1----1-------1-------1-------|
G|-0----0----0---0----2---|-2----2----2-----2---2----|-2----2----2--------2---|-2----2---2---2-------2-------|
D|-2----2----0--------0---|-0---------------0--------|-0---------0--------2---|-2------------2---------------|
A|-3---------2------------|--------------------------|------------------------|--------------------------2---|
E|-----------3------------|--------------------------|------------------------|------------------------------|


E|------0-------3---3-------2---|-2----2--------2--------|-----------------------|
B|-1----1---1---0---0---0---3---|-3----3--------3--------|---------3---1---1-----|
G|-0----0---0---0---0-------2---|-2----2----2-------2----|-------------2---2-----|
D|-2----2-------0-----------0---|-0----0----0-------0----|-----4-------2---2-----|
A|-3----------------------------|------------------------|-----------------------|
E|------------------------------|------------------------|-----------------------|


E|-----------------------|--------|--------|-----------------------|-----------------------|
B|---------3---1---1-----|--------|--------|---------3---1---1-----|---------3---1---1-----|
G|-------------2---2-----|--------|--------|-------------2---2-----|-------------2---2-----|
D|-----4-------2---2-----|--------|--------|-----4-------2---2-----|-----4-------2---2-----|
A|-----------------------|--------|--------|-----------------------|-----------------------|
E|-----------------------|--------|--------|-----------------------|-----------------------|


E|--------|--------|--------|--------|--------|--------|--------|--------|------0-------3---3-------2---|
B|--------|--------|--------|--------|--------|--------|--------|--------|-1----1---1---0---0---0---3---|
G|--------|--------|--------|--------|--------|--------|--------|--------|-0----0---0---0---0-------2---|
D|--------|--------|--------|--------|--------|--------|--------|--------|-2----2-------0-----------0---|
A|--------|--------|--------|--------|--------|--------|--------|--------|-3----------------------------|
E|--------|--------|--------|--------|--------|--------|--------|--------|------------------------------|


E|-2----2--------2--------|-----------------------|-----------------------|--------|
B|-3----3--------3--------|---------3---1---1-----|---------3---1---1-----|--------|
G|-2----2----2-------2----|-------------2---2-----|-------------2---2-----|--------|
D|-0----0----0-------0----|-----4-------2---2-----|-----4-------2---2-----|--------|
A|------------------------|-----------------------|-----------------------|--------|
E|------------------------|-----------------------|-----------------------|--------|


E|--------|-----------------------|-----------------------|--------|---------------------------------|
B|--------|---------3---1---1-----|---------3---1---1-----|--------|---------------------------------|
G|--------|-------------2---2-----|-------------2---2-----|--------|-6-------6-------6---4---6---7---|
D|--------|-----4-------2---2-----|-----4-------2---2-----|--------|-7-------7-------7---5---7---9---|
A|--------|-----------------------|-----------------------|--------|---------------------------------|
E|--------|-----------------------|-----------------------|--------|---------------------------------|


E|---------------------|------------------------------|---------------------------------|
B|---------------------|--------------------------5---|-5-----------2-------------------|
G|-----4-----4---------|-7-------7----7---6---4---6---|-6-----0--2---------4--4-----2---|
D|-----5-----5---------|-9-------9----9---7---5-------|-------------5---4--4--4--2--2---|
A|---------------------|------------------------------|-------5--7------5--------4------|
E|---------------------|------------------------------|---------------------------------|


E|---------------------------------|---------------------|------------------------------|
B|---------------------------------|---------------------|--------------------------5---|
G|-6-------6-------6---4---6---7---|-----4-----4---------|-7-------7----7---6---4---6---|
D|-7-------7-------7---5---7---9---|-----5-----5---------|-9-------9----9---7---5-------|
A|---------------------------------|---------------------|------------------------------|
E|---------------------------------|---------------------|------------------------------|


E|---------------------------|-2----------------------|-2-------------------------------|
B|-5-------------------------|-2----2----2---2--------|-2---2-------2---2---2-------2---|
G|-6---4----2---2---0--------|-2----2----2---2--------|-2---2-------2---2---2-------2---|
D|-----------------------0---|-4----4----4---4--------|-3---3-------3---3---3-------3---|
A|---------------------------|------------------------|---------------------------------|
E|---------------------------|------------------------|---------------------------------|


E|-2-------------------------|-2----------------------------|------------------0----2---|
B|-2---2---2---2---2----2----|-2---2----2---2---2-----------|------3---0---3---0----2---|
G|-2---2---2---2---2----2----|-2---2----2---2---2-----------|------0-------0--------2---|
D|-2---2---2---2---2----2----|-1---1----1---1---1-----------|------2-------2--------2---|
A|---------------------------|----------4---2---1---2---0---|---------------------------|
E|---------------------------|------------------------------|-0-------------------------|


E|-2---0------------0--------|------------------0----2---|-2---0------------0--------|
B|-2---0----3---3---0--------|------3---0---3---0----2---|-2---0----3---3---0--------|
G|-2--------2---2------------|------0-------0--------2---|-2--------2---2------------|
D|-2--------2---2--------2---|------2-------2--------2---|-2--------2---2--------2---|
A|---------------------------|---------------------------|---------------------------|
E|---------------------------|-0-------------------------|---------------------------|


E|------------------0----2---|-2---0------------0--------|-2-----2-----0---|-0----0----0------------|
B|------3---0---3---0----2---|-2---0----3---3---0--------|-3-----3-----1---|-1----1----1---1--------|
G|------0-------0--------2---|-2--------2---2------------|-2-----2-----2---|-2----2----2---2--------|
D|------2-------2--------2---|-2--------2---2--------2---|-0-----0-----2---|-2-------------2--------|
A|---------------------------|---------------------------|-----------------|---------------0----2---|
E|-0-------------------------|---------------------------|-----------------|------------------------|


E|-0----0--------3----2---|-2----2----3--2------2----|------2--------2----0---|-0----0-----------0-----------|
B|-1----1----0---0----3---|-3----3----3-----3---3----|------3--------3----1---|-1----1-------1-------1-------|
G|-0----0----0---0----2---|-2----2----2-----2---2----|-2----2----2--------2---|-2----2---2---2-------2-------|
D|-2----2----0--------0---|-0---------------0--------|-0---------0--------2---|-2------------2---------------|
A|-3---------2------------|--------------------------|------------------------|--------------------------2---|
E|-----------3------------|--------------------------|------------------------|------------------------------|


E|------0-------3---3-------2---|-2----2--------2--------|-----------------------|
B|-1----1---1---0---0---0---3---|-3----3--------3--------|---------3---1---1-----|
G|-0----0---0---0---0-------2---|-2----2----2-------2----|-------------2---2-----|
D|-2----2-------0-----------0---|-0----0----0-------0----|-----4-------2---2-----|
A|-3----------------------------|------------------------|-----------------------|
E|------------------------------|------------------------|-----------------------|


E|-----------------------|--------|--------|-----------------------|-----------------------|
B|---------3---1---1-----|--------|--------|---------3---1---1-----|---------3---1---1-----|
G|-------------2---2-----|--------|--------|-------------2---2-----|-------------2---2-----|
D|-----4-------2---2-----|--------|--------|-----4-------2---2-----|-----4-------2---2-----|
A|-----------------------|--------|--------|-----------------------|-----------------------|
E|-----------------------|--------|--------|-----------------------|-----------------------|


E|--------|--------|--------|--------|--------|--------|--------|--------|--------|
B|--------|--------|--------|--------|--------|--------|--------|--------|--------|
G|--------|--------|--------|--------|--------|--------|--------|--------|--------|
D|--------|--------|--------|--------|--------|--------|--------|--------|--------|
A|--------|--------|--------|--------|--------|--------|--------|--------|--------|
E|--------|--------|--------|--------|--------|--------|--------|--------|--------|


E|---------------------------------|---------------------|------------------------------|
B|---------------------------------|---------------------|--------------------------5---|
G|-6-------6-------6---4---6---7---|-----4-----4---------|-7-------7----7---6---4---6---|
D|-7-------7-------7---5---7---9---|-----5-----5---------|-9-------9----9---7---5-------|
A|---------------------------------|---------------------|------------------------------|
E|---------------------------------|---------------------|------------------------------|


E|---------------------------------|---------------------------------|---------------------|
B|-5-----------2-------------------|---------------------------------|---------------------|
G|-6-----0--2---------4--4-----2---|-6-------6-------6---4---6---7---|-----4-----4---------|
D|-------------5---4--4--4--2--2---|-7-------7-------7---5---7---9---|-----5-----5---------|
A|-------5--7------5--------4------|---------------------------------|---------------------|
E|---------------------------------|---------------------------------|---------------------|


E|------------------------------|---------------------------------|--------|--------|
B|--------------------------5---|-5-----------2-------------------|--------|--------|
G|-7-------7----7---6---4---6---|-6-----0--2---------4--4-----2---|--------|--------|
D|-9-------9----9---7---5-------|-------------5---4--4--4--2--2---|--------|--------|
A|------------------------------|-------5--7------5--------4------|--------|--------|
E|------------------------------|---------------------------------|--------|--------|


E|--------|--------|--------|--------|--------|--------|--------|--------|--------|
B|--------|--------|--------|--------|--------|--------|--------|--------|--------|
G|--------|--------|--------|--------|--------|--------|--------|--------|--------|
D|--------|--------|--------|--------|--------|--------|--------|--------|--------|
A|--------|--------|--------|--------|--------|--------|--------|--------|--------|
E|--------|--------|--------|--------|--------|--------|--------|--------|--------|


E|--------|--------|--------|--------|--------|--------|--------|--------|--------|
B|--------|--------|--------|--------|--------|--------|--------|--------|--------|
G|--------|--------|--------|--------|--------|--------|--------|--------|--------|
D|--------|--------|--------|--------|--------|--------|--------|--------|--------|
A|--------|--------|--------|--------|--------|--------|--------|--------|--------|
E|--------|--------|--------|--------|--------|--------|--------|--------|--------|


E|--------|--------|--------|--------|--------|--------|--------|--------|--------|
B|--------|--------|--------|--------|--------|--------|--------|--------|--------|
G|--------|--------|--------|--------|--------|--------|--------|--------|--------|
D|--------|--------|--------|--------|--------|--------|--------|--------|--------|
A|--------|--------|--------|--------|--------|--------|--------|--------|--------|
E|--------|--------|--------|--------|--------|--------|--------|--------|--------|


E|--------|--------|--------|--------|--------|--------|--------|--------|--------|
B|--------|--------|--------|--------|--------|--------|--------|--------|--------|
G|--------|--------|--------|--------|--------|--------|--------|--------|--------|
D|--------|--------|--------|--------|--------|--------|--------|--------|--------|
A|--------|--------|--------|--------|--------|--------|--------|--------|--------|
E|--------|--------|--------|--------|--------|--------|--------|--------|--------|


E|--------|--------|--------|--------|--------|--------|--------|--------|--------|
B|--------|--------|--------|--------|--------|--------|--------|--------|--------|
G|--------|--------|--------|--------|--------|--------|--------|--------|--------|
D|--------|--------|--------|--------|--------|--------|--------|--------|--------|
A|--------|--------|--------|--------|--------|--------|--------|--------|--------|
E|--------|--------|--------|--------|--------|--------|--------|--------|--------|


E|--------|--------|--------|--------|--------|--------|--------|--------|--------|
B|--------|--------|--------|--------|--------|--------|--------|--------|--------|
G|--------|--------|--------|--------|--------|--------|--------|--------|--------|
D|--------|--------|--------|--------|--------|--------|--------|--------|--------|
A|--------|--------|--------|--------|--------|--------|--------|--------|--------|
E|--------|--------|--------|--------|--------|--------|--------|--------|--------|


E|--------|--------|------------------------------------|---------------------------3-----|
B|--------|--------|----------0-----2------3--3-----2---|-5----5----5---3-----5--2--------|
G|--------|--------|-4--------2--4------4--------2--2---|-6---------6------2--4--------2--|
D|--------|--------|-5---------------------------2------|---------------------------------|
A|--------|--------|------------------------------------|---------------------------------|
E|--------|--------|------------------------------------|---------------------------------|


E|-------------------3-------|-3---------3-----2-------5----------|-0------0--0---------------------------|
B|-0---3--------3------------|-2------0--0---------3--------0--2--|-----0---------0---2------3--3-----2---|
G|-----2---6---------2----4--|-----0-----------2---6--------------|---------------0---0---4--------2--2---|
D|---------------------------|--------------3---------------------|---------------2---2-------------------|
A|---------------------------|------------------------------------|---------------0---0-------------------|
E|---------------------------|------------------------------------|---------------------------------------|


E|--------------------|
B|-2------------------|
G|-2------------------|
D|-2------------------|
A|-0--------------0---|
E|--------------------|





Track 3: Rhythm #1 / Outro Lead

E|--------|--------|--------|--------|--------|--------|--------|--------|--------|
B|--------|--------|--------|--------|--------|--------|--------|--------|--------|
G|--------|--------|--------|--------|--------|--------|--------|--------|--------|
D|--------|--------|--------|--------|--------|--------|--------|--------|--------|
A|--------|--------|--------|--------|--------|--------|--------|--------|--------|
E|--------|--------|--------|--------|--------|--------|--------|--------|--------|


E|--------|--------|--------|--------|--------|--------|--------|--------|--------|
B|--------|--------|--------|--------|--------|--------|--------|--------|--------|
G|--------|--------|--------|--------|--------|--------|--------|--------|--------|
D|--------|--------|--------|--------|--------|--------|--------|--------|--------|
A|--------|--------|--------|--------|--------|--------|--------|--------|--------|
E|--------|--------|--------|--------|--------|--------|--------|--------|--------|


E|--------|--------|--------|--------|--------|--------|--------|--------|--------|
B|--------|--------|--------|--------|--------|--------|--------|--------|--------|
G|--------|--------|--------|--------|--------|--------|--------|--------|--------|
D|--------|--------|--------|--------|--------|--------|--------|--------|--------|
A|--------|--------|--------|--------|--------|--------|--------|--------|--------|
E|--------|--------|--------|--------|--------|--------|--------|--------|--------|


E|--------|--------|--------|--------|--------|--------|--------|--------|--------|
B|--------|--------|--------|--------|--------|--------|--------|--------|--------|
G|--------|--------|--------|--------|--------|--------|--------|--------|--------|
D|--------|--------|--------|--------|--------|--------|--------|--------|--------|
A|--------|--------|--------|--------|--------|--------|--------|--------|--------|
E|--------|--------|--------|--------|--------|--------|--------|--------|--------|


E|--------|--------|--------|--------|--------|--------|--------|--------|--------|
B|--------|--------|--------|--------|--------|--------|--------|--------|--------|
G|--------|--------|--------|--------|--------|--------|--------|--------|--------|
D|--------|--------|--------|--------|--------|--------|--------|--------|--------|
A|--------|--------|--------|--------|--------|--------|--------|--------|--------|
E|--------|--------|--------|--------|--------|--------|--------|--------|--------|


E|--------|--------|--------|--------|--------|--------|--------|--------|--------|
B|--------|--------|--------|--------|--------|--------|--------|--------|--------|
G|--------|--------|--------|--------|--------|--------|--------|--------|--------|
D|--------|--------|--------|--------|--------|--------|--------|--------|--------|
A|--------|--------|--------|--------|--------|--------|--------|--------|--------|
E|--------|--------|--------|--------|--------|--------|--------|--------|--------|


E|--------|--------|--------|--------|--------|--------|--------|--------|--------|
B|--------|--------|--------|--------|--------|--------|--------|--------|--------|
G|--------|--------|--------|--------|--------|--------|--------|--------|--------|
D|--------|--------|--------|--------|--------|--------|--------|--------|--------|
A|--------|--------|--------|--------|--------|--------|--------|--------|--------|
E|--------|--------|--------|--------|--------|--------|--------|--------|--------|


E|--------|--------|--------|--------|--------|--------|--------|--------|--------|
B|--------|--------|--------|--------|--------|--------|--------|--------|--------|
G|--------|--------|--------|--------|--------|--------|--------|--------|--------|
D|--------|--------|--------|--------|--------|--------|--------|--------|--------|
A|--------|--------|--------|--------|--------|--------|--------|--------|--------|
E|--------|--------|--------|--------|--------|--------|--------|--------|--------|


E|--------|--------|--------|--------|--------|--------|--------|--------|--------|
B|--------|--------|--------|--------|--------|--------|--------|--------|--------|
G|--------|--------|--------|--------|--------|--------|--------|--------|--------|
D|--------|--------|--------|--------|--------|--------|--------|--------|--------|
A|--------|--------|--------|--------|--------|--------|--------|--------|--------|
E|--------|--------|--------|--------|--------|--------|--------|--------|--------|


E|--------|--------|--------|--------|--------|--------|--------|--------|--------|
B|--------|--------|--------|--------|--------|--------|--------|--------|--------|
G|--------|--------|--------|--------|--------|--------|--------|--------|--------|
D|--------|--------|--------|--------|--------|--------|--------|--------|--------|
A|--------|--------|--------|--------|--------|--------|--------|--------|--------|
E|--------|--------|--------|--------|--------|--------|--------|--------|--------|


E|--------|--------|--------|--------|--------|--------|--------|--------|--------|
B|--------|--------|--------|--------|--------|--------|--------|--------|--------|
G|--------|--------|--------|--------|--------|--------|--------|--------|--------|
D|--------|--------|--------|--------|--------|--------|--------|--------|--------|
A|--------|--------|--------|--------|--------|--------|--------|--------|--------|
E|--------|--------|--------|--------|--------|--------|--------|--------|--------|


E|--------|--------|--------|--------|--------|--------|--------|--------|--------|
B|--------|--------|--------|--------|--------|--------|--------|--------|--------|
G|--------|--------|--------|--------|--------|--------|--------|--------|--------|
D|--------|--------|--------|--------|--------|--------|--------|--------|--------|
A|--------|--------|--------|--------|--------|--------|--------|--------|--------|
E|--------|--------|--------|--------|--------|--------|--------|--------|--------|


E|--------|--------|--------|--------|--------|--------|--------|--------|--------|
B|--------|--------|--------|--------|--------|--------|--------|--------|--------|
G|--------|--------|--------|--------|--------|--------|--------|--------|--------|
D|--------|--------|--------|--------|--------|--------|--------|--------|--------|
A|--------|--------|--------|--------|--------|--------|--------|--------|--------|
E|--------|--------|--------|--------|--------|--------|--------|--------|--------|


E|--------|--------|--------|--------|--------|--------|--------|--------|--------|
B|--------|--------|--------|--------|--------|--------|--------|--------|--------|
G|--------|--------|--------|--------|--------|--------|--------|--------|--------|
D|--------|--------|--------|--------|--------|--------|--------|--------|--------|
A|--------|--------|--------|--------|--------|--------|--------|--------|--------|
E|--------|--------|--------|--------|--------|--------|--------|--------|--------|


E|--------|--------|--------|--------|--------|--------|--------|--------|--------|
B|--------|--------|--------|--------|--------|--------|--------|--------|--------|
G|--------|--------|--------|--------|--------|--------|--------|--------|--------|
D|--------|--------|--------|--------|--------|--------|--------|--------|--------|
A|--------|--------|--------|--------|--------|--------|--------|--------|--------|
E|--------|--------|--------|--------|--------|--------|--------|--------|--------|


E|--------|--------|--------|--------|--------|--------|--------|--------|--------|
B|--------|--------|--------|--------|--------|--------|--------|--------|--------|
G|--------|--------|--------|--------|--------|--------|--------|--------|--------|
D|--------|--------|--------|--------|--------|--------|--------|--------|--------|
A|--------|--------|--------|--------|--------|--------|--------|--------|--------|
E|--------|--------|--------|--------|--------|--------|--------|--------|--------|


E|--------|--------|--------|--------|--------|--------|--------|--------|
B|--------|--------|--------|--------|--------|--------|--------|--------|
G|--------|--------|--------|--------|--------|--------|--------|--------|
D|--------|--------|--------|--------|--------|--------|--------|--------|
A|--------|--------|--------|--------|--------|--------|--------|--------|
E|--------|--------|--------|--------|--------|--------|--------|--------|





Track 4: Rhythm #1 / Outro Lead

E|--------|--------|--------|--------|--------|--------|--------|--------|--------|
B|--------|--------|--------|--------|--------|--------|--------|--------|--------|
G|--------|--------|--------|--------|--------|--------|--------|--------|--------|
D|--------|--------|--------|--------|--------|--------|--------|--------|--------|
A|--------|--------|--------|--------|--------|--------|--------|--------|--------|
E|--------|--------|--------|--------|--------|--------|--------|--------|--------|


E|--------|--------|--------|--------|--------|--------|--------|--------|--------|
B|--------|--------|--------|--------|--------|--------|--------|--------|--------|
G|--------|--------|--------|--------|--------|--------|--------|--------|--------|
D|--------|--------|--------|--------|--------|--------|--------|--------|--------|
A|--------|--------|--------|--------|--------|--------|--------|--------|--------|
E|--------|--------|--------|--------|--------|--------|--------|--------|--------|


E|--------|--------|--------|--------|--------|--------|--------|--------|--------|
B|--------|--------|--------|--------|--------|--------|--------|--------|--------|
G|--------|--------|--------|--------|--------|--------|--------|--------|--------|
D|--------|--------|--------|--------|--------|--------|--------|--------|--------|
A|--------|--------|--------|--------|--------|--------|--------|--------|--------|
E|--------|--------|--------|--------|--------|--------|--------|--------|--------|


E|--------|--------|--------|--------|--------|--------|--------|--------|--------|
B|--------|--------|--------|--------|--------|--------|--------|--------|--------|
G|--------|--------|--------|--------|--------|--------|--------|--------|--------|
D|--------|--------|--------|--------|--------|--------|--------|--------|--------|
A|--------|--------|--------|--------|--------|--------|--------|--------|--------|
E|--------|--------|--------|--------|--------|--------|--------|--------|--------|


E|--------|--------|--------|--------|--------|--------|--------|--------|--------|
B|--------|--------|--------|--------|--------|--------|--------|--------|--------|
G|--------|--------|--------|--------|--------|--------|--------|--------|--------|
D|--------|--------|--------|--------|--------|--------|--------|--------|--------|
A|--------|--------|--------|--------|--------|--------|--------|--------|--------|
E|--------|--------|--------|--------|--------|--------|--------|--------|--------|


E|--------|--------|--------|--------|--------|--------|--------|--------|--------|
B|--------|--------|--------|--------|--------|--------|--------|--------|--------|
G|--------|--------|--------|--------|--------|--------|--------|--------|--------|
D|--------|--------|--------|--------|--------|--------|--------|--------|--------|
A|--------|--------|--------|--------|--------|--------|--------|--------|--------|
E|--------|--------|--------|--------|--------|--------|--------|--------|--------|


E|--------|--------|--------|--------|--------|--------|--------|--------|--------|
B|--------|--------|--------|--------|--------|--------|--------|--------|--------|
G|--------|--------|--------|--------|--------|--------|--------|--------|--------|
D|--------|--------|--------|--------|--------|--------|--------|--------|--------|
A|--------|--------|--------|--------|--------|--------|--------|--------|--------|
E|--------|--------|--------|--------|--------|--------|--------|--------|--------|


E|--------|--------|--------|--------|--------|--------|--------|--------|--------|
B|--------|--------|--------|--------|--------|--------|--------|--------|--------|
G|--------|--------|--------|--------|--------|--------|--------|--------|--------|
D|--------|--------|--------|--------|--------|--------|--------|--------|--------|
A|--------|--------|--------|--------|--------|--------|--------|--------|--------|
E|--------|--------|--------|--------|--------|--------|--------|--------|--------|


E|--------|--------|--------|--------|--------|--------|--------|--------|--------|
B|--------|--------|--------|--------|--------|--------|--------|--------|--------|
G|--------|--------|--------|--------|--------|--------|--------|--------|--------|
D|--------|--------|--------|--------|--------|--------|--------|--------|--------|
A|--------|--------|--------|--------|--------|--------|--------|--------|--------|
E|--------|--------|--------|--------|--------|--------|--------|--------|--------|


E|--------|--------|--------|--------|--------|--------|--------|--------|--------|
B|--------|--------|--------|--------|--------|--------|--------|--------|--------|
G|--------|--------|--------|--------|--------|--------|--------|--------|--------|
D|--------|--------|--------|--------|--------|--------|--------|--------|--------|
A|--------|--------|--------|--------|--------|--------|--------|--------|--------|
E|--------|--------|--------|--------|--------|--------|--------|--------|--------|


E|--------|--------|--------|--------|--------|--------|--------|--------|--------|
B|--------|--------|--------|--------|--------|--------|--------|--------|--------|
G|--------|--------|--------|--------|--------|--------|--------|--------|--------|
D|--------|--------|--------|--------|--------|--------|--------|--------|--------|
A|--------|--------|--------|--------|--------|--------|--------|--------|--------|
E|--------|--------|--------|--------|--------|--------|--------|--------|--------|


E|--------|--------|--------|--------|--------|--------|--------|--------|--------|
B|--------|--------|--------|--------|--------|--------|--------|--------|--------|
G|--------|--------|--------|--------|--------|--------|--------|--------|--------|
D|--------|--------|--------|--------|--------|--------|--------|--------|--------|
A|--------|--------|--------|--------|--------|--------|--------|--------|--------|
E|--------|--------|--------|--------|--------|--------|--------|--------|--------|


E|--------|--------|--------|--------|--------|--------|--------|--------|--------|
B|--------|--------|--------|--------|--------|--------|--------|--------|--------|
G|--------|--------|--------|--------|--------|--------|--------|--------|--------|
D|--------|--------|--------|--------|--------|--------|--------|--------|--------|
A|--------|--------|--------|--------|--------|--------|--------|--------|--------|
E|--------|--------|--------|--------|--------|--------|--------|--------|--------|


E|--------|--------|--------|--------|--------|--------|--------|--------|--------|
B|--------|--------|--------|--------|--------|--------|--------|--------|--------|
G|--------|--------|--------|--------|--------|--------|--------|--------|--------|
D|--------|--------|--------|--------|--------|--------|--------|--------|--------|
A|--------|--------|--------|--------|--------|--------|--------|--------|--------|
E|--------|--------|--------|--------|--------|--------|--------|--------|--------|


E|--------|--------|--------|--------|--------|--------|--------|--------|--------|
B|--------|--------|--------|--------|--------|--------|--------|--------|--------|
G|--------|--------|--------|--------|--------|--------|--------|--------|--------|
D|--------|--------|--------|--------|--------|--------|--------|--------|--------|
A|--------|--------|--------|--------|--------|--------|--------|--------|--------|
E|--------|--------|--------|--------|--------|--------|--------|--------|--------|


E|--------|--------|--------|--------|--------|--------|--------|--------|--------|
B|--------|--------|--------|--------|--------|--------|--------|--------|--------|
G|--------|--------|--------|--------|--------|--------|--------|--------|--------|
D|--------|--------|--------|--------|--------|--------|--------|--------|--------|
A|--------|--------|--------|--------|--------|--------|--------|--------|--------|
E|--------|--------|--------|--------|--------|--------|--------|--------|--------|


E|--------|--------|--------|--------|--------|--------|--------|--------|
B|--------|--------|--------|--------|--------|--------|--------|--------|
G|--------|--------|--------|--------|--------|--------|--------|--------|
D|--------|--------|--------|--------|--------|--------|--------|--------|
A|--------|--------|--------|--------|--------|--------|--------|--------|
E|--------|--------|--------|--------|--------|--------|--------|--------|





Track 5: Guitar Solo (with emulator)

E|--------|--------|--------|--------|--------|--------|--------|--------|--------|
B|--------|--------|--------|--------|--------|--------|--------|--------|--------|
G|--------|--------|--------|--------|--------|--------|--------|--------|--------|
D|--------|--------|--------|--------|--------|--------|--------|--------|--------|
A|--------|--------|--------|--------|--------|--------|--------|--------|--------|
E|--------|--------|--------|--------|--------|--------|--------|--------|--------|


E|--------|--------|--------|--------|--------|--------|--------|--------|--------|
B|--------|--------|--------|--------|--------|--------|--------|--------|--------|
G|--------|--------|--------|--------|--------|--------|--------|--------|--------|
D|--------|--------|--------|--------|--------|--------|--------|--------|--------|
A|--------|--------|--------|--------|--------|--------|--------|--------|--------|
E|--------|--------|--------|--------|--------|--------|--------|--------|--------|


E|--------|--------|--------|--------|--------|--------|--------|--------|--------|
B|--------|--------|--------|--------|--------|--------|--------|--------|--------|
G|--------|--------|--------|--------|--------|--------|--------|--------|--------|
D|--------|--------|--------|--------|--------|--------|--------|--------|--------|
A|--------|--------|--------|--------|--------|--------|--------|--------|--------|
E|--------|--------|--------|--------|--------|--------|--------|--------|--------|


E|--------|--------|--------|--------|--------|--------|--------|--------|--------|
B|--------|--------|--------|--------|--------|--------|--------|--------|--------|
G|--------|--------|--------|--------|--------|--------|--------|--------|--------|
D|--------|--------|--------|--------|--------|--------|--------|--------|--------|
A|--------|--------|--------|--------|--------|--------|--------|--------|--------|
E|--------|--------|--------|--------|--------|--------|--------|--------|--------|


E|--------|--------|--------|--------|--------|--------|--------|--------|--------|
B|--------|--------|--------|--------|--------|--------|--------|--------|--------|
G|--------|--------|--------|--------|--------|--------|--------|--------|--------|
D|--------|--------|--------|--------|--------|--------|--------|--------|--------|
A|--------|--------|--------|--------|--------|--------|--------|--------|--------|
E|--------|--------|--------|--------|--------|--------|--------|--------|--------|


E|--------|--------|----------------------|---------------------|---------------------------|
B|--------|--------|----------------------|---------------------|----------17--17--17---17--|
G|--------|--------|------------13---14---|-16----16--16--14----|-14------------------------|
D|--------|--------|-------16-------------|---------------------|---------------------------|
A|--------|--------|----------------------|---------------------|---------------------------|
E|--------|--------|----------------------|---------------------|---------------------------|


E|-----------------------|--------|----------------------------------|-----------------|
B|-14--------------------|--------|----------------12--15-12---------|-----------------|
G|-----16--16--14--------|--------|-------------12-----------14--12--|-----16----------|
D|-----------------16----|--------|----------14----------------------|-14--------------|
A|-----------------------|--------|----------------------------------|-----------------|
E|-----------------------|--------|----------------------------------|-----------------|


E|-------------------------------------|---------------------|-----------------------------------|
B|-----12-15-12------------------------|---------------------|-----12-15-12----------------------|
G|-----12--------14--12------12-11-----|-14--16----16--------|---------------14--12------12--14--|
D|-----------------------14--------14--|---------------------|-----------------------14----------|
A|-------------------------------------|---------------------|-----------------------------------|
E|-------------------------------------|---------------------|-----------------------------------|


E|--------|--------|--------|--------|--------|--------|--------|--------|--------|
B|--------|--------|--------|--------|--------|--------|--------|--------|--------|
G|--------|--------|--------|--------|--------|--------|--------|--------|--------|
D|--------|--------|--------|--------|--------|--------|--------|--------|--------|
A|--------|--------|--------|--------|--------|--------|--------|--------|--------|
E|--------|--------|--------|--------|--------|--------|--------|--------|--------|


E|--------|--------|--------|--------|--------|--------|--------|--------|--------|
B|--------|--------|--------|--------|--------|--------|--------|--------|--------|
G|--------|--------|--------|--------|--------|--------|--------|--------|--------|
D|--------|--------|--------|--------|--------|--------|--------|--------|--------|
A|--------|--------|--------|--------|--------|--------|--------|--------|--------|
E|--------|--------|--------|--------|--------|--------|--------|--------|--------|


E|--------|--------|--------|--------|--------|--------|--------|--------|--------|
B|--------|--------|--------|--------|--------|--------|--------|--------|--------|
G|--------|--------|--------|--------|--------|--------|--------|--------|--------|
D|--------|--------|--------|--------|--------|--------|--------|--------|--------|
A|--------|--------|--------|--------|--------|--------|--------|--------|--------|
E|--------|--------|--------|--------|--------|--------|--------|--------|--------|


E|--------|--------|--------|--------|--------|--------|--------|--------|--------|
B|--------|--------|--------|--------|--------|--------|--------|--------|--------|
G|--------|--------|--------|--------|--------|--------|--------|--------|--------|
D|--------|--------|--------|--------|--------|--------|--------|--------|--------|
A|--------|--------|--------|--------|--------|--------|--------|--------|--------|
E|--------|--------|--------|--------|--------|--------|--------|--------|--------|


E|--------|--------|--------|--------|--------|--------|--------|--------|--------|
B|--------|--------|--------|--------|--------|--------|--------|--------|--------|
G|--------|--------|--------|--------|--------|--------|--------|--------|--------|
D|--------|--------|--------|--------|--------|--------|--------|--------|--------|
A|--------|--------|--------|--------|--------|--------|--------|--------|--------|
E|--------|--------|--------|--------|--------|--------|--------|--------|--------|


E|--------|--------|--------|--------|--------|--------|--------|--------|--------|
B|--------|--------|--------|--------|--------|--------|--------|--------|--------|
G|--------|--------|--------|--------|--------|--------|--------|--------|--------|
D|--------|--------|--------|--------|--------|--------|--------|--------|--------|
A|--------|--------|--------|--------|--------|--------|--------|--------|--------|
E|--------|--------|--------|--------|--------|--------|--------|--------|--------|


E|--------|--------|--------|--------|--------|--------|--------|--------|--------|
B|--------|--------|--------|--------|--------|--------|--------|--------|--------|
G|--------|--------|--------|--------|--------|--------|--------|--------|--------|
D|--------|--------|--------|--------|--------|--------|--------|--------|--------|
A|--------|--------|--------|--------|--------|--------|--------|--------|--------|
E|--------|--------|--------|--------|--------|--------|--------|--------|--------|


E|--------|--------|--------|--------|--------|--------|--------|--------|--------|
B|--------|--------|--------|--------|--------|--------|--------|--------|--------|
G|--------|--------|--------|--------|--------|--------|--------|--------|--------|
D|--------|--------|--------|--------|--------|--------|--------|--------|--------|
A|--------|--------|--------|--------|--------|--------|--------|--------|--------|
E|--------|--------|--------|--------|--------|--------|--------|--------|--------|


E|--------|--------|--------|--------|--------|--------|--------|--------|--------|
B|--------|--------|--------|--------|--------|--------|--------|--------|--------|
G|--------|--------|--------|--------|--------|--------|--------|--------|--------|
D|--------|--------|--------|--------|--------|--------|--------|--------|--------|
A|--------|--------|--------|--------|--------|--------|--------|--------|--------|
E|--------|--------|--------|--------|--------|--------|--------|--------|--------|


E|--------|--------|--------|--------|--------|--------|--------|--------|--------|
B|--------|--------|--------|--------|--------|--------|--------|--------|--------|
G|--------|--------|--------|--------|--------|--------|--------|--------|--------|
D|--------|--------|--------|--------|--------|--------|--------|--------|--------|
A|--------|--------|--------|--------|--------|--------|--------|--------|--------|
E|--------|--------|--------|--------|--------|--------|--------|--------|--------|


E|--------|--------|--------|--------|--------|
B|--------|--------|--------|--------|--------|
G|--------|--------|--------|--------|--------|
D|--------|--------|--------|--------|--------|
A|--------|--------|--------|--------|--------|
E|--------|--------|--------|--------|--------|





Track 6: Rhythm #1 / Outro Lead

E|--------|--------|--------|--------|--------|--------|--------|--------|--------|
B|--------|--------|--------|--------|--------|--------|--------|--------|--------|
G|--------|--------|--------|--------|--------|--------|--------|--------|--------|
D|--------|--------|--------|--------|--------|--------|--------|--------|--------|
A|--------|--------|--------|--------|--------|--------|--------|--------|--------|
E|--------|--------|--------|--------|--------|--------|--------|--------|--------|


E|--------|--------|--------|--------|--------|--------|--------|--------|--------|
B|--------|--------|--------|--------|--------|--------|--------|--------|--------|
G|--------|--------|--------|--------|--------|--------|--------|--------|--------|
D|--------|--------|--------|--------|--------|--------|--------|--------|--------|
A|--------|--------|--------|--------|--------|--------|--------|--------|--------|
E|--------|--------|--------|--------|--------|--------|--------|--------|--------|


E|--------|--------|--------|--------|--------|--------|--------|--------|--------|
B|--------|--------|--------|--------|--------|--------|--------|--------|--------|
G|--------|--------|--------|--------|--------|--------|--------|--------|--------|
D|--------|--------|--------|--------|--------|--------|--------|--------|--------|
A|--------|--------|--------|--------|--------|--------|--------|--------|--------|
E|--------|--------|--------|--------|--------|--------|--------|--------|--------|


E|--------|--------|--------|--------|--------|--------|--------|--------|--------|
B|--------|--------|--------|--------|--------|--------|--------|--------|--------|
G|--------|--------|--------|--------|--------|--------|--------|--------|--------|
D|--------|--------|--------|--------|--------|--------|--------|--------|--------|
A|--------|--------|--------|--------|--------|--------|--------|--------|--------|
E|--------|--------|--------|--------|--------|--------|--------|--------|--------|


E|--------|--------|--------|--------|--------|--------|--------|--------|--------|
B|--------|--------|--------|--------|--------|--------|--------|--------|--------|
G|--------|--------|--------|--------|--------|--------|--------|--------|--------|
D|--------|--------|--------|--------|--------|--------|--------|--------|--------|
A|--------|--------|--------|--------|--------|--------|--------|--------|--------|
E|--------|--------|--------|--------|--------|--------|--------|--------|--------|


E|--------|--------|--------|--------|--------|--------|--------|--------|--------|
B|--------|--------|--------|--------|--------|--------|--------|--------|--------|
G|--------|--------|--------|--------|--------|--------|--------|--------|--------|
D|--------|--------|--------|--------|--------|--------|--------|--------|--------|
A|--------|--------|--------|--------|--------|--------|--------|--------|--------|
E|--------|--------|--------|--------|--------|--------|--------|--------|--------|


E|--------|--------|--------|--------|--------|--------|--------|--------|--------|
B|--------|--------|--------|--------|--------|--------|--------|--------|--------|
G|--------|--------|--------|--------|--------|--------|--------|--------|--------|
D|--------|--------|--------|--------|--------|--------|--------|--------|--------|
A|--------|--------|--------|--------|--------|--------|--------|--------|--------|
E|--------|--------|--------|--------|--------|--------|--------|--------|--------|


E|--------|--------|--------|--------|--------|--------|--------|--------|--------|
B|--------|--------|--------|--------|--------|--------|--------|--------|--------|
G|--------|--------|--------|--------|--------|--------|--------|--------|--------|
D|--------|--------|--------|--------|--------|--------|--------|--------|--------|
A|--------|--------|--------|--------|--------|--------|--------|--------|--------|
E|--------|--------|--------|--------|--------|--------|--------|--------|--------|


E|--------|--------|--------|--------|--------|--------|--------|--------|--------|
B|--------|--------|--------|--------|--------|--------|--------|--------|--------|
G|--------|--------|--------|--------|--------|--------|--------|--------|--------|
D|--------|--------|--------|--------|--------|--------|--------|--------|--------|
A|--------|--------|--------|--------|--------|--------|--------|--------|--------|
E|--------|--------|--------|--------|--------|--------|--------|--------|--------|


E|--------|--------|--------|--------|--------|--------|--------|--------|--------|
B|--------|--------|--------|--------|--------|--------|--------|--------|--------|
G|--------|--------|--------|--------|--------|--------|--------|--------|--------|
D|--------|--------|--------|--------|--------|--------|--------|--------|--------|
A|--------|--------|--------|--------|--------|--------|--------|--------|--------|
E|--------|--------|--------|--------|--------|--------|--------|--------|--------|


E|--------|--------|--------|--------|--------|--------|--------|--------|--------|
B|--------|--------|--------|--------|--------|--------|--------|--------|--------|
G|--------|--------|--------|--------|--------|--------|--------|--------|--------|
D|--------|--------|--------|--------|--------|--------|--------|--------|--------|
A|--------|--------|--------|--------|--------|--------|--------|--------|--------|
E|--------|--------|--------|--------|--------|--------|--------|--------|--------|


E|--------|--------|--------|--------|--------|--------|--------|--------|--------|
B|--------|--------|--------|--------|--------|--------|--------|--------|--------|
G|--------|--------|--------|--------|--------|--------|--------|--------|--------|
D|--------|--------|--------|--------|--------|--------|--------|--------|--------|
A|--------|--------|--------|--------|--------|--------|--------|--------|--------|
E|--------|--------|--------|--------|--------|--------|--------|--------|--------|


E|--------|--------|--------|--------|--------|--------|--------|--------|--------|
B|--------|--------|--------|--------|--------|--------|--------|--------|--------|
G|--------|--------|--------|--------|--------|--------|--------|--------|--------|
D|--------|--------|--------|--------|--------|--------|--------|--------|--------|
A|--------|--------|--------|--------|--------|--------|--------|--------|--------|
E|--------|--------|--------|--------|--------|--------|--------|--------|--------|


E|--------|--------|--------|--------|--------|--------|--------|--------|--------|
B|--------|--------|--------|--------|--------|--------|--------|--------|--------|
G|--------|--------|--------|--------|--------|--------|--------|--------|--------|
D|--------|--------|--------|--------|--------|--------|--------|--------|--------|
A|--------|--------|--------|--------|--------|--------|--------|--------|--------|
E|--------|--------|--------|--------|--------|--------|--------|--------|--------|


E|--------|--------|--------|--------|--------|--------|--------|--------|--------|
B|--------|--------|--------|--------|--------|--------|--------|--------|--------|
G|--------|--------|--------|--------|--------|--------|--------|--------|--------|
D|--------|--------|--------|--------|--------|--------|--------|--------|--------|
A|--------|--------|--------|--------|--------|--------|--------|--------|--------|
E|--------|--------|--------|--------|--------|--------|--------|--------|--------|


E|--------|--------|--------|--------|--------|--------|--------|--------|--------|
B|--------|--------|--------|--------|--------|--------|--------|--------|--------|
G|--------|--------|--------|--------|--------|--------|--------|--------|--------|
D|--------|--------|--------|--------|--------|--------|--------|--------|--------|
A|--------|--------|--------|--------|--------|--------|--------|--------|--------|
E|--------|--------|--------|--------|--------|--------|--------|--------|--------|


E|--------|--------|--------|--------|--------|--------|--------|--------|
B|--------|--------|--------|--------|--------|--------|--------|--------|
G|--------|--------|--------|--------|--------|--------|--------|--------|
D|--------|--------|--------|--------|--------|--------|--------|--------|
A|--------|--------|--------|--------|--------|--------|--------|--------|
E|--------|--------|--------|--------|--------|--------|--------|--------|





Track 7: Electric Piano

E|--------|--------|--------|--------|--------|--------|--------|--------|--------|
B|--------|--------|--------|--------|--------|--------|--------|--------|--------|
G|--------|--------|--------|--------|--------|--------|--------|--------|--------|
D|--------|--------|--------|--------|--------|--------|--------|--------|--------|
A|--------|--------|--------|--------|--------|--------|--------|--------|--------|
E|--------|--------|--------|--------|--------|--------|--------|--------|--------|


E|--------|--------|--------|--------|--------|--------|--------|--------|--------|
B|--------|--------|--------|--------|--------|--------|--------|--------|--------|
G|--------|--------|--------|--------|--------|--------|--------|--------|--------|
D|--------|--------|--------|--------|--------|--------|--------|--------|--------|
A|--------|--------|--------|--------|--------|--------|--------|--------|--------|
E|--------|--------|--------|--------|--------|--------|--------|--------|--------|


E|--------|--------|--------|--------|--------|--------|--------|--------|--------|
B|--------|--------|--------|--------|--------|--------|--------|--------|--------|
G|--------|--------|--------|--------|--------|--------|--------|--------|--------|
D|--------|--------|--------|--------|--------|--------|--------|--------|--------|
A|--------|--------|--------|--------|--------|--------|--------|--------|--------|
E|--------|--------|--------|--------|--------|--------|--------|--------|--------|


E|--------|--------|--------|--------|--------|--------|--------|--------|--------|
B|--------|--------|--------|--------|--------|--------|--------|--------|--------|
G|--------|--------|--------|--------|--------|--------|--------|--------|--------|
D|--------|--------|--------|--------|--------|--------|--------|--------|--------|
A|--------|--------|--------|--------|--------|--------|--------|--------|--------|
E|--------|--------|--------|--------|--------|--------|--------|--------|--------|


E|--------|--------|--------|--------|--------|--------|--------|--------|--------|
B|--------|--------|--------|--------|--------|--------|--------|--------|--------|
G|--------|--------|--------|--------|--------|--------|--------|--------|--------|
D|--------|--------|--------|--------|--------|--------|--------|--------|--------|
A|--------|--------|--------|--------|--------|--------|--------|--------|--------|
E|--------|--------|--------|--------|--------|--------|--------|--------|--------|


E|--------|--------|--------|--------|--------|--------|--------|--------|--------|
B|--------|--------|--------|--------|--------|--------|--------|--------|--------|
G|--------|--------|--------|--------|--------|--------|--------|--------|--------|
D|--------|--------|--------|--------|--------|--------|--------|--------|--------|
A|--------|--------|--------|--------|--------|--------|--------|--------|--------|
E|--------|--------|--------|--------|--------|--------|--------|--------|--------|


E|--------|--------|--------|--------|--------|--------|--------|--------|--------|
B|--------|--------|--------|--------|--------|--------|--------|--------|--------|
G|--------|--------|--------|--------|--------|--------|--------|--------|--------|
D|--------|--------|--------|--------|--------|--------|--------|--------|--------|
A|--------|--------|--------|--------|--------|--------|--------|--------|--------|
E|--------|--------|--------|--------|--------|--------|--------|--------|--------|


E|--------|--------|--------|--------|--------|--------|--------|--------|--------|
B|--------|--------|--------|--------|--------|--------|--------|--------|--------|
G|--------|--------|--------|--------|--------|--------|--------|--------|--------|
D|--------|--------|--------|--------|--------|--------|--------|--------|--------|
A|--------|--------|--------|--------|--------|--------|--------|--------|--------|
E|--------|--------|--------|--------|--------|--------|--------|--------|--------|


E|--------|--------|--------|--------|--------|--------|--------|--------|--------|
B|--------|--------|--------|--------|--------|--------|--------|--------|--------|
G|--------|--------|--------|--------|--------|--------|--------|--------|--------|
D|--------|--------|--------|--------|--------|--------|--------|--------|--------|
A|--------|--------|--------|--------|--------|--------|--------|--------|--------|
E|--------|--------|--------|--------|--------|--------|--------|--------|--------|


E|--------|--------|--------|--------|--------|--------|--------|--------|--------|
B|--------|--------|--------|--------|--------|--------|--------|--------|--------|
G|--------|--------|--------|--------|--------|--------|--------|--------|--------|
D|--------|--------|--------|--------|--------|--------|--------|--------|--------|
A|--------|--------|--------|--------|--------|--------|--------|--------|--------|
E|--------|--------|--------|--------|--------|--------|--------|--------|--------|


E|--------|--------|--------|--------|--------|--------|--------|--------|--------|
B|--------|--------|--------|--------|--------|--------|--------|--------|--------|
G|--------|--------|--------|--------|--------|--------|--------|--------|--------|
D|--------|--------|--------|--------|--------|--------|--------|--------|--------|
A|--------|--------|--------|--------|--------|--------|--------|--------|--------|
E|--------|--------|--------|--------|--------|--------|--------|--------|--------|


E|--------|--------|--------|--------|--------|--------|--------|--------|--------|
B|--------|--------|--------|--------|--------|--------|--------|--------|--------|
G|--------|--------|--------|--------|--------|--------|--------|--------|--------|
D|--------|--------|--------|--------|--------|--------|--------|--------|--------|
A|--------|--------|--------|--------|--------|--------|--------|--------|--------|
E|--------|--------|--------|--------|--------|--------|--------|--------|--------|


E|--------|--------|--------|--------|-15-15-14-14-12-12-------------------------------|
B|--------|--------|--------|--------|-------------------15-15-14-14-12-12-------------|
G|--------|--------|--------|-14-----|-------------------------------------14-14-12-12-|
D|--------|--------|--------|--------|-------------------------------------------------|
A|--------|--------|--------|--------|-------------------------------------------------|
E|--------|--------|--------|--------|-------------------------------------------------|


E|--------|-15-15-14-14-12-12-------------------------------|--------|-15-15-14-14-12-12-------------------------------|
B|--------|-------------------15-15-14-14-12-12-------------|--------|-------------------15-15-14-14-12-12-------------|
G|-14-----|-------------------------------------14-14-12-12-|-14-----|-------------------------------------14-14-12-12-|
D|--------|-------------------------------------------------|--------|-------------------------------------------------|
A|--------|-------------------------------------------------|--------|-------------------------------------------------|
E|--------|-------------------------------------------------|--------|-------------------------------------------------|


E|-------15-17----|-17----------------14-14-15-15-|-22-22-22-22-22------22211917------------------------|
B|----------------|-------14-14-15-15-------------|-24-24-24-24-24--------------201917------------------|
G|-14-------------|-------------------------------|-----------------------------------191816------------|
D|----------------|-------------------------------|-----------------------------------------191716------|
A|----------------|-------------------------------|-----------------------------------------------191716|
E|----------------|-------------------------------|-----------------------------------------------------|


E|--------|--------|--------|--------|--------|--------|--------|--------|--------|
B|--------|--------|--------|--------|--------|--------|--------|--------|--------|
G|--------|--------|--------|--------|--------|--------|--------|--------|--------|
D|--------|--------|--------|--------|--------|--------|--------|--------|--------|
A|--------|--------|--------|--------|--------|--------|--------|--------|--------|
E|--------|--------|--------|--------|--------|--------|--------|--------|--------|


E|--------|--------|--------|--------|--------|--------|--------|--------|--------|
B|--------|--------|--------|--------|--------|--------|--------|--------|--------|
G|--------|--------|--------|--------|--------|--------|--------|--------|--------|
D|--------|--------|--------|--------|--------|--------|--------|--------|--------|
A|--------|--------|--------|--------|--------|--------|--------|--------|--------|
E|--------|--------|--------|--------|--------|--------|--------|--------|--------|


E|--------|--------|--------|--------|--------|--------|--------|--------|--------|
B|--------|--------|--------|--------|--------|--------|--------|--------|--------|
G|--------|--------|--------|--------|--------|--------|--------|--------|--------|
D|--------|--------|--------|--------|--------|--------|--------|--------|--------|
A|--------|--------|--------|--------|--------|--------|--------|--------|--------|
E|--------|--------|--------|--------|--------|--------|--------|--------|--------|


E|--------|--------|--------|--------|--------|
B|--------|--------|--------|--------|--------|
G|--------|--------|--------|--------|--------|
D|--------|--------|--------|--------|--------|
A|--------|--------|--------|--------|--------|
E|--------|--------|--------|--------|--------|





Track 8: Rhythm #4

E|--------|--------|--------|--------|--------|--------|--------|--------|--------|
B|--------|--------|--------|--------|--------|--------|--------|--------|--------|
G|--------|--------|--------|--------|--------|--------|--------|--------|--------|
D|--------|--------|--------|--------|--------|--------|--------|--------|--------|
A|--------|--------|--------|--------|--------|--------|--------|--------|--------|
E|--------|--------|--------|--------|--------|--------|--------|--------|--------|


E|--------|--------|--------|--------|--------|--------|--------|--------|--------|
B|--------|--------|--------|--------|--------|--------|--------|--------|--------|
G|--------|--------|--------|--------|--------|--------|--------|--------|--------|
D|--------|--------|--------|--------|--------|--------|--------|--------|--------|
A|--------|--------|--------|--------|--------|--------|--------|--------|--------|
E|--------|--------|--------|--------|--------|--------|--------|--------|--------|


E|--------|--------|--------|--------|--------|--------|--------|--------|--------|
B|--------|--------|--------|--------|--------|--------|--------|--------|--------|
G|--------|--------|--------|--------|--------|--------|--------|--------|--------|
D|--------|--------|--------|--------|--------|--------|--------|--------|--------|
A|--------|--------|--------|--------|--------|--------|--------|--------|--------|
E|--------|--------|--------|--------|--------|--------|--------|--------|--------|


E|--------|--------|--------|--------|--------|--------|--------|--------|--------|
B|--------|--------|--------|--------|--------|--------|--------|--------|--------|
G|--------|--------|--------|--------|--------|--------|--------|--------|--------|
D|--------|--------|--------|--------|--------|--------|--------|--------|--------|
A|--------|--------|--------|--------|--------|--------|--------|--------|--------|
E|--------|--------|--------|--------|--------|--------|--------|--------|--------|


E|--------|--------|--------|--------|--------|--------|--------|--------|--------|
B|--------|--------|--------|--------|--------|--------|--------|--------|--------|
G|--------|--------|--------|--------|--------|--------|--------|--------|--------|
D|--------|--------|--------|--------|--------|--------|--------|--------|--------|
A|--------|--------|--------|--------|--------|--------|--------|--------|--------|
E|--------|--------|--------|--------|--------|--------|--------|--------|--------|


E|--------|--------|--------|--------|--------|--------|--------|--------|--------|
B|--------|--------|--------|--------|--------|--------|--------|--------|--------|
G|--------|--------|--------|--------|--------|--------|--------|--------|--------|
D|--------|--------|--------|--------|--------|--------|--------|--------|--------|
A|--------|--------|--------|--------|--------|--------|--------|--------|--------|
E|--------|--------|--------|--------|--------|--------|--------|--------|--------|


E|--------|--------|--------|--------|--------|--------|--------|--------|--------|
B|--------|--------|--------|--------|--------|--------|--------|--------|--------|
G|--------|--------|--------|--------|--------|--------|--------|--------|--------|
D|--------|--------|--------|--------|--------|--------|--------|--------|--------|
A|--------|--------|--------|--------|--------|--------|--------|--------|--------|
E|--------|--------|--------|--------|--------|--------|--------|--------|--------|


E|--------|--------|--------|--------|--------|--------|--------|--------|--------|
B|--------|--------|--------|--------|--------|--------|--------|--------|--------|
G|--------|--------|--------|--------|--------|--------|--------|--------|--------|
D|--------|--------|--------|--------|--------|--------|--------|--------|--------|
A|--------|--------|--------|--------|--------|--------|--------|--------|--------|
E|--------|--------|--------|--------|--------|--------|--------|--------|--------|


E|--------|--------|--------|--------|--------|--------|--------|--------|--------|
B|--------|--------|--------|--------|--------|--------|--------|--------|--------|
G|--------|--------|--------|--------|--------|--------|--------|--------|--------|
D|--------|--------|--------|--------|--------|--------|--------|--------|--------|
A|--------|--------|--------|--------|--------|--------|--------|--------|--------|
E|--------|--------|--------|--------|--------|--------|--------|--------|--------|


E|--------|--------|--------|--------|--------|--------|--------|--------|--------|
B|--------|--------|--------|--------|--------|--------|--------|--------|--------|
G|--------|--------|--------|--------|--------|--------|--------|--------|--------|
D|--------|--------|--------|--------|--------|--------|--------|--------|--------|
A|--------|--------|--------|--------|--------|--------|--------|--------|--------|
E|--------|--------|--------|--------|--------|--------|--------|--------|--------|


E|--------|--------|--------|--------|--------|--------|--------|--------|--------|
B|--------|--------|--------|--------|--------|--------|--------|--------|--------|
G|--------|--------|--------|--------|--------|--------|--------|--------|--------|
D|--------|--------|--------|--------|--------|--------|--------|--------|--------|
A|--------|--------|--------|--------|--------|--------|--------|--------|--------|
E|--------|--------|--------|--------|--------|--------|--------|--------|--------|


E|--------|--------|--------|--------|--------|--------|--------|--------|--------|
B|--------|--------|--------|--------|--------|--------|--------|--------|--------|
G|--------|--------|--------|--------|--------|--------|--------|--------|--------|
D|--------|--------|--------|--------|--------|--------|--------|--------|--------|
A|--------|--------|--------|--------|--------|--------|--------|--------|--------|
E|--------|--------|--------|--------|--------|--------|--------|--------|--------|


E|--------|--------|--------|--------|--------|--------|--------|--------|--------|
B|--------|--------|--------|--------|--------|--------|--------|--------|--------|
G|--------|--------|--------|--------|--------|--------|--------|--------|--------|
D|--------|--------|--------|--------|--------|--------|--------|--------|--------|
A|--------|--------|--------|--------|--------|--------|--------|--------|--------|
E|--------|--------|--------|--------|--------|--------|--------|--------|--------|


E|--------|--------|--------|--------|--------|--------|--------|--------|--------|
B|--------|--------|--------|--------|--------|--------|--------|--------|--------|
G|--------|--------|--------|--------|--------|--------|--------|--------|--------|
D|--------|--------|--------|--------|--------|--------|--------|--------|--------|
A|--------|--------|--------|--------|--------|--------|--------|--------|--------|
E|--------|--------|--------|--------|--------|--------|--------|--------|--------|


E|--------|--------|--------|--------|--------|--------|--------|--------|--------|
B|--------|--------|--------|--------|--------|--------|--------|--------|--------|
G|--------|--------|--------|--------|--------|--------|--------|--------|--------|
D|--------|--------|--------|--------|--------|--------|--------|--------|--------|
A|--------|--------|--------|--------|--------|--------|--------|--------|--------|
E|--------|--------|--------|--------|--------|--------|--------|--------|--------|


E|--------|--------|--------|--------|--------|--------|--------|--------|--------|
B|--------|--------|--------|--------|--------|--------|--------|--------|--------|
G|--------|--------|--------|--------|--------|--------|--------|--------|--------|
D|--------|--------|--------|--------|--------|--------|--------|--------|--------|
A|--------|--------|--------|--------|--------|--------|--------|--------|--------|
E|--------|--------|--------|--------|--------|--------|--------|--------|--------|


E|--------|--------|--------|--------|--------|-------10-5--7--5--5--5--7--5--|----------------------------------------|
B|--------|--------|--------|--------|--------|-------------------------------|-7--5-----5-----------------------------|
G|--------|--------|--------|--------|--------|-------------------------------|-------4-----4--2-----------------------|
D|--------|--------|--------|--------|--------|-------------------------------|-------------------4--2-----------------|
A|--------|--------|--------|--------|--------|-------------------------------|-------------------------4--2--0---4----|
E|--------|--------|--------|--------|--------|-------------------------------|----------------------------------------|


E|--------|
B|--------|
G|-2------|
D|-2------|
A|--------|
E|--------|





Track 9: Rhythm #1

E|--------|--------|--------|--------|--------|--------|--------|--------|--------|
B|--------|--------|--------|--------|--------|--------|--------|--------|--------|
G|--------|--------|--------|--------|--------|--------|--------|--------|--------|
D|--------|--------|--------|--------|--------|--------|--------|--------|--------|
A|--------|--------|--------|--------|--------|--------|--------|--------|--------|
E|--------|--------|--------|--------|--------|--------|--------|--------|--------|


E|--------|--------|--------|--------|--------|--------|--------|--------|--------|
B|--------|--------|--------|--------|--------|--------|--------|--------|--------|
G|--------|--------|--------|--------|--------|--------|--------|--------|--------|
D|--------|--------|--------|--------|--------|--------|--------|--------|--------|
A|--------|--------|--------|--------|--------|--------|--------|--------|--------|
E|--------|--------|--------|--------|--------|--------|--------|--------|--------|


E|--------|--------|--------|--------|--------|--------|--------|--------|--------|
B|--------|--------|--------|--------|--------|--------|--------|--------|--------|
G|--------|--------|--------|--------|--------|--------|--------|--------|--------|
D|--------|--------|--------|--------|--------|--------|--------|--------|--------|
A|--------|--------|--------|--------|--------|--------|--------|--------|--------|
E|--------|--------|--------|--------|--------|--------|--------|--------|--------|


E|--------|--------|--------|--------|--------|--------|--------|--------|--------|
B|--------|--------|--------|--------|--------|--------|--------|--------|--------|
G|--------|--------|--------|--------|--------|--------|--------|--------|--------|
D|--------|--------|--------|--------|--------|--------|--------|--------|--------|
A|--------|--------|--------|--------|--------|--------|--------|--------|--------|
E|--------|--------|--------|--------|--------|--------|--------|--------|--------|


E|--------|--------|--------|--------|--------|--------|--------|--------|--------|
B|--------|--------|--------|--------|--------|--------|--------|--------|--------|
G|--------|--------|--------|--------|--------|--------|--------|--------|--------|
D|--------|--------|--------|--------|--------|--------|--------|--------|--------|
A|--------|--------|--------|--------|--------|--------|--------|--------|--------|
E|--------|--------|--------|--------|--------|--------|--------|--------|--------|


E|--------|--------|--------|--------|--------|--------|--------|--------|--------|
B|--------|--------|--------|--------|--------|--------|--------|--------|--------|
G|--------|--------|--------|--------|--------|--------|--------|--------|--------|
D|--------|--------|--------|--------|--------|--------|--------|--------|--------|
A|--------|--------|--------|--------|--------|--------|--------|--------|--------|
E|--------|--------|--------|--------|--------|--------|--------|--------|--------|


E|--------|--------|--------|--------|--------|--------|--------|--------|--------|
B|--------|--------|--------|--------|--------|--------|--------|--------|--------|
G|--------|--------|--------|--------|--------|--------|--------|--------|--------|
D|--------|--------|--------|--------|--------|--------|--------|--------|--------|
A|--------|--------|--------|--------|--------|--------|--------|--------|--------|
E|--------|--------|--------|--------|--------|--------|--------|--------|--------|


E|--------|--------|--------|--------|--------|--------|--------|--------|--------|
B|--------|--------|--------|--------|--------|--------|--------|--------|--------|
G|--------|--------|--------|--------|--------|--------|--------|--------|--------|
D|--------|--------|--------|--------|--------|--------|--------|--------|--------|
A|--------|--------|--------|--------|--------|--------|--------|--------|--------|
E|--------|--------|--------|--------|--------|--------|--------|--------|--------|


E|--------|--------|--------|--------|--------|--------|--------|--------|--------|
B|--------|--------|--------|--------|--------|--------|--------|--------|--------|
G|--------|--------|--------|--------|--------|--------|--------|--------|--------|
D|--------|--------|--------|--------|--------|--------|--------|--------|--------|
A|--------|--------|--------|--------|--------|--------|--------|--------|--------|
E|--------|--------|--------|--------|--------|--------|--------|--------|--------|


E|--------|--------|--------|--------|--------|--------|--------|-----------------------3---|
B|--------|--------|--------|--------|--------|--------|--------|-5----5----5---3---5-------|
G|--------|--------|--------|--------|--------|--------|--------|---------------------------|
D|--------|--------|--------|--------|--------|--------|--------|---------------------------|
A|--------|--------|--------|--------|--------|--------|--------|---------------------------|
E|--------|--------|--------|--------|--------|--------|--------|---------------------------|


E|-3-------------------|-3----3----3---2-------5---|-5--------------0-------------------|
B|-----3-----3---------|-------------------3-------|----------0--2---------3--3-----2---|
G|---------------------|---------------------------|--------------------4--------2------|
D|---------------------|---------------------------|------------------------------------|
A|---------------------|---------------------------|------------------------------------|
E|---------------------|---------------------------|------------------------------------|


E|-----------------------3---|-3-------------------|-3----3----3---2-------5---|-5--------------0-------------------|
B|-5----5----5---3---5-------|-----3-----3---------|-------------------3-------|----------0--2---------3--3-----2---|
G|---------------------------|---------------------|---------------------------|--------------------4--------2------|
D|---------------------------|---------------------|---------------------------|------------------------------------|
A|---------------------------|---------------------|---------------------------|------------------------------------|
E|---------------------------|---------------------|---------------------------|------------------------------------|


E|-----------------------3---|-3-------------------|-3----3----3---2-------5---|-5--------------0-------------------|
B|-5----5----5---3---5-------|-----3-----3---------|-------------------3-------|----------0--2---------3--3-----2---|
G|---------------------------|---------------------|---------------------------|--------------------4--------2------|
D|---------------------------|---------------------|---------------------------|------------------------------------|
A|---------------------------|---------------------|---------------------------|------------------------------------|
E|---------------------------|---------------------|---------------------------|------------------------------------|


E|-----------------------3---|-3-------------------|-3----3----3---2-------5---|-5--------------0-------------------|
B|-5----5----5---3---5-------|-----3-----3---------|-------------------3-------|----------0--2---------3--3-----2---|
G|---------------------------|---------------------|---------------------------|--------------------4--------2------|
D|---------------------------|---------------------|---------------------------|------------------------------------|
A|---------------------------|---------------------|---------------------------|------------------------------------|
E|---------------------------|---------------------|---------------------------|------------------------------------|


E|-----------------------3---|-3-------------------|-3----3----3---2-------5---|-5--------------0-------------------|
B|-5----5----5---3---5-------|-----3-----3---------|-------------------3-------|----------0--2---------3--3-----2---|
G|---------------------------|---------------------|---------------------------|--------------------4--------2------|
D|---------------------------|---------------------|---------------------------|------------------------------------|
A|---------------------------|---------------------|---------------------------|------------------------------------|
E|---------------------------|---------------------|---------------------------|------------------------------------|


E|-----------------------3---|-3-------------------|-3----3----3---2-------5---|-5--------------0-------------------|
B|-5----5----5---3---5-------|-----3-----3---------|-------------------3-------|----------0--2---------3--3-----2---|
G|---------------------------|---------------------|---------------------------|--------------------4--------2------|
D|---------------------------|---------------------|---------------------------|------------------------------------|
A|---------------------------|---------------------|---------------------------|------------------------------------|
E|---------------------------|---------------------|---------------------------|------------------------------------|


E|-----------------------3---|-3-------------------|-3----3----3---2-------5---|-5--------------0-------------------|
B|-5----5----5---3---5-------|-----3-----3---------|-------------------3-------|----------0--2---------3--3-----2---|
G|---------------------------|---------------------|---------------------------|--------------------4--------2------|
D|---------------------------|---------------------|---------------------------|------------------------------------|
A|---------------------------|---------------------|---------------------------|------------------------------------|
E|---------------------------|---------------------|---------------------------|------------------------------------|


E|-----------------------3---|-3-------------------|-3----3----3---2-------5---|-5--------------0-------------------|
B|-5----5----5---3---5-------|-----3-----3---------|-------------------3-------|----------0--2---------3--3-----2---|
G|---------------------------|---------------------|---------------------------|--------------------4--------2------|
D|---------------------------|---------------------|---------------------------|------------------------------------|
A|---------------------------|---------------------|---------------------------|------------------------------------|
E|---------------------------|---------------------|---------------------------|------------------------------------|


E|-----------------------3---|-3-------------------|-3----3----3---2-------5---|-5--------------0-------------------|
B|-5----5----5---3---5-------|-----3-----3---------|-------------------3-------|----------0--2---------3--3-----2---|
G|---------------------------|---------------------|---------------------------|--------------------4--------2------|
D|---------------------------|---------------------|---------------------------|------------------------------------|
A|---------------------------|---------------------|---------------------------|------------------------------------|
E|---------------------------|---------------------|---------------------------|------------------------------------|


E|-----------------------3---|-3-------------------|-3----3----3---2-------5---|-5--------------0-------------------|
B|-5----5----5---3---5-------|-----3-----3---------|-------------------3-------|----------0--2---------3--3-----2---|
G|---------------------------|---------------------|---------------------------|--------------------4--------2------|
D|---------------------------|---------------------|---------------------------|------------------------------------|
A|---------------------------|---------------------|---------------------------|------------------------------------|
E|---------------------------|---------------------|---------------------------|------------------------------------|


E|-----------------------3---|-3-------------------|-3----3----3---2-------5---|-5--------------0-------------------|
B|-5----5----5---3---5-------|-----3-----3---------|-------------------3-------|----------0--2---------3--3-----2---|
G|---------------------------|---------------------|---------------------------|--------------------4--------2------|
D|---------------------------|---------------------|---------------------------|------------------------------------|
A|---------------------------|---------------------|---------------------------|------------------------------------|
E|---------------------------|---------------------|---------------------------|------------------------------------|


E|-----------------------3---|-3-------------------|-3----3----3---2-------5---|-5--------------0-------------------|
B|-5----5----5---3---5-------|-----3-----3---------|-------------------3-------|----------0--2---------3--3-----2---|
G|---------------------------|---------------------|---------------------------|--------------------4--------2------|
D|---------------------------|---------------------|---------------------------|------------------------------------|
A|---------------------------|---------------------|---------------------------|------------------------------------|
E|---------------------------|---------------------|---------------------------|------------------------------------|


E|-----------------------3---|-3-------------------|-3----3----3---2-------5---|-5--------------0-------------------|
B|-5----5----5---3---5-------|-----3-----3---------|-------------------3-------|----------0--2---------3--3-----2---|
G|---------------------------|---------------------|---------------------------|--------------------4--------2------|
D|---------------------------|---------------------|---------------------------|------------------------------------|
A|---------------------------|---------------------|---------------------------|------------------------------------|
E|---------------------------|---------------------|---------------------------|------------------------------------|


E|-----------------------3---|-3-------------------|-3----3----3---2-------5---|-5--------------0-------------------|
B|-5----5----5---3---5-------|-----3-----3---------|-------------------3-------|----------0--2---------3--3-----2---|
G|---------------------------|---------------------|---------------------------|--------------------4--------2------|
D|---------------------------|---------------------|---------------------------|------------------------------------|
A|---------------------------|---------------------|---------------------------|------------------------------------|
E|---------------------------|---------------------|---------------------------|------------------------------------|


E|-----------------------3---|-3---------------|--------|--------|--------|--------|
B|-5----5----5---3---5-------|-----3-----3-----|--------|--------|--------|--------|
G|---------------------------|-----------------|--------|--------|--------|--------|
D|---------------------------|-----------------|--------|--------|--------|--------|
A|---------------------------|-----------------|--------|--------|--------|--------|
E|---------------------------|-----------------|--------|--------|--------|--------|


E|--------|--------|
B|--------|--------|
G|--------|--------|
D|--------|--------|
A|--------|--------|
E|--------|--------|





Track 10: Rhythm #2, 3

E|--------|--------|--------|--------|--------|--------|--------|--------|--------|
B|--------|--------|--------|--------|--------|--------|--------|--------|--------|
G|--------|--------|--------|--------|--------|--------|--------|--------|--------|
D|--------|--------|--------|--------|--------|--------|--------|--------|--------|
A|--------|--------|--------|--------|--------|--------|--------|--------|--------|
E|--------|--------|--------|--------|--------|--------|--------|--------|--------|


E|--------|--------|--------|--------|--------|--------|--------|--------|--------|
B|--------|--------|--------|--------|--------|--------|--------|--------|--------|
G|--------|--------|--------|--------|--------|--------|--------|--------|--------|
D|--------|--------|--------|--------|--------|--------|--------|--------|--------|
A|--------|--------|--------|--------|--------|--------|--------|--------|--------|
E|--------|--------|--------|--------|--------|--------|--------|--------|--------|


E|--------|--------|--------|--------|--------|--------|--------|--------|--------|
B|--------|--------|--------|--------|--------|--------|--------|--------|--------|
G|--------|--------|--------|--------|--------|--------|--------|--------|--------|
D|--------|--------|--------|--------|--------|--------|--------|--------|--------|
A|--------|--------|--------|--------|--------|--------|--------|--------|--------|
E|--------|--------|--------|--------|--------|--------|--------|--------|--------|


E|--------|--------|--------|--------|--------|--------|--------|--------|--------|
B|--------|--------|--------|--------|--------|--------|--------|--------|--------|
G|--------|--------|--------|--------|--------|--------|--------|--------|--------|
D|--------|--------|--------|--------|--------|--------|--------|--------|--------|
A|--------|--------|--------|--------|--------|--------|--------|--------|--------|
E|--------|--------|--------|--------|--------|--------|--------|--------|--------|


E|--------|--------|--------|--------|--------|--------|--------|--------|--------|
B|--------|--------|--------|--------|--------|--------|--------|--------|--------|
G|--------|--------|--------|--------|--------|--------|--------|--------|--------|
D|--------|--------|--------|--------|--------|--------|--------|--------|--------|
A|--------|--------|--------|--------|--------|--------|--------|--------|--------|
E|--------|--------|--------|--------|--------|--------|--------|--------|--------|


E|--------|--------|--------|--------|--------|--------|--------|--------|--------|
B|--------|--------|--------|--------|--------|--------|--------|--------|--------|
G|--------|--------|--------|--------|--------|--------|--------|--------|--------|
D|--------|--------|--------|--------|--------|--------|--------|--------|--------|
A|--------|--------|--------|--------|--------|--------|--------|--------|--------|
E|--------|--------|--------|--------|--------|--------|--------|--------|--------|


E|--------|--------|--------|--------|--------|--------|--------|--------|--------|
B|--------|--------|--------|--------|--------|--------|--------|--------|--------|
G|--------|--------|--------|--------|--------|--------|--------|--------|--------|
D|--------|--------|--------|--------|--------|--------|--------|--------|--------|
A|--------|--------|--------|--------|--------|--------|--------|--------|--------|
E|--------|--------|--------|--------|--------|--------|--------|--------|--------|


E|--------|--------|--------|--------|--------|--------|--------|--------|--------|
B|--------|--------|--------|--------|--------|--------|--------|--------|--------|
G|--------|--------|--------|--------|--------|--------|--------|--------|--------|
D|--------|--------|--------|--------|--------|--------|--------|--------|--------|
A|--------|--------|--------|--------|--------|--------|--------|--------|--------|
E|--------|--------|--------|--------|--------|--------|--------|--------|--------|


E|--------|--------|--------|--------|--------|--------|--------|--------|--------|
B|--------|--------|--------|--------|--------|--------|--------|--------|--------|
G|--------|--------|--------|--------|--------|--------|--------|--------|--------|
D|--------|--------|--------|--------|--------|--------|--------|--------|--------|
A|--------|--------|--------|--------|--------|--------|--------|--------|--------|
E|--------|--------|--------|--------|--------|--------|--------|--------|--------|


E|--------|--------|--------|--------|--------|--------|--------|---------------------------------|
B|--------|--------|--------|--------|--------|--------|--------|---------------------------------|
G|--------|--------|--------|--------|--------|--------|--------|-6-------6-------6---4---6---7---|
D|--------|--------|--------|--------|--------|--------|--------|-7-------7-------7---5---7---9---|
A|--------|--------|--------|--------|--------|--------|--------|---------------------------------|
E|--------|--------|--------|--------|--------|--------|--------|---------------------------------|


E|---------------------|------------------------------|---------------------------------|
B|---------------------|--------------------------5---|-5-----------2-------------------|
G|-----4-----4---------|-7-------7----7---6---4---6---|-6-----0--2---------4--4-----2---|
D|-----5-----5---------|-9-------9----9---7---5-------|-------------5---4--4--4--2--2---|
A|---------------------|------------------------------|-------5--7------5--------4------|
E|---------------------|------------------------------|---------------------------------|


E|---------------------------------|---------------------|------------------------------|
B|---------------------------------|---------------------|--------------------------5---|
G|-6-------6-------6---4---6---7---|-----4-----4---------|-7-------7----7---6---4---6---|
D|-7-------7-------7---5---7---9---|-----5-----5---------|-9-------9----9---7---5-------|
A|---------------------------------|---------------------|------------------------------|
E|---------------------------------|---------------------|------------------------------|


E|---------------------------------|---------------------------------|---------------------|
B|-5-----------2-------------------|---------------------------------|---------------------|
G|-6-----0--2---------4--4-----2---|-6-------6-------6---4---6---7---|-----4-----4---------|
D|-------------5---4--4--4--2--2---|-7-------7-------7---5---7---9---|-----5-----5---------|
A|-------5--7------5--------4------|---------------------------------|---------------------|
E|---------------------------------|---------------------------------|---------------------|


E|------------------------------|---------------------------------|---------------------------------|
B|--------------------------5---|-5-----------2-------------------|---------------------------------|
G|-7-------7----7---6---4---6---|-6-----0--2---------4--4-----2---|-6-------6-------6---4---6---7---|
D|-9-------9----9---7---5-------|-------------5---4--4--4--2--2---|-7-------7-------7---5---7---9---|
A|------------------------------|-------5--7------5--------4------|---------------------------------|
E|------------------------------|---------------------------------|---------------------------------|


E|---------------------|------------------------------|---------------------------------|
B|---------------------|--------------------------5---|-5-----------2-------------------|
G|-----4-----4---------|-7-------7----7---6---4---6---|-6-----0--2---------4--4-----2---|
D|-----5-----5---------|-9-------9----9---7---5-------|-------------5---4--4--4--2--2---|
A|---------------------|------------------------------|-------5--7------5--------4------|
E|---------------------|------------------------------|---------------------------------|


E|---------------------------------|---------------------|------------------------------|
B|---------------------------------|---------------------|--------------------------5---|
G|-6-------6-------6---4---6---7---|-----4-----4---------|-7-------7----7---6---4---6---|
D|-7-------7-------7---5---7---9---|-----5-----5---------|-9-------9----9---7---5-------|
A|---------------------------------|---------------------|------------------------------|
E|---------------------------------|---------------------|------------------------------|


E|---------------------------------|---------------------------------|---------------------|
B|-5-----------2-------------------|---------------------------------|---------------------|
G|-6-----0--2---------4--4-----2---|-6-------6-------6---4---6---7---|-----4-----4---------|
D|-------------5---4--4--4--2--2---|-7-------7-------7---5---7---9---|-----5-----5---------|
A|-------5--7------5--------4------|---------------------------------|---------------------|
E|---------------------------------|---------------------------------|---------------------|


E|------------------------------|---------------------------------|---------------------------------|
B|--------------------------5---|-5-----------2-------------------|---------------------------------|
G|-7-------7----7---6---4---6---|-6-----0--2---------4--4-----2---|-6-------6-------6---4---6---7---|
D|-9-------9----9---7---5-------|-------------5---4--4--4--2--2---|-7-------7-------7---5---7---9---|
A|------------------------------|-------5--7------5--------4------|---------------------------------|
E|------------------------------|---------------------------------|---------------------------------|


E|---------------------|------------------------------|---------------------------------|
B|---------------------|--------------------------5---|-5-----------2-------------------|
G|-----4-----4---------|-7-------7----7---6---4---6---|-6-----0--2---------4--4-----2---|
D|-----5-----5---------|-9-------9----9---7---5-------|-------------5---4--4--4--2--2---|
A|---------------------|------------------------------|-------5--7------5--------4------|
E|---------------------|------------------------------|---------------------------------|


E|---------------------------------|---------------------|------------------------------|
B|---------------------------------|---------------------|--------------------------5---|
G|-6-------6-------6---4---6---7---|-----4-----4---------|-7-------7----7---6---4---6---|
D|-7-------7-------7---5---7---9---|-----5-----5---------|-9-------9----9---7---5-------|
A|---------------------------------|---------------------|------------------------------|
E|---------------------------------|---------------------|------------------------------|


E|---------------------------------|---------------------------------|---------------------|
B|-5-----------2-------------------|---------------------------------|---------------------|
G|-6-----0--2---------4--4-----2---|-6-------6-------6---4---6---7---|-----4-----4---------|
D|-------------5---4--4--4--2--2---|-7-------7-------7---5---7---9---|-----5-----5---------|
A|-------5--7------5--------4------|---------------------------------|---------------------|
E|---------------------------------|---------------------------------|---------------------|


E|------------------------------|---------------------------------|---------------------------------|
B|--------------------------5---|-5-----------2-------------------|---------------------------------|
G|-7-------7----7---6---4---6---|-6-----0--2---------4--4-----2---|-6-------6-------6---4---6---7---|
D|-9-------9----9---7---5-------|-------------5---4--4--4--2--2---|-7-------7-------7---5---7---9---|
A|------------------------------|-------5--7------5--------4------|---------------------------------|
E|------------------------------|---------------------------------|---------------------------------|


E|---------------------|------------------------------|---------------------------------|
B|---------------------|--------------------------5---|-5-----------2-------------------|
G|-----4-----4---------|-7-------7----7---6---4---6---|-6-----0--2---------4--4-----2---|
D|-----5-----5---------|-9-------9----9---7---5-------|-------------5---4--4--4--2--2---|
A|---------------------|------------------------------|-------5--7------5--------4------|
E|---------------------|------------------------------|---------------------------------|


E|---------------------------------|---------------------|------------------------------|
B|---------------------------------|---------------------|--------------------------5---|
G|-6-------6-------6---4---6---7---|-----4-----4---------|-7-------7----7---6---4---6---|
D|-7-------7-------7---5---7---9---|-----5-----5---------|-9-------9----9---7---5-------|
A|---------------------------------|---------------------|------------------------------|
E|---------------------------------|---------------------|------------------------------|


E|---------------------------------|---------------------------------|---------------------|
B|-5-----------2-------------------|---------------------------------|---------------------|
G|-6-----0--2---------4--4-----2---|-6-------6-------6---4---6---7---|-----4-----4---------|
D|-------------5---4--4--4--2--2---|-7-------7-------7---5---7---9---|-----5-----5---------|
A|-------5--7------5--------4------|---------------------------------|---------------------|
E|---------------------------------|---------------------------------|---------------------|


E|------------------------------|---------------------------------|---------------------------------|
B|--------------------------5---|-5-----------2-------------------|---------------------------------|
G|-7-------7----7---6---4---6---|-6-----0--2---------4--4-----2---|-6-------6-------6---4---6---7---|
D|-9-------9----9---7---5-------|-------------5---4--4--4--2--2---|-7-------7-------7---5---7---9---|
A|------------------------------|-------5--7------5--------4------|---------------------------------|
E|------------------------------|---------------------------------|---------------------------------|


E|---------------------|------------------------------|---------------------------------|
B|---------------------|--------------------------5---|-5-----------2-------------------|
G|-----4-----4---------|-7-------7----7---6---4---6---|-6-----0--2---------4--4-----2---|
D|-----5-----5---------|-9-------9----9---7---5-------|-------------5---4--4--4--2--2---|
A|---------------------|------------------------------|-------5--7------5--------4------|
E|---------------------|------------------------------|---------------------------------|


E|---------------------------------|---------------------|------------------------------|
B|---------------------------------|---------------------|--------------------------5---|
G|-6-------6-------6---4---6---7---|-----4-----4---------|-7-------7----7---6---4---6---|
D|-7-------7-------7---5---7---9---|-----5-----5---------|-9-------9----9---7---5-------|
A|---------------------------------|---------------------|------------------------------|
E|---------------------------------|---------------------|------------------------------|


E|---------------------------------|---------------------------------|-----------------|
B|-5-----------2-------------------|---------------------------------|-----------------|
G|-6-----0--2---------4--4-----2---|-6-------6-------6---4---6---7---|-----4-----4-----|
D|-------------5---4--4--4--2--2---|-7-------7-------7---5---7---9---|-----5-----5-----|
A|-------5--7------5--------4------|---------------------------------|-----------------|
E|---------------------------------|---------------------------------|-----------------|


E|--------|--------|--------|--------|--------|--------|
B|--------|--------|--------|--------|--------|--------|
G|--------|--------|--------|--------|--------|--------|
D|--------|--------|--------|--------|--------|--------|
A|--------|--------|--------|--------|--------|--------|
E|--------|--------|--------|--------|--------|--------|