Menu:

 

Search:

 

eric clapton - let it grow:

 



Title: Let It Grow
Artist: 
Album: 461 Ocean Boulevard
Author: Eric Clapton


Track 1: Gtr.1

E|-2---2---2---2--2--0---0---0--0--0--0--|-2---2--2--2--2--2--2--0---0--0--0---0---|
B|-0---0---0---0--0--2---2---2--2--2--2--|-3---3--3--3--3--3--3--0---0--0--0---0---|
G|-4---4---4---4--4--3---3---3--3--3--3--|-2---2--2--2--2--2--2--1---1--1--1---1---|
D|---------------------------------------|-0---0--0--0--0--0--0--2---2--2--2---2---|
A|---------------------------------------|-----------------------2---2--2--2---2---|
E|---------------------------------------|-----------------------0---0--0--0---0---|


E|-3----3---3---0---0---0--0--0---|-2---2--2--2---2--2--0---0---0--0--0--0--|-2---2---2---2--2--0---0---0--0--0--0--|
B|-3----3---3---2---2---2--2--2---|-0---0--0--0---0--0--2---2---2--2--2--2--|-3---3---3---3--3--0---0---0--0--0--0--|
G|-0----0---0---2---2---2--2--2---|-4---4--4--4---4--4--3---3---3--3--3--3--|-2---2---2---2--2--1---1---1--1--1--1--|
D|-0----0---0---2---2---2--2--2---|-----------------------------------------|-0---0---0---0--0--2---2---2--2--2--2--|
A|--------------0---0---0--0--0---|-----------------------------------------|-------------------2---2---2--2--2--2--|
E|-3----3---3---------------------|-----------------------------------------|-------------------0---0---0--0--0--0--|


E|-3---3--3--3---3--3--0---0---0---0--0--|-2---2---2---2---2---2---2---2---|--------|
B|-3---3--3--3---3--3--2---2---2---2--2--|-0---0---0---0---0---0---0---0---|--------|
G|-0---0--0--0---0--0--2---2---2---2--2--|-4---4---4---4---4---4---4---4---|--------|
D|-0---0--0--0---0--0--2---2---2---2--2--|---------------------------------|--------|
A|---------------------0---0---0---0--0--|---------------------------------|--------|
E|-3---3--3--3---3--3--------------------|---------------------------------|--------|


E|--------|--------|--------|--------|--------|--------|--------|--------|--------|
B|--------|--------|--------|--------|--------|--------|--------|--------|--------|
G|--------|--------|--------|--------|--------|--------|--------|--------|--------|
D|--------|--------|--------|--------|--------|--------|--------|--------|--------|
A|--------|--------|--------|--------|--------|--------|--------|--------|--------|
E|--------|--------|--------|--------|--------|--------|--------|--------|--------|


E|--------|--------|--------|--------|--------|--------|--------|--------|--------|
B|--------|--------|--------|--------|--------|--------|--------|--------|--------|
G|--------|--------|--------|--------|--------|--------|--------|--------|--------|
D|--------|--------|--------|--------|--------|--------|--------|--------|--------|
A|--------|--------|--------|--------|--------|--------|--------|--------|--------|
E|--------|--------|--------|--------|--------|--------|--------|--------|--------|


E|--------|--------|--------|--------|--------|--------|--------|--------|--------|
B|--------|--------|--------|--------|--------|--------|--------|--------|--------|
G|--------|--------|--------|--------|--------|--------|--------|--------|--------|
D|--------|--------|--------|--------|--------|--------|--------|--------|--------|
A|--------|--------|--------|--------|--------|--------|--------|--------|--------|
E|--------|--------|--------|--------|--------|--------|--------|--------|--------|


E|--------|--------|--------|--------|-2---2--2--2---2--2--0---0---0---0--0--|-2---2--2--2---2---0---0---0--0--0--0--|
B|--------|--------|--------|--------|-3---3--3--3---3--3--2---2---2---2--2--|-3---3--3--3---3---0---0---0--0--0--0--|
G|--------|--------|--------|--------|-4---4--4--4---4--4--3---3---3---3--3--|-2---2--2--2---2---1---1---1--1--1--1--|
D|--------|--------|--------|--------|-4---4--4--4---4--4--4---4---4---4--4--|-0---0--0--0---0---2---2---2--2--2--2--|
A|--------|--------|--------|--------|-2---2--2--2---2--2--------------------|-------------------2---2---2--2--2--2--|
E|--------|--------|--------|--------|---------------------------------------|-------------------0---0---0--0--0--0--|


E|-3---3--3--3---3--3--0----0---0---|-2---2--2--2---2--2--0---0---0---0--0--|-2---2--2--2---2---0---0---0--0--0--0--|
B|-3---3--3--3---3--3--2----2---2---|-3---3--3--3---3--3--2---2---2---2--2--|-3---3--3--3---3---0---0---0--0--0--0--|
G|-0---0--0--0---0--0--2----2---2---|-4---4--4--4---4--4--3---3---3---3--3--|-2---2--2--2---2---1---1---1--1--1--1--|
D|-0---0--0--0---0--0--2----2---2---|-4---4--4--4---4--4--4---4---4---4--4--|-0---0--0--0---0---2---2---2--2--2--2--|
A|---------------------0----0---0---|-2---2--2--2---2--2--------------------|-------------------2---2---2--2--2--2--|
E|-3---3--3--3---3--3---------------|---------------------------------------|-------------------0---0---0--0--0--0--|


E|-3---3--3--3---3--3--0----0---0---|------------------------------|-------------------------0----|
B|-3---3--3--3---3--3--2----2---2---|-3-----------------------2----|-3-----------------------0----|
G|-0---0--0--0---0--0--2----2---2---|-----4-------4-------3--------|-----2-------2-------1---1----|
D|-0---0--0--0---0--0--2----2---2---|---------4--------------------|---------0-------2-------2----|
A|---------------------0----0---0---|------------------------------|------------------------------|
E|-3---3--3--3---3--3---------------|------------------------------|------------------------------|


E|-3----3---------------5----|-7---------------9------------|---------10---7-------7----|
B|-3----3-----------5--------|-----7-------7--------7-------|-----7------------9--------|
G|-4----4---4---6------------|---------7----------------7---|-7-------------------------|
D|--------------7------------|------------------------------|---------------------------|
A|---------------------------|------------------------------|---------------------------|
E|---------------------------|------------------------------|---------------------------|


E|-7----7---------------9----|------------------------------|-------------------2----|
B|-8--------8-------10-------|------------------------------|-4----------------------|
G|-7------------7------------|------------------------------|------4-------4---------|
D|---------------------------|------------------------------|----------4-------------|
A|---------------------------|-----4---4---4---4---4---4----|------------------------|
E|---------------------------|-----2---2---2---2---2---2----|------------------------|


E|-2---------------2---------------|----------0----------------|---------------------------|
B|---------------------5---4-------|------0-------4-------4----|-2-----2---2---2-----------|
G|---------4-------------------4---|-1----------------4--------|-2-----------------2-------|
D|-----4-------4-------------------|---------------------------|-2---------------------2---|
A|---------------------------------|---------------------------|-0-------------------------|
E|---------------------------------|---------------------------|---------------------------|


E|--------------------------2---|-2---------------2---------------|---------0--------------------|
B|-4------------4-------4-------|---------4-----------5---4-------|-----0--------4---------------|
G|----------4-------4-----------|-----4-------4---------------4---|-1----------------4-------4---|
D|------4-----------------------|---------------------------------|----------------------4-------|
A|------------------------------|---------------------------------|------------------------------|
E|------------------------------|---------------------------------|------------------------------|


E|--------|--------|--------|--------|--------|--------|--------|--------|--------|
B|--------|--------|--------|--------|--------|--------|--------|--------|--------|
G|--------|--------|--------|--------|--------|--------|--------|--------|--------|
D|--------|--------|--------|--------|--------|--------|--------|--------|--------|
A|--------|--------|--------|--------|--------|--------|--------|--------|--------|
E|--------|--------|--------|--------|--------|--------|--------|--------|--------|


E|--------|--------|--------|--------|--------|--------|--------|--------|--------|
B|--------|--------|--------|--------|--------|--------|--------|--------|--------|
G|--------|--------|--------|--------|--------|--------|--------|--------|--------|
D|--------|--------|--------|--------|--------|--------|--------|--------|--------|
A|--------|--------|--------|--------|--------|--------|--------|--------|--------|
E|--------|--------|--------|--------|--------|--------|--------|--------|--------|


E|--------|--------|--------|--------|
B|--------|--------|--------|--------|
G|--------|--------|--------|--------|
D|--------|--------|--------|--------|
A|--------|--------|--------|--------|
E|--------|--------|--------|--------|





Track 2: Gtr.2

E|--------|--------|--------|--------|--------|--------|--------|------2-----------------------|
B|--------|--------|--------|--------|--------|--------|--------|-4--------4---4-------4-------|
G|--------|--------|--------|--------|--------|--------|--------|-4----------------4-------4---|
D|--------|--------|--------|--------|--------|--------|--------|------------------------------|
A|--------|--------|--------|--------|--------|--------|--------|------------------------------|
E|--------|--------|--------|--------|--------|--------|--------|------------------------------|


E|-2------------2---------------|-0---------------------|---------------------------|
B|----------4-------4-------4---|-0-----5---4-----------|-2-----2---2---------------|
G|------4---------------4-------|-1-----4-------4---4---|-2-------------2-------2---|
D|------------------------------|-------4---------------|-2-----------------2-------|
A|------------------------------|-----------------------|-0-------------------------|
E|------------------------------|-----------------------|---------------------------|


E|-2----------------------------|---------------------------|-0-------------------------|
B|-4----4-------4-------2-------|-4----4-------4------------|-0-----4--5--4--2----------|
G|-4--------4-------4-------4---|----------4-------4--------|-1-----------------4-------|
D|------------------------------|----------------------4----|-2---------------------4---|
A|------------------------------|---------------------------|---------------------------|
E|------------------------------|---------------------------|---------------------------|


E|------------------------|-2---------------2-----|------------------------------|
B|-2----------------------|-2-----------2---------|-3-----------------------2----|
G|-2-----2---2------------|-3-------3-------------|-----4-------4-------3--------|
D|-2--------------4---2---|-4---4-----------------|---------4--------------------|
A|-0----------------------|-----------------------|------------------------------|
E|------------------------|-----------------------|------------------------------|


E|-------------------------0----|-3----3---------------5----|-7---------------9------------|
B|-3-----------------------0----|-3----3-----------5--------|-----7-------7--------7-------|
G|-----2-------2-------1---1----|-4----4---4---6------------|---------7----------------7---|
D|---------0-------2-------2----|--------------7------------|------------------------------|
A|------------------------------|---------------------------|------------------------------|
E|------------------------------|---------------------------|------------------------------|


E|---------10---7-------7----|-7----7---------------9----|------------------------------|
B|-----7------------9--------|-8--------8-------10-------|------------------------------|
G|-7-------------------------|-7------------7------------|------------------------------|
D|---------------------------|---------------------------|------------------------------|
A|---------------------------|---------------------------|-----4---4---4---4---4---4----|
E|---------------------------|---------------------------|-----2---2---2---2---2---2----|


E|-------------------2----|-2---------------2---------------|----------0----------------|
B|-4----------------------|---------------------5---4-------|------0-------4-------4----|
G|------4-------4---------|---------4-------------------4---|-1----------------4--------|
D|----------4-------------|-----4-------4-------------------|---------------------------|
A|------------------------|---------------------------------|---------------------------|
E|------------------------|---------------------------------|---------------------------|


E|---------------------------|--------------------------2---|-2---------------2---------------|
B|-2-----2---2---2-----------|-4------------4-------4-------|---------4-----------5---4-------|
G|-2-----------------2-------|----------4-------4-----------|-----4-------4---------------4---|
D|-2---------------------2---|------4-----------------------|---------------------------------|
A|-0-------------------------|------------------------------|---------------------------------|
E|---------------------------|------------------------------|---------------------------------|


E|---------0--------------------|---------------------------|-------------2-----------------------|
B|-----0--------4---------------|-2-----2---2---------------|---------2------2----------2---------|
G|-1----------------4-------4---|-2-------------2-------2---|-----3-------------3----------3------|
D|----------------------4-------|-2-----------------2-------|-4---------------------4---------4---|
A|------------------------------|-0-------------------------|-------------------------------------|
E|------------------------------|---------------------------|-------------------------------------|


E|------5----2---------------|---------------------------|---------------------|------3----2--3--2-----------|
B|---------------3-----------|---------0----3------------|---------------------|--------------------3--------|
G|-4-----------------2-------|-----0------------4--------|-----------2---------|-0----------------------2----|
D|-----------------------2---|-2--------------------4----|------2---------2----|-----------------------------|
A|---------------------------|---------------------------|-0-------------------|-----------------------------|
E|---------------------------|---------------------------|---------------------|-----------------------------|


E|---------------------------|----------------------2----|-----10--9---5---5-----|
B|----------0---3------------|--------------2------------|-----12--11--7---7-----|
G|------0-----------4--------|------3-----------2--------|-----------------------|
D|-2--------------------4----|-4--------4----------------|-----------------------|
A|---------------------------|---------------------------|-----------------------|
E|---------------------------|---------------------------|-----------------------|


E|--------|--------|--------|-7---------9---------|-10----------------------7----|
B|--------|--------|--------|-------7---------7---|-----7-------7-------9--------|
G|--------|--------|--------|---------------------|---------7-------9------------|
D|--------|--------|--------|-9-------------------|------------------------------|
A|--------|--------|--------|---------------------|------------------------------|
E|--------|--------|--------|---------------------|------------------------------|


E|------7---------------9----|--------|--------|--------|--------|--------|--------|
B|-8--------8-------10-------|--------|--------|--------|--------|--------|--------|
G|-7------------9------------|--------|--------|--------|--------|--------|--------|
D|-9-------------------------|--------|--------|--------|--------|--------|--------|
A|---------------------------|--------|--------|--------|--------|--------|--------|
E|---------------------------|--------|--------|--------|--------|--------|--------|


E|--------|--------|--------|--------|--------|--------|--------|--------|---------------------------------|
B|--------|--------|--------|--------|--------|--------|--------|--------|-2-------2-------2---------------|
G|--------|--------|--------|--------|--------|--------|--------|--------|-2---2-------2-------2-------2---|
D|--------|--------|--------|--------|--------|--------|--------|--------|-2-----------------------2-------|
A|--------|--------|--------|--------|--------|--------|--------|--------|-0-------------------------------|
E|--------|--------|--------|--------|--------|--------|--------|--------|---------------------------------|


E|----------------2----|-----------------2---------------|------0--------------------|
B|-4---------4---------|---------4-----------5---4-------|-----------4---------------|
G|------4--------------|-----4-------4---------------4---|-1-------------4-------4---|
D|---------------------|---------------------------------|-------------------4-------|
A|---------------------|---------------------------------|---------------------------|
E|---------------------|---------------------------------|---------------------------|


E|---------------------------|--------------------------2---|-2---------------2---------------|
B|-2-----2---2-------2-------|-4------------4-------4-------|---------------------5---4-------|
G|-2-------------2-------2---|----------4-------4-----------|-----4-------4---------------4---|
D|-2-------------------------|------4-----------------------|---------4-----------------------|
A|-0-------------------------|------------------------------|---------------------------------|
E|---------------------------|------------------------------|---------------------------------|


E|---------0-----------------------|---------------------------------|-------------2---2-------2----|
B|-----0-------0---4---------------|-2-----------------------2-------|---------2-----------2--------|
G|-1-------------------4-------4---|-2---2-------2-------2-------2---|-----3------------------------|
D|-------------------------4-------|-2-------2-------2---------------|-4----------------------------|
A|---------------------------------|-0---------------0---------------|------------------------------|
E|---------------------------------|---------------------------------|------------------------------|


E|-7-----------7---9-----------9---|-10----------10--9---------------|---------7------------9----|
B|-----7---------------7-----------|-----7---------------7-----------|-----8------------10-------|
G|---------7---------------7-------|---------7---------------7---9---|-7------------9------------|
D|---------------------------------|---------------------------------|---------------------------|
A|---------------------------------|---------------------------------|---------------------------|
E|---------------------------------|---------------------------------|---------------------------|


E|-7-----------7---9-----------9---|-10----------10--9---------------|---------7------------9----|
B|-----7---------------7-----------|-----7---------------7-----------|-----8------------10-------|
G|---------7---------------7-------|---------7---------------7---9---|-7------------9------------|
D|---------------------------------|---------------------------------|---------------------------|
A|---------------------------------|---------------------------------|---------------------------|
E|---------------------------------|---------------------------------|---------------------------|


E|-7-----------7---9-----------9---|-10----------10--9---------------|---------7------------9----|
B|-----7---------------7-----------|-----7---------------7-----------|-----8------------10-------|
G|---------7---------------7-------|---------7---------------7---9---|-7------------9------------|
D|---------------------------------|---------------------------------|---------------------------|
A|---------------------------------|---------------------------------|---------------------------|
E|---------------------------------|---------------------------------|---------------------------|


E|-7-----------7---9-----------9---|-10----------10--9---------------|---------7------------9----|
B|-----7---------------7-----------|-----7---------------7-----------|-----8------------10-------|
G|---------7---------------7-------|---------7---------------7---9---|-7------------9------------|
D|---------------------------------|---------------------------------|---------------------------|
A|---------------------------------|---------------------------------|---------------------------|
E|---------------------------------|---------------------------------|---------------------------|





Track 3: Gtr.4

E|--------|--------|--------|--------|--------|--------|--------|--------|--------|
B|--------|--------|--------|--------|--------|--------|--------|--------|--------|
G|--------|--------|--------|--------|--------|--------|--------|--------|--------|
D|--------|--------|--------|--------|--------|--------|--------|--------|--------|
A|--------|--------|--------|--------|--------|--------|--------|--------|--------|
E|--------|--------|--------|--------|--------|--------|--------|--------|--------|


E|--------|--------|--------|--------|--------|--------|--------|--------|--------|
B|--------|--------|--------|--------|--------|--------|--------|--------|--------|
G|--------|--------|--------|--------|--------|--------|--------|--------|--------|
D|--------|--------|--------|--------|--------|--------|--------|--------|--------|
A|--------|--------|--------|--------|--------|--------|--------|--------|--------|
E|--------|--------|--------|--------|--------|--------|--------|--------|--------|


E|--------|--------|--------|--------|-11-------11----------11---|--------|--------|
B|--------|--------|--------|--------|-12-----------12------12---|--------|--------|
G|--------|--------|--------|--------|-11---11----------11--11---|--------|--------|
D|--------|--------|--------|--------|---------------------------|--------|--------|
A|--------|--------|--------|--------|---------------------------|--------|--------|
E|--------|--------|--------|--------|---------------------------|--------|--------|


E|--------|--------|--------|--------|--------|--------|--------|--------|--------|
B|--------|--------|--------|--------|--------|--------|--------|--------|--------|
G|--------|--------|--------|--------|--------|--------|--------|--------|--------|
D|--------|--------|--------|--------|--------|--------|--------|--------|--------|
A|--------|--------|--------|--------|--------|--------|--------|--------|--------|
E|--------|--------|--------|--------|--------|--------|--------|--------|--------|


E|--------|--------|--------|--------|--------|--------|--------|--------|--------|
B|--------|--------|--------|--------|--------|--------|--------|--------|--------|
G|--------|--------|--------|--------|--------|--------|--------|--------|--------|
D|--------|--------|--------|--------|--------|--------|--------|--------|--------|
A|--------|--------|--------|--------|--------|--------|--------|--------|--------|
E|--------|--------|--------|--------|--------|--------|--------|--------|--------|


E|--------|--------|--------|--------|--------|--------|--------|--------|-11-------11----------11---|
B|--------|--------|--------|--------|--------|--------|--------|--------|-12-----------12------12---|
G|--------|--------|--------|--------|--------|--------|--------|--------|-11---11----------11--11---|
D|--------|--------|--------|--------|--------|--------|--------|--------|---------------------------|
A|--------|--------|--------|--------|--------|--------|--------|--------|---------------------------|
E|--------|--------|--------|--------|--------|--------|--------|--------|---------------------------|


E|--------|--------|--------|--------|--------|--------|--------|--------|--------|
B|--------|--------|--------|--------|--------|--------|--------|--------|--------|
G|--------|--------|--------|--------|--------|--------|--------|--------|--------|
D|--------|--------|--------|--------|--------|--------|--------|--------|--------|
A|--------|--------|--------|--------|--------|--------|--------|--------|--------|
E|--------|--------|--------|--------|--------|--------|--------|--------|--------|


E|--------|--------|--------|--------|--------|--------|--------|--------|--------|
B|--------|--------|--------|--------|--------|--------|--------|--------|--------|
G|--------|--------|--------|--------|--------|--------|--------|--------|--------|
D|--------|--------|--------|--------|--------|--------|--------|--------|--------|
A|--------|--------|--------|--------|--------|--------|--------|--------|--------|
E|--------|--------|--------|--------|--------|--------|--------|--------|--------|


E|--------|--------|--------|--------|--------|--------|--------|--------|--------|
B|--------|--------|--------|--------|--------|--------|--------|--------|--------|
G|--------|--------|--------|--------|--------|--------|--------|--------|--------|
D|--------|--------|--------|--------|--------|--------|--------|--------|--------|
A|--------|--------|--------|--------|--------|--------|--------|--------|--------|
E|--------|--------|--------|--------|--------|--------|--------|--------|--------|


E|--------|--------|
B|--------|--------|
G|--------|--------|
D|--------|--------|
A|--------|--------|
E|--------|--------|





Track 4: Gtr.3 - Dobro (Open G Tuning)

D|--------|--------|--------|--------|--------|--------|--------|--------|--------|
B|--------|--------|--------|--------|--------|--------|--------|--------|--------|
G|--------|--------|--------|--------|--------|--------|--------|--------|--------|
D|--------|--------|--------|--------|--------|--------|--------|--------|--------|
G|--------|--------|--------|--------|--------|--------|--------|--------|--------|
D|--------|--------|--------|--------|--------|--------|--------|--------|--------|


D|--------|--------|--------|--------|--------|--------|--------|--------|--------|
B|--------|--------|--------|--------|--------|--------|--------|--------|--------|
G|--------|--------|--------|--------|--------|--------|--------|--------|--------|
D|--------|--------|--------|--------|--------|--------|--------|--------|--------|
G|--------|--------|--------|--------|--------|--------|--------|--------|--------|
D|--------|--------|--------|--------|--------|--------|--------|--------|--------|


D|--------|--------|--------|--------|--------|--------|--------|--------|--------|
B|--------|--------|--------|--------|--------|--------|--------|--------|--------|
G|--------|--------|--------|--------|--------|--------|--------|--------|--------|
D|--------|--------|--------|--------|--------|--------|--------|--------|--------|
G|--------|--------|--------|--------|--------|--------|--------|--------|--------|
D|--------|--------|--------|--------|--------|--------|--------|--------|--------|


D|--------|--------|--------|--------|--------|--------|--------|----------------12--|
B|--------|--------|--------|--------|--------|--------|--------|--------------------|
G|--------|--------|--------|--------|--------|--------|--------|--------------------|
D|--------|--------|--------|--------|--------|--------|--------|--------------------|
G|--------|--------|--------|--------|--------|--------|--------|--------------------|
D|--------|--------|--------|--------|--------|--------|--------|--------------------|


D|-12----11--11--------|---------------------|------------------|-------------|--------|
B|-----------------12--|-12----10--10--------|------------------|--------7----|--------|
G|---------------------|-----------------11--|-11-----11-9------|-11----------|--------|
D|---------------------|---------------------|--------------11--|-------------|--------|
G|---------------------|---------------------|------------------|-------------|--------|
D|---------------------|---------------------|------------------|-------------|--------|


D|--------|--------|--------|--------|--------|--------|--------|--------|--------|
B|--------|--------|--------|--------|--------|--------|--------|--------|--------|
G|--------|--------|--------|--------|--------|--------|--------|--------|--------|
D|--------|--------|--------|--------|--------|--------|--------|--------|--------|
G|--------|--------|--------|--------|--------|--------|--------|--------|--------|
D|--------|--------|--------|--------|--------|--------|--------|--------|--------|


D|--------|--------|--------|--------|--------|--------|--------|--------|--------|
B|--------|--------|--------|--------|--------|--------|--------|--------|--------|
G|--------|--------|--------|--------|--------|--------|--------|--------|--------|
D|--------|--------|--------|--------|--------|--------|--------|--------|--------|
G|--------|--------|--------|--------|--------|--------|--------|--------|--------|
D|--------|--------|--------|--------|--------|--------|--------|--------|--------|


D|--------|--------|--------|--------|--------|--------|--------|--------|--------|
B|--------|--------|--------|--------|--------|--------|--------|--------|--------|
G|--------|--------|--------|--------|--------|--------|--------|--------|--------|
D|--------|--------|--------|--------|--------|--------|--------|--------|--------|
G|--------|--------|--------|--------|--------|--------|--------|--------|--------|
D|--------|--------|--------|--------|--------|--------|--------|--------|--------|


D|--------|--------|--------|--------|--------|--------|--------|--------|--------|
B|--------|--------|--------|--------|--------|--------|--------|--------|--------|
G|--------|--------|--------|--------|--------|--------|--------|--------|--------|
D|--------|--------|--------|--------|--------|--------|--------|--------|--------|
G|--------|--------|--------|--------|--------|--------|--------|--------|--------|
D|--------|--------|--------|--------|--------|--------|--------|--------|--------|


D|--------|--------|--------|--------|--------|
B|--------|--------|--------|--------|--------|
G|--------|--------|--------|--------|--------|
D|--------|--------|--------|--------|--------|
G|--------|--------|--------|--------|--------|
D|--------|--------|--------|--------|--------|





Track 5: Gtr.1

E|--------|--------|--------|--------|--------|--------|--------|--------|--------|
B|--------|--------|--------|--------|--------|--------|--------|--------|--------|
G|--------|--------|--------|--------|--------|--------|--------|--------|--------|
D|--------|--------|--------|--------|--------|--------|--------|--------|--------|
A|--------|--------|--------|--------|--------|--------|--------|--------|--------|
E|--------|--------|--------|--------|--------|--------|--------|--------|--------|


E|--------|--------|--------|--------|--------|--------|--------|--------|--------|
B|--------|--------|--------|--------|--------|--------|--------|--------|--------|
G|--------|--------|--------|--------|--------|--------|--------|--------|--------|
D|--------|--------|--------|--------|--------|--------|--------|--------|--------|
A|--------|--------|--------|--------|--------|--------|--------|--------|--------|
E|--------|--------|--------|--------|--------|--------|--------|--------|--------|


E|--------|--------|--------|--------|--------|--------|--------|--------|--------|
B|--------|--------|--------|--------|--------|--------|--------|--------|--------|
G|--------|--------|--------|--------|--------|--------|--------|--------|--------|
D|--------|--------|--------|--------|--------|--------|--------|--------|--------|
A|--------|--------|--------|--------|--------|--------|--------|--------|--------|
E|--------|--------|--------|--------|--------|--------|--------|--------|--------|


E|--------|--------|--------|--------|--------|--------|--------|--------|--------|
B|--------|--------|--------|--------|--------|--------|--------|--------|--------|
G|--------|--------|--------|--------|--------|--------|--------|--------|--------|
D|--------|--------|--------|--------|--------|--------|--------|--------|--------|
A|--------|--------|--------|--------|--------|--------|--------|--------|--------|
E|--------|--------|--------|--------|--------|--------|--------|--------|--------|


E|--------|--------|--------|------------12--|-12--9---------------------------|---------------------------|
B|--------|--------|--------|-12-------------|-------------10--10--12----------|------10--12---------------|
G|--------|--------|--------|----------------|-----------------------------9---|-9------------9------------|
D|--------|--------|--------|----------------|---------------------------------|-------------------9---7---|
A|--------|--------|--------|----------------|---------------------------------|---------------------------|
E|--------|--------|--------|----------------|---------------------------------|---------------------------|


E|--------|--------|--------|--------|--------|--------|--------|--------|--------|
B|--------|--------|--------|--------|--------|--------|--------|--------|--------|
G|--------|--------|--------|--------|--------|--------|--------|--------|--------|
D|--------|--------|--------|--------|--------|--------|--------|--------|--------|
A|--------|--------|--------|--------|--------|--------|--------|--------|--------|
E|--------|--------|--------|--------|--------|--------|--------|--------|--------|


E|--------|--------|--------|--------|--------|--------|--------|--------|--------|
B|--------|--------|--------|--------|--------|--------|--------|--------|--------|
G|--------|--------|--------|--------|--------|--------|--------|--------|--------|
D|--------|--------|--------|--------|--------|--------|--------|--------|--------|
A|--------|--------|--------|--------|--------|--------|--------|--------|--------|
E|--------|--------|--------|--------|--------|--------|--------|--------|--------|


E|--------|--------|--------|--------|--------|--------|--------|--------|--------|
B|--------|--------|--------|--------|--------|--------|--------|--------|--------|
G|--------|--------|--------|--------|--------|--------|--------|--------|--------|
D|--------|--------|--------|--------|--------|--------|--------|--------|--------|
A|--------|--------|--------|--------|--------|--------|--------|--------|--------|
E|--------|--------|--------|--------|--------|--------|--------|--------|--------|


E|--------|--------|--------|--------|--------|--------|--------|--------|--------|
B|--------|--------|--------|--------|--------|--------|--------|--------|--------|
G|--------|--------|--------|--------|--------|--------|--------|--------|--------|
D|--------|--------|--------|--------|--------|--------|--------|--------|--------|
A|--------|--------|--------|--------|--------|--------|--------|--------|--------|
E|--------|--------|--------|--------|--------|--------|--------|--------|--------|


E|--------|--------|--------|
B|--------|--------|--------|
G|--------|--------|--------|
D|--------|--------|--------|
A|--------|--------|--------|
E|--------|--------|--------|





Track 6: Gtr.1

E|--------|--------|--------|--------|--------|--------|--------|--------|--------|
B|--------|--------|--------|--------|--------|--------|--------|--------|--------|
G|--------|--------|--------|--------|--------|--------|--------|--------|--------|
D|--------|--------|--------|--------|--------|--------|--------|--------|--------|
A|--------|--------|--------|--------|--------|--------|--------|--------|--------|
E|--------|--------|--------|--------|--------|--------|--------|--------|--------|


E|--------|--------|--------|--------|--------|--------|--------|--------|--------|
B|--------|--------|--------|--------|--------|--------|--------|--------|--------|
G|--------|--------|--------|--------|--------|--------|--------|--------|--------|
D|--------|--------|--------|--------|--------|--------|--------|--------|--------|
A|--------|--------|--------|--------|--------|--------|--------|--------|--------|
E|--------|--------|--------|--------|--------|--------|--------|--------|--------|


E|--------|--------|--------|--------|--------|--------|--------|--------|--------|
B|--------|--------|--------|--------|--------|--------|--------|--------|--------|
G|--------|--------|--------|--------|--------|--------|--------|--------|--------|
D|--------|--------|--------|--------|--------|--------|--------|--------|--------|
A|--------|--------|--------|--------|--------|--------|--------|--------|--------|
E|--------|--------|--------|--------|--------|--------|--------|--------|--------|


E|--------|--------|--------|--------|--------|--------|--------|--------|--------|
B|--------|--------|--------|--------|--------|--------|--------|--------|--------|
G|--------|--------|--------|--------|--------|--------|--------|--------|--------|
D|--------|--------|--------|--------|--------|--------|--------|--------|--------|
A|--------|--------|--------|--------|--------|--------|--------|--------|--------|
E|--------|--------|--------|--------|--------|--------|--------|--------|--------|


E|--------|--------|--------|--------|--------|--------|--------|--------|--------|
B|--------|--------|--------|--------|--------|--------|--------|--------|--------|
G|--------|--------|--------|--------|--------|--------|--------|--------|--------|
D|--------|--------|--------|--------|--------|--------|--------|--------|--------|
A|--------|--------|--------|--------|--------|--------|--------|--------|--------|
E|--------|--------|--------|--------|--------|--------|--------|--------|--------|


E|--------|--------|--------|--------|--------|--------|--------|--------|--------|
B|--------|--------|--------|--------|--------|--------|--------|--------|--------|
G|--------|--------|--------|--------|--------|--------|--------|--------|--------|
D|--------|--------|--------|--------|--------|--------|--------|--------|--------|
A|--------|--------|--------|--------|--------|--------|--------|--------|--------|
E|--------|--------|--------|--------|--------|--------|--------|--------|--------|


E|--------|--------|--------|--------|--------|--------|--------|--------|--------|
B|--------|--------|--------|--------|--------|--------|--------|--------|--------|
G|--------|--------|--------|--------|--------|--------|--------|--------|--------|
D|--------|--------|--------|--------|--------|--------|--------|--------|--------|
A|--------|--------|--------|--------|--------|--------|--------|--------|--------|
E|--------|--------|--------|--------|--------|--------|--------|--------|--------|


E|--------|--------|--------|--------|--------|--------|--------|--------|--------|
B|--------|--------|--------|--------|--------|--------|--------|--------|--------|
G|--------|--------|--------|--------|--------|--------|--------|--------|--------|
D|--------|--------|--------|--------|--------|--------|--------|--------|--------|
A|--------|--------|--------|--------|--------|--------|--------|--------|--------|
E|--------|--------|--------|--------|--------|--------|--------|--------|--------|


E|--------|--------|--------|--------|--------|--------|--------|--------|--------|
B|--------|--------|--------|--------|--------|--------|--------|--------|--------|
G|--------|--------|--------|--------|--------|--------|--------|--------|--------|
D|--------|--------|--------|--------|--------|--------|--------|--------|--------|
A|--------|--------|--------|--------|--------|--------|--------|--------|--------|
E|--------|--------|--------|--------|--------|--------|--------|--------|--------|





Track 7: Untitled

G|--------|--------|--------|--------|--------|--------|--------|--------|--------|
D|--------|--------|--------|--------|--------|--------|--------|--------|--------|
A|--------|--------|--------|--------|--------|--------|--------|--------|--------|
E|--------|--------|--------|--------|--------|--------|--------|--------|--------|


G|--------|--------|--------|--------|--------|--------|--------|--------|--------|
D|--------|--------|--------|--------|--------|--------|--------|--------|--------|
A|--------|--------|--------|--------|--------|--------|--------|--------|--------|
E|--------|--------|--------|--------|--------|--------|--------|--------|--------|


G|--------|--------|--------|--------|--------|--------|--------|--------|--------|
D|--------|--------|--------|--------|--------|--------|--------|--------|--------|
A|--------|--------|--------|--------|--------|--------|--------|--------|--------|
E|--------|--------|--------|--------|--------|--------|--------|--------|--------|


G|--------|--------|--------|--------|--------|--------|--------|--------|--------|
D|--------|--------|--------|--------|--------|--------|--------|--------|--------|
A|--------|--------|--------|--------|--------|--------|--------|--------|--------|
E|--------|--------|--------|--------|--------|--------|--------|--------|--------|


G|--------|--------|--------|--------|--------|--------|--------|--------|--------|
D|--------|--------|--------|--------|--------|--------|--------|--------|--------|
A|--------|--------|--------|--------|--------|--------|--------|--------|--------|
E|--------|--------|--------|--------|--------|--------|--------|--------|--------|


G|--------|--------|--------|--------|--------|--------|--------|--------|--------|
D|--------|--------|--------|--------|--------|--------|--------|--------|--------|
A|--------|--------|--------|--------|--------|--------|--------|--------|--------|
E|--------|--------|--------|--------|--------|--------|--------|--------|--------|


G|--------|--------|--------|--------|--------|--------|--------|--------|--------|
D|--------|--------|--------|--------|--------|--------|--------|--------|--------|
A|--------|--------|--------|--------|--------|--------|--------|--------|--------|
E|--------|--------|--------|--------|--------|--------|--------|--------|--------|


G|--------|--------|--------|--------|--------|--------|--------|--------|--------|
D|--------|--------|--------|--------|--------|--------|--------|--------|--------|
A|--------|--------|--------|--------|--------|--------|--------|--------|--------|
E|--------|--------|--------|--------|--------|--------|--------|--------|--------|


G|--------|--------|--------|--------|--------|--------|--------|--------|--------|
D|--------|--------|--------|--------|--------|--------|--------|--------|--------|
A|--------|--------|--------|--------|--------|--------|--------|--------|--------|
E|--------|--------|--------|--------|--------|--------|--------|--------|--------|