Menu:

 

Search:

 

eric clapton - im tore down:

 



Title: I'm Tore Down
Artist: 
Album: From The Cradle
Author: Sonny Thompson


Track 1: Eric Clapton - Lead Guitar (Overdriven)

E|--------------------8---|-10--------11---11---|-8-------------------------------|
B|----------------10------|---------------------|-----8---11--8---10------8---6---|
G|----------------9-------|---------------------|---------------------10----------|
D|------------------------|---------------------|---------------------------------|
A|------------------------|---------------------|---------------------------------|
E|------------------------|---------------------|---------------------------------|


E|-----------------------|--------|--------|----------6---6----8-----------|---------------------------------|
B|-----------------------|--------|--------|-----------------------11--8---|---------------------------------|
G|-8---------------------|--------|--------|-------------------------------|-10-10-8-------8-----------------|
D|-----10--8-------------|--------|--------|-------------------------------|-----------10------10--10--------|
A|-------------10--10----|--------|--------|-------------------------------|---------------------------------|
E|-----------------------|--------|--------|-------------------------------|---------------------------------|


E|--------|--------|----------11--11---11---|-8--------------------------------|--------|
B|--------|--------|------------------------|-----11--8------------------------|--------|
G|--------|--------|------------------------|-------------8--------------------|--------|
D|--------|--------|------------------------|-----------------10--10-----------|--------|
A|--------|--------|------------------------|----------------------------------|--------|
E|--------|--------|------------------------|----------------------------------|--------|


E|--------|--------------8-------------------------|----------------------------------|
B|--------|----------8-------11--8-----------------|----------------------------------|
G|--------|------10------------------11-10-8-------|-8--------------------------------|
D|--------|------------------------------------10--|-----10--8--------------------8---|
A|--------|----------------------------------------|-------------10--10---8---10------|
E|--------|----------------------------------------|----------------------------------|


E|---------------------------|--------------------|--------------------|------------------------|
B|----------------------10---|-8------------------|-8------------------|------------------------|
G|----------------------10---|-9------------------|-9------------------|------------------------|
D|-10---------------10--10---|--------------------|-10-----------------|------------------------|
A|---------------------------|--------------------|--------------------|-3----1----0------------|
E|---------------------------|--------------------|--------------------|----------------3---3---|


E|--------|--------|----------11--11---11---|-8--------------------------------|--------|
B|--------|--------|------------------------|-----8----------------------------|--------|
G|--------|--------|------------------------|---------10--8--------------------|--------|
D|--------|--------|------------------------|-----------------10--10-----------|--------|
A|--------|--------|------------------------|----------------------------------|--------|
E|--------|--------|------------------------|----------------------------------|--------|


E|--------|--------------8-------------------------|---------------------------|--------------------|
B|--------|----------8-------10--8-----------------|---------------------------|-8------------------|
G|--------|------10------------------11-10-8-------|-8-------------------------|-9------------------|
D|--------|------------------------------------10--|-----10--8-----------------|-10-----------------|
A|--------|----------------------------------------|-------------10--10--------|--------------------|
E|--------|----------------------------------------|---------------------------|--------------------|


E|---------------------------|--------------------|---------------------------|--------------------|
B|-8--------------------2----|-1------------------|-1--------------------2----|-1------------------|
G|-9--------------------4----|-3------------------|-3--------------------4----|-3------------------|
D|-10-------------------3----|-2------------------|-2--------------------3----|-2------------------|
A|------------------4---4----|-3------------------|-3----------------4---4----|-3------------------|
E|---------------------------|--------------------|---------------------------|--------------------|


E|-----------------------2---|-8------------------|---------------------------------|
B|-1---------------------3---|-8------------------|---------------------------------|
G|-3---------------------3---|--------------------|---------------------------------|
D|-2---------------------2---|--------------------|---------------------------------|
A|-3-------------------------|--------------------|-3---3---1---1---0---0-----------|
E|---------------------------|--------------------|-------------------------3---3---|


E|--------|--------|----------11--11---11---|-8--------------------------------|--------|
B|--------|--------|------------------------|-----8----------------------------|--------|
G|--------|--------|------------------------|---------10--8--------------------|--------|
D|--------|--------|------------------------|-----------------10--10-----------|--------|
A|--------|--------|------------------------|----------------------------------|--------|
E|--------|--------|------------------------|----------------------------------|--------|


E|--------|--------------8-------------------------|---------------------3---5----|
B|--------|----------8-------10--8-----------------|------------------------------|
G|--------|------10------------------11-10-8-------|-8----------------------------|
D|--------|------------------------------------10--|-----10--8--------------------|
A|--------|----------------------------------------|-------------10---------------|
E|--------|----------------------------------------|------------------------------|


E|-8--------------------11------|---------13------13------13------13---|-11---------------------|
B|---------13--13--13-----------|-----13-------------------------------|------13---13---10------|
G|------------------------------|--------------------------------------|------------------------|
D|------------------------------|--------------------------------------|------------------------|
A|------------------------------|--------------------------------------|------------------------|
E|------------------------------|--------------------------------------|------------------------|


E|--------------11--13--13---|-11-------------11------|---------11------10--------------|
B|------10--13---------------|------13---13-----------|-----13------13------10--13------|
G|---------------------------|------------------------|-----------------------------12--|
D|---------------------------|------------------------|---------------------------------|
A|---------------------------|------------------------|---------------------------------|
E|---------------------------|------------------------|---------------------------------|


E|------------------------------|-----------------8-----------8-------|---------------------------------|
B|------------------------------|-------------8-------11--11-------8--|---------------------8-------8---|
G|-10--9------------------------|-----10------------------------------|-10--10--10--8---10--------------|
D|---------10-------------------|-------------------------------------|---------------------------------|
A|-------------10--8---7--------|-------------------------------------|---------------------------------|
E|------------------------------|-------------------------------------|---------------------------------|


E|------8------------8-------|----------8---------------8--------|-8------------8------------------|
B|-11-----------11-----------|-11--11-----------11----------11---|------11---------11--11--11--11--|
G|---------------------------|-----------------------------------|---------------------------------|
D|---------------------------|-----------------------------------|---------------------------------|
A|---------------------------|-----------------------------------|---------------------------------|
E|---------------------------|-----------------------------------|---------------------------------|


E|-13---11-------------|------13--13--13--13--13--11--|-----------11-------6---|-18-18-18-18-18-18--18-18--18--18--15------|
B|-----------13--------|------11----------------------|-13---13----------------|---------------------------------------18--|
G|----------------10---|------------------------------|------------------------|-------------------------------------------|
D|---------------------|------------------------------|------------------------|-------------------------------------------|
A|---------------------|------------------------------|------------------------|-------------------------------------------|
E|---------------------|------------------------------|------------------------|-------------------------------------------|


E|------------------------|------------------------------|------------------------|
B|-16-------------16------|------18--18--18--16----------|-16---------------------|
G|------17---17-----------|------17--------------17--17--|------17---17---14------|
D|------------------------|------------------------------|------------------------|
A|------------------------|------------------------------|------------------------|
E|------------------------|------------------------------|------------------------|


E|-----------------8--------8-------|-11---8--11-8-----8---------------|---------------------------|
B|-------------8-------11-------8---|---------------10-----8-------8---|---------------------------|
G|-----8---9------------------------|--------------------------10------|-8-----------------10--9---|
D|----------------------------------|----------------------------------|------10--8---10-----------|
A|----------------------------------|----------------------------------|---------------------------|
E|----------------------------------|----------------------------------|---------------------------|


E|------------------------------|---------------------------|--------------------|
B|--------------8---10--10------|---------------------------|-8------------------|
G|--------------9---10--10------|-9-------------------------|-9------------------|
D|-----10--10-------------------|-----10--8-----------------|-10-----------------|
A|------------------------------|-------------10--10--------|--------------------|
E|------------------------------|---------------------------|--------------------|


E|---------------------------|--------------------|---------------------------|--------------------|
B|-8--------------------2----|-1------------------|-1--------------------2----|-1------------------|
G|-9--------------------4----|-3------------------|-3--------------------4----|-3------------------|
D|-10-------------------3----|-2------------------|-2--------------------3----|-2------------------|
A|------------------4---4----|-3------------------|-3----------------4---4----|-3------------------|
E|---------------------------|--------------------|---------------------------|--------------------|


E|-----------------------2---|-8------------------|---------------------------------|
B|-1---------------------3---|-8------------------|---------------------------------|
G|-3---------------------3---|--------------------|---------------------------------|
D|-2---------------------2---|--------------------|---------------------------------|
A|-3-------------------------|--------------------|-3---3---1---1---0---0-----------|
E|---------------------------|--------------------|-------------------------3---3---|


E|--------|--------|----------11--11---11---|-8--------------------------------|--------|
B|--------|--------|------------------------|-----8----------------------------|--------|
G|--------|--------|------------------------|---------10--8--------------------|--------|
D|--------|--------|------------------------|-----------------10--10-----------|--------|
A|--------|--------|------------------------|----------------------------------|--------|
E|--------|--------|------------------------|----------------------------------|--------|


E|--------|--------------8-------------------------|---------------------------|--------|
B|--------|----------8-------10--8-----------------|---------------------------|--------|
G|--------|------10------------------11-10-8-------|-8-------------------------|--------|
D|--------|------------------------------------10--|-----10--8-----------------|--------|
A|--------|----------------------------------------|-------------10--10--------|--------|
E|--------|----------------------------------------|---------------------------|--------|


E|--------|----------8-------8-----------|-8-----------8---11------------|--------|
B|--------|----------11----------11------|-----11------------------------|--------|
G|--------|------------------------------|-------------------------------|--------|
D|--------|------------------------------|-------------------------------|--------|
A|--------|------------------------------|-------------------------------|--------|
E|--------|------------------------------|-------------------------------|--------|


E|--------|----------11--11---11---|-8--------------------------------|--------|--------------------|
B|--------|------------------------|-----8----------------------------|--------|--------------------|
G|--------|------------------------|---------10--8--------------------|--------|-12-----------------|
D|--------|------------------------|-----------------10--10-----------|--------|-13-----------------|
A|--------|------------------------|----------------------------------|--------|-12-----------------|
E|--------|------------------------|----------------------------------|--------|-13-----------------|


E|-------------8---10--10--8---10--8---|-10------4-------3---3-----|-3------|-3------------------|
B|-----8---10--------------------------|---------4-------3---3-----|-3------|-3------------------|
G|-------------------------------------|---------4-------3---3-----|-3------|-3------------------|
D|-------------------------------------|---------3-------2---2-----|-2------|-2------------------|
A|-------------------------------------|---------4-------3---3-----|-3------|-3------------------|
E|-------------------------------------|---------------------------|--------|--------------------|





Track 2: Andy Fairweather Low - Rythm Gtr. (Clean)

E|---------------------------------|---------------------------------|---------------------------------|
B|---------------------------------|---------------------------------|---------1---1-------------------|
G|---------------------------------|---------------------------------|-----------------3---3-----------|
D|---------5---5---3---3-----------|---------3---3---1---1-----------|-------------------------5---5---|
A|-------------------------5---5---|-------------------------1---1---|-3---3---------------------------|
E|-3---3---------------------------|-1---1---------------------------|---------------------------------|


E|---------------------------------|---------------------------------|---------------------------------|
B|---------1---1-------------------|---------1---1-------------------|---------1---1-------------------|
G|-----------------3---3-----------|-----------------3---3-----------|-----------------3---3-----------|
D|-------------------------5---5---|-------------------------5---5---|-------------------------5---5---|
A|-3---3---------------------------|-3---3---------------------------|-3---3---------------------------|
E|---------------------------------|---------------------------------|---------------------------------|


E|---------------------------------|---------------------------------|---------------------------------|
B|---------1---1-------------------|---------1---1-------------------|---------------------------------|
G|-----------------3---3-----------|-----------------3---3-----------|---------------------------------|
D|-------------------------5---5---|-------------------------5---5---|---------3---3---1---1-----------|
A|-3---3---------------------------|-3---3---------------------------|-------------------------1---1---|
E|---------------------------------|---------------------------------|-1---1---------------------------|


E|---------------------------------|---------------------------------|---------------------------------|
B|---------------------------------|---------1---1-------------------|---------1---1-------------------|
G|---------------------------------|-----------------3---3-----------|-----------------3---3-----------|
D|---------3---3---1---1-----------|-------------------------5---5---|-------------------------5---5---|
A|-------------------------1---1---|-3---3---------------------------|-3---3---------------------------|
E|-1---1---------------------------|---------------------------------|---------------------------------|


E|---------------------------------|---------------------------------|---------------------------------|
B|---------------------------------|---------------------------------|---------1---1-------------------|
G|---------------------------------|---------------------------------|-----------------3---3-----------|
D|---------5---5---3---3-----------|---------3---3---1---1-----------|-------------------------5---5---|
A|-------------------------5---5---|-------------------------1---1---|-3---3---------------------------|
E|-3---3---------------------------|-1---1---------------------------|---------------------------------|


E|--------------------------------------|--------|--------|--------|--------|---------------------------------|
B|------1---1---------------------------|--------|--------|--------|--------|---------------------------------|
G|----------------------3-----------3---|--------|--------|--------|--------|---------------------------------|
D|--------------3---5-------3---5-------|--------|--------|--------|--------|---------3---3---1---1-----------|
A|-3------------------------------------|--------|--------|--------|--------|-------------------------1---1---|
E|--------------------------------------|--------|--------|--------|--------|-1---1---------------------------|


E|---------------------------------|---------------------------------|---------------------------------|
B|---------------------------------|---------1---1-------------------|---------1---1-------------------|
G|---------------------------------|-----------------3---3-----------|-----------------3---3-----------|
D|---------3---3---1---1-----------|-------------------------5---5---|-------------------------5---5---|
A|-------------------------1---1---|-3---3---------------------------|-3---3---------------------------|
E|-1---1---------------------------|---------------------------------|---------------------------------|


E|---------------------------------|---------------------------------|------------------------------|
B|---------------------------------|---------------------------------|---------1---1----------------|
G|---------------------------------|---------------------------------|-----------------3---3--------|
D|---------5---5---3---3-----------|---------3---3---1---1-----------|-------------------------5----|
A|-------------------------5---5---|-------------------------1---1---|-----3------------------------|
E|-3---3---------------------------|-1---1---------------------------|------------------------------|


E|--------------------------------------|--------|--------|--------|--------|--------|
B|------1---1---------------------------|--------|--------|--------|--------|--------|
G|----------------------3-----------3---|--------|--------|--------|--------|--------|
D|--------------3---5-------3---5-------|--------|--------|--------|--------|--------|
A|-3------------------------------------|--------|--------|--------|--------|--------|
E|--------------------------------------|--------|--------|--------|--------|--------|


E|--------|--------|--------|---------------------------------|---------------------------------|
B|--------|--------|--------|---------------------------------|---------------------------------|
G|--------|--------|--------|---------------------------------|---------------------------------|
D|--------|--------|--------|---------3---3---1---1-----------|---------3---3---1---1-----------|
A|--------|--------|--------|-------------------------1---1---|-------------------------1---1---|
E|--------|--------|--------|-1---1---------------------------|-1---1---------------------------|


E|---------------------------|---------------------------|---------------------------------|
B|------1---1----------------|------1---1----------------|---------------------------------|
G|--------------3---3--------|--------------3---3--------|---------------------------------|
D|----------------------5----|----------------------5----|---------5---5---3---3-----------|
A|-3-------------------------|-3-------------------------|-------------------------5---5---|
E|---------------------------|---------------------------|-3---3---------------------------|


E|---------------------------------|------------------------------|--------------------------------------|
B|---------------------------------|---------1---1----------------|------1---1---------------------------|
G|---------------------------------|-----------------3---3--------|----------------------3-----------3---|
D|---------3---3---1---1-----------|-------------------------5----|--------------3---5-------3---5-------|
A|-------------------------1---1---|-----3------------------------|-3------------------------------------|
E|-1---1---------------------------|------------------------------|--------------------------------------|


E|---------------------------|---------------------------|---------------------------|
B|------1---1----------------|------1---1----------------|------1---1----------------|
G|--------------3---3--------|--------------3---3--------|--------------3---3--------|
D|----------------------5----|----------------------5----|----------------------5----|
A|-3-------------------------|-3-------------------------|-3-------------------------|
E|---------------------------|---------------------------|---------------------------|


E|---------------------------|---------------------------|---------------------------|
B|------1---1----------------|---------------------------|---------------------------|
G|--------------3---3--------|---------------------------|---------------------------|
D|----------------------5----|------3---3---1---1--------|------3---3---1---1--------|
A|-3-------------------------|----------------------3----|----------------------3----|
E|---------------------------|-1-------------------------|-1-------------------------|


E|---------------------------|---------------------------|------------------------------|
B|------1---1----------------|------1---1----------------|------------------------------|
G|--------------3---3--------|--------------3---3--------|------------------------------|
D|----------------------5----|----------------------5----|---------5---5---3---3--------|
A|-3-------------------------|-3-------------------------|-------------------------5----|
E|---------------------------|---------------------------|-3---3------------------------|


E|------------------------------|------------------------------|--------------------------------------|
B|------------------------------|---------1---1----------------|------1---1---------------------------|
G|------------------------------|-----------------3---3--------|----------------------3-----------3---|
D|---------3---3---1---1--------|-------------------------5----|--------------3---5-------3---5-------|
A|-------------------------3----|-----3------------------------|-3------------------------------------|
E|-1---1------------------------|------------------------------|--------------------------------------|


E|---------------------------------|---------------------------------|---------------------------|
B|---------1---1-------------------|---------1---1-------------------|------1---1----------------|
G|-----------------3---3-----------|-----------------3---3-----------|------------------3--------|
D|-------------------------5---5---|-------------------------5---5---|----------------------5----|
A|-3---3---------------------------|-3---3---------------------------|-3-------------------------|
E|---------------------------------|---------------------------------|---------------------------|


E|---------------------------|---------------------------|---------------------------|
B|------1---1----------------|---------------------------|---------------------------|
G|--------------3---3--------|---------------------------|---------------------------|
D|----------------------5----|------3---3---1---1--------|------3---3---1---1--------|
A|-3-------------------------|----------------------3----|----------------------3----|
E|---------------------------|-1-------------------------|-1-------------------------|


E|---------------------------|---------------------------|------------------------------|
B|------1---1----------------|------1---1----------------|------------------------------|
G|--------------3---3--------|--------------3---3--------|------------------------------|
D|----------------------5----|----------------------5----|---------5---5---3---3--------|
A|-3-------------------------|-3-------------------------|-------------------------5----|
E|---------------------------|---------------------------|-3---3------------------------|


E|------------------------------|------------------------------|--------------------------------------|
B|------------------------------|---------1---1----------------|------1---1---------------------------|
G|------------------------------|-----------------3---3--------|----------------------3-----------3---|
D|---------3---3---1---1--------|-------------------------5----|--------------3---5-------3---5-------|
A|-------------------------3----|-----3------------------------|-3------------------------------------|
E|-1---1------------------------|------------------------------|--------------------------------------|


E|--------|--------|--------|--------|--------|--------|--------|--------|---------------------------------|
B|--------|--------|--------|--------|--------|--------|--------|--------|---------------------------------|
G|--------|--------|--------|--------|--------|--------|--------|--------|---------------------------------|
D|--------|--------|--------|--------|--------|--------|--------|--------|---------3---3---1---1-----------|
A|--------|--------|--------|--------|--------|--------|--------|--------|-------------------------1---1---|
E|--------|--------|--------|--------|--------|--------|--------|--------|-1---1---------------------------|


E|---------------------------------|---------------------------|---------------------------|
B|---------------------------------|------1---1----------------|------1---1----------------|
G|---------------------------------|--------------3---3--------|--------------3---3--------|
D|---------3---3---1---1-----------|----------------------5----|----------------------5----|
A|-------------------------1---1---|-3-------------------------|-3-------------------------|
E|-1---1---------------------------|---------------------------|---------------------------|


E|---------------------------------|---------------------------------|------------------------------|
B|---------------------------------|---------------------------------|---------1---1----------------|
G|---------------------------------|---------------------------------|-----------------3---3--------|
D|---------5---5---3---3-----------|---------3---3---1---1-----------|-------------------------5----|
A|-------------------------5---5---|-------------------------1---1---|-----3------------------------|
E|-3---3---------------------------|-1---1---------------------------|------------------------------|


E|--------------------------------------|---------------------------|---------------------------|
B|------1---1---------------------------|------1---1----------------|------1---1----------------|
G|----------------------3-----------3---|--------------3---3--------|--------------3---3--------|
D|--------------3---5-------3---5-------|----------------------5----|----------------------5----|
A|-3------------------------------------|-3-------------------------|-3-------------------------|
E|--------------------------------------|---------------------------|---------------------------|


E|---------------------------|---------------------------|---------------------------|
B|------1---1----------------|------1---1----------------|---------------------------|
G|--------------3---3--------|--------------3---3--------|---------------------------|
D|----------------------5----|----------------------5----|------3---3---1---1--------|
A|-3-------------------------|-3-------------------------|----------------------3----|
E|---------------------------|---------------------------|-1-------------------------|


E|---------------------------|---------------------------|---------------------------|
B|---------------------------|------1---1----------------|------1---1----------------|
G|---------------------------|--------------3---3--------|--------------3---3--------|
D|------3---3---1---1--------|----------------------5----|----------------------5----|
A|----------------------3----|-3-------------------------|-3-------------------------|
E|-1-------------------------|---------------------------|---------------------------|


E|-------------------------------------|--------------------|--------|------4-------3---3-----|
B|-------------------------------------|--------------------|--------|------4-------3---3-----|
G|-------------------------------------|-2------------------|--------|------4-------3---3-----|
D|---------5---5---3---3-------3-------|-1------------------|--------|------3-------2---2-----|
A|-------------------------5-------5---|-3------------------|--------|------------------------|
E|-3---3-------------------------------|-1------------------|--------|------------------------|


E|-3------|-3------------------|
B|-3------|-3------------------|
G|-3------|-3------------------|
D|-2------|-2------------------|
A|--------|--------------------|
E|--------|--------------------|





Track 3: Untitled

G|--------|--------|--------|--------|--------|--------|--------|--------|--------|
D|--------|--------|--------|--------|--------|--------|--------|--------|--------|
A|--------|--------|--------|--------|--------|--------|--------|--------|--------|
E|--------|--------|--------|--------|--------|--------|--------|--------|--------|


G|--------|--------|--------|--------|--------|--------|--------|--------|--------|
D|--------|--------|--------|--------|--------|--------|--------|--------|--------|
A|--------|--------|--------|--------|--------|--------|--------|--------|--------|
E|--------|--------|--------|--------|--------|--------|--------|--------|--------|


G|--------|--------|--------|--------|--------|--------|--------|--------|--------|
D|--------|--------|--------|--------|--------|--------|--------|--------|--------|
A|--------|--------|--------|--------|--------|--------|--------|--------|--------|
E|--------|--------|--------|--------|--------|--------|--------|--------|--------|


G|--------|--------|--------|--------|--------|--------|--------|--------|--------|
D|--------|--------|--------|--------|--------|--------|--------|--------|--------|
A|--------|--------|--------|--------|--------|--------|--------|--------|--------|
E|--------|--------|--------|--------|--------|--------|--------|--------|--------|


G|--------|--------|--------|--------|--------|--------|--------|--------|--------|
D|--------|--------|--------|--------|--------|--------|--------|--------|--------|
A|--------|--------|--------|--------|--------|--------|--------|--------|--------|
E|--------|--------|--------|--------|--------|--------|--------|--------|--------|


G|--------|--------|--------|--------|--------|--------|--------|--------|--------|
D|--------|--------|--------|--------|--------|--------|--------|--------|--------|
A|--------|--------|--------|--------|--------|--------|--------|--------|--------|
E|--------|--------|--------|--------|--------|--------|--------|--------|--------|


G|--------|--------|--------|--------|--------|--------|--------|--------|--------|
D|--------|--------|--------|--------|--------|--------|--------|--------|--------|
A|--------|--------|--------|--------|--------|--------|--------|--------|--------|
E|--------|--------|--------|--------|--------|--------|--------|--------|--------|


G|--------|--------|--------|--------|--------|--------|--------|--------|--------|
D|--------|--------|--------|--------|--------|--------|--------|--------|--------|
A|--------|--------|--------|--------|--------|--------|--------|--------|--------|
E|--------|--------|--------|--------|--------|--------|--------|--------|--------|


G|--------|--------|--------|--------|--------|--------|--------|--------|--------|
D|--------|--------|--------|--------|--------|--------|--------|--------|--------|
A|--------|--------|--------|--------|--------|--------|--------|--------|--------|
E|--------|--------|--------|--------|--------|--------|--------|--------|--------|


G|--------|--------|--------|--------|--------|--------|--------|--------|--------|
D|--------|--------|--------|--------|--------|--------|--------|--------|--------|
A|--------|--------|--------|--------|--------|--------|--------|--------|--------|
E|--------|--------|--------|--------|--------|--------|--------|--------|--------|


G|--------|--------|--------|--------|--------|--------|--------|--------|
D|--------|--------|--------|--------|--------|--------|--------|--------|
A|--------|--------|--------|--------|--------|--------|--------|--------|
E|--------|--------|--------|--------|--------|--------|--------|--------|