Menu:

 

Search:

 

eric clapton - i shot the sheriff:

 



Title: I Shot The Sheriff
Artist: 
Album: The Cream of Clapton
Author: Eric Clapton


Track 1: Gtr. 2

E|-----3--3-----------3--3-------|-----3--3-----------3--3-------|---------------------------|
B|-----3--3-----------3--3-------|-----4--4-----------4--4-------|---------------------------|
G|-----3--3-----------3--3-------|-----3--3-----------3--3-------|---------------------------|
D|-------------------------------|-------------------------------|-----3---3---5---5---------|
A|-------------------------------|-------------------------------|---------------------------|
E|-------------------------------|-------------------------------|---------------------------|


E|----------------------|-----3--3-----------3--3-------|-----3--3-----------3--3-------|
B|----------------------|-----3--3-----------3--3-------|-----4--4-----------4--4-------|
G|----------------------|-----3--3-----------3--3-------|-----3--3-----------3--3-------|
D|----------------------|-------------------------------|-------------------------------|
A|----------------------|-------------------------------|-------------------------------|
E|-----3--3-------------|-------------------------------|-------------------------------|


E|---------------------------|----------------------|--------|--------|--------|--------|
B|---------------------------|----------------------|--------|--------|--------|--------|
G|---------------------------|----------------------|--------|--------|--------|--------|
D|-----3---3---5---5---------|----------------------|--------|--------|--------|--------|
A|---------------------------|----------------------|--------|--------|--------|--------|
E|---------------------------|-----3--3-------------|--------|--------|--------|--------|


E|--------|--------|--------|--------|--------|--------|--------|-------------|-----------3--3-------|
B|--------|--------|--------|--------|--------|--------|--------|-------------|-----------3--3-------|
G|--------|--------|--------|--------|--------|--------|--------|-------------|-----------3--3-------|
D|--------|--------|--------|--------|--------|--------|--------|-------------|----------------------|
A|--------|--------|--------|--------|--------|--------|--------|-------------|----------------------|
E|--------|--------|--------|--------|--------|--------|--------|-------------|----------------------|


E|-----3--3-----------3--3-------|-----3--3-----------------------|--------------------------|
B|-----3--3-----------4--4-------|-----4--4-----------------------|--------------------------|
G|-----3--3-----------3--3-------|-----3--3-----------------------|--------------------------|
D|-------------------------------|--------------------3---3---5---|-5------------------------|
A|-------------------------------|--------------------------------|--------------------------|
E|-------------------------------|--------------------------------|---------------3--3-------|


E|-----------3--3-------|-----3--3-----------3--3-------|-----3--3-----------------------|
B|-----------3--3-------|-----3--3-----------4--4-------|-----4--4-----------------------|
G|-----------3--3-------|-----3--3-----------3--3-------|-----3--3-----------------------|
D|----------------------|-------------------------------|--------------------3---3---5---|
A|----------------------|-------------------------------|--------------------------------|
E|----------------------|-------------------------------|--------------------------------|


E|--------------------------|-------------|-----------3--3------3--3--|-----3--3------3---------|
B|--------------------------|-------------|-----------3--3------3--3--|-----3--3------3---------|
G|--------------------------|-------------|-----------3--3------3--3--|-----3--3------3---------|
D|-5------------------------|-------------|---------------------------|-------------------------|
A|--------------------------|-------------|---------------------------|-------------------------|
E|---------------3--3-------|-------------|---------------------------|-------------------------|


E|-----------3--3-------|-----3--3-------------|-----------3--3------3--3--|-----3--3------3---------|
B|-----------3--3-------|-----3--3-------------|-----------3--3------3--3--|-----3--3------3---------|
G|-----------3--3-------|-----3--3-------------|-----------3--3------3--3--|-----3--3------3---------|
D|----------------------|----------------------|---------------------------|-------------------------|
A|----------------------|----------------------|---------------------------|-------------------------|
E|----------------------|----------------------|---------------------------|-------------------------|


E|-----------3--3-------|-----3--3-------------|-----------3--3-------|-----3--3-------------|
B|-----------3--3-------|-----3--3-------------|-----------3--3-------|-----3--3-------------|
G|-----------3--3-------|-----3--3-------------|-----------3--3-------|-----3--3-------------|
D|----------------------|----------------------|----------------------|----------------------|
A|----------------------|----------------------|----------------------|----------------------|
E|----------------------|----------------------|----------------------|----------------------|


E|-------------|-----------3--3-------|-----3--3-----------3--3-------|-----3--3-----------------------|
B|-------------|-----------3--3-------|-----3--3-----------4--4-------|-----4--4-----------------------|
G|-------------|-----------3--3-------|-----3--3-----------3--3-------|-----3--3-----------------------|
D|-------------|----------------------|-------------------------------|--------------------3---3---5---|
A|-------------|----------------------|-------------------------------|--------------------------------|
E|-------------|----------------------|-------------------------------|--------------------------------|


E|--------------------------|-----------3--3-------|-----3--3-----------3--3-------|
B|--------------------------|-----------3--3-------|-----3--3-----------4--4-------|
G|--------------------------|-----------3--3-------|-----3--3-----------3--3-------|
D|-5------------------------|----------------------|-------------------------------|
A|--------------------------|----------------------|-------------------------------|
E|---------------3--3-------|----------------------|-------------------------------|


E|-----3--3-----------------------|--------------------------|-------------|-----------3--3------3--3--|
B|-----4--4-----------------------|--------------------------|-------------|-----------3--3------3--3--|
G|-----3--3-----------------------|--------------------------|-------------|-----------3--3------3--3--|
D|--------------------3---3---5---|-5------------------------|-------------|---------------------------|
A|--------------------------------|--------------------------|-------------|---------------------------|
E|--------------------------------|---------------3--3-------|-------------|---------------------------|


E|-----3--3------3---------|-----------3--3-------|-----3--3-------------|-----------3--3------3--3--|
B|-----3--3------3---------|-----------3--3-------|-----3--3-------------|-----------3--3------3--3--|
G|-----3--3------3---------|-----------3--3-------|-----3--3-------------|-----------3--3------3--3--|
D|-------------------------|----------------------|----------------------|---------------------------|
A|-------------------------|----------------------|----------------------|---------------------------|
E|-------------------------|----------------------|----------------------|---------------------------|


E|-----3--3------3---------|-----------3--3-------|-----3--3-------------|-----------3--3-------|
B|-----3--3------3---------|-----------3--3-------|-----3--3-------------|-----------3--3-------|
G|-----3--3------3---------|-----------3--3-------|-----3--3-------------|-----------3--3-------|
D|-------------------------|----------------------|----------------------|----------------------|
A|-------------------------|----------------------|----------------------|----------------------|
E|-------------------------|----------------------|----------------------|----------------------|


E|-----3--3-------------|--------|--------|--------|-----------3--3-----------|-3--3-----------3--3-----------|
B|-----3--3-------------|--------|--------|--------|-----------3--3-----------|-3--3-----------4--4-----------|
G|-----3--3-------------|--------|--------|--------|-----------3--3-----------|-3--3-----------3--3-----------|
D|----------------------|--------|--------|--------|--------------------------|-------------------------------|
A|----------------------|--------|--------|--------|--------------------------|-------------------------------|
E|----------------------|--------|--------|--------|--------------------------|-------------------------------|


E|-3--3---------------------------|-----------------------------|-----------3--3-----------|
B|-4--4---------------------------|-----------------------------|-----------3--3-----------|
G|-3--3---------------------------|-----------------------------|-----------3--3-----------|
D|----------------3---3---5---5---|-----------------------------|--------------------------|
A|--------------------------------|-----------------------------|--------------------------|
E|--------------------------------|--------------3--3-----------|--------------------------|


E|-3--3-----------3--3-----------|-3--3---------------------------|-----------------------------|
B|-3--3-----------4--4-----------|-4--4---------------------------|-----------------------------|
G|-3--3-----------3--3-----------|-3--3---------------------------|-----------------------------|
D|-------------------------------|----------------3---3---5---5---|-----------------------------|
A|-------------------------------|--------------------------------|-----------------------------|
E|-------------------------------|--------------------------------|--------------3--3-----------|


E|--------------|-----------3--3------3--3------|-3--3------3----------|-----------3--3-----------|
B|--------------|-----------3--3------3--3------|-3--3------3----------|-----------3--3-----------|
G|--------------|-----------3--3------3--3------|-3--3------3----------|-----------3--3-----------|
D|--------------|-------------------------------|----------------------|--------------------------|
A|--------------|-------------------------------|----------------------|--------------------------|
E|--------------|-------------------------------|----------------------|--------------------------|


E|-3--3--------------|-----------3--3------3--3------|-3--3------3----------|-----------3--3-----------|
B|-3--3--------------|-----------3--3------3--3------|-3--3------3----------|-----------3--3-----------|
G|-3--3--------------|-----------3--3------3--3------|-3--3------3----------|-----------3--3-----------|
D|-------------------|-------------------------------|----------------------|--------------------------|
A|-------------------|-------------------------------|----------------------|--------------------------|
E|-------------------|-------------------------------|----------------------|--------------------------|


E|-3--3--------------|-----------3--3-----------|-3--3--------------|-----------------|
B|-3--3--------------|-----------3--3-----------|-3--3--------------|-----------------|
G|-3--3--------------|-----------3--3-----------|-3--3--------------|-----------------|
D|-------------------|--------------------------|-------------------|-----------------|
A|-------------------|--------------------------|-------------------|-----------------|
E|-------------------|--------------------------|-------------------|-----------------|


E|----------------|-3--3-----------3--3-----------|-3--3-----------3--3-----------|
B|----------------|-3--3-----------3--3-----------|-4--4-----------4--4-----------|
G|----------------|-3--3-----------3--3-----------|-3--3-----------3--3-----------|
D|----------------|-------------------------------|-------------------------------|
A|----------------|-------------------------------|-------------------------------|
E|----------------|-------------------------------|-------------------------------|


E|---------------------------|----------------------|-3--3-----------3--3-----------|
B|---------------------------|----------------------|-3--3-----------3--3-----------|
G|---------------------------|----------------------|-3--3-----------3--3-----------|
D|-3---3---5---5-------------|----------------------|-------------------------------|
A|---------------------------|----------------------|-------------------------------|
E|---------------------------|-3--3-----------------|-------------------------------|


E|-3--3-----------3--3-----------|---------------------------|----------------------|
B|-4--4-----------4--4-----------|---------------------------|----------------------|
G|-3--3-----------3--3-----------|---------------------------|----------------------|
D|-------------------------------|-3---3---5---5-------------|----------------------|
A|-------------------------------|---------------------------|----------------------|
E|-------------------------------|---------------------------|-3--3-----------------|


E|----------------|-3--3------3--3------3--3------3-------|----------------|-3--3-----------3--3-----------|
B|----------------|-3--3------3--3------3--3------3-------|----------------|-3--3-----------3--3-----------|
G|----------------|-3--3------3--3------3--3------3-------|----------------|-3--3-----------3--3-----------|
D|----------------|---------------------------------------|----------------|-------------------------------|
A|----------------|---------------------------------------|----------------|-------------------------------|
E|----------------|---------------------------------------|----------------|-------------------------------|


E|----------------|-3--3------3--3------3--3------3-------|----------------|-3--3-----------3--3-----------|
B|----------------|-3--3------3--3------3--3------3-------|----------------|-3--3-----------3--3-----------|
G|----------------|-3--3------3--3------3--3------3-------|----------------|-3--3-----------3--3-----------|
D|----------------|---------------------------------------|----------------|-------------------------------|
A|----------------|---------------------------------------|----------------|-------------------------------|
E|----------------|---------------------------------------|----------------|-------------------------------|


E|----------------|-3--3-----------3--3-----------|----------------|-3--3-----------3--3-----------|
B|----------------|-3--3-----------3--3-----------|----------------|-3--3-----------3--3-----------|
G|----------------|-3--3-----------3--3-----------|----------------|-3--3-----------3--3-----------|
D|----------------|-------------------------------|----------------|-------------------------------|
A|----------------|-------------------------------|----------------|-------------------------------|
E|----------------|-------------------------------|----------------|-------------------------------|





Track 2: Gtr. 1

E|-----0--3------3-------3--3------3---|-----3--3------3-------3--3------3---|-3---0--3------3-------3--3--0--0--3---|
B|-----0--3------3-------3--3------3---|-----4--4------4-------4--4------4---|-3---0--3------3-------3--3--0--0--3---|
G|-----0--3------3-------3--3------3---|-----3--3------3-------3--3------3---|-3---0--3------3-------3--3--0--0--3---|
D|-------------------------------------|-----5--5------5-------5--5------5---|---------------------------------------|
A|-------------------------------------|-3-----------------------------------|---------------------------------------|
E|-3-----------------------------------|-------------------------------------|---------------------------------------|


E|-0--0--3--0--0--3--0--0--3--0--0--3--0--0--3--3--|-----0--3--0--3--0--0--3--3--0--3--0--0--3--0--|
B|-0--0--3--0--0--3--0--0--3--0--0--3--0--0--3--3--|-----0--3--0--3--0--0--3--3--0--3--0--0--3--0--|
G|-0--0--3--0--0--3--0--0--3--0--0--3--0--0--3--3--|-----0--3--0--3--0--0--3--3--0--3--0--0--3--0--|
D|-------------------------------------------------|-----------------------------------------------|
A|-------------------------------------------------|-----------------------------------------------|
E|-------------------------------------------------|-3---------------------------------------------|


E|-----3--3--0--3--0--0--3--0--0--3------3--3--|-----3--0--0--3--0--0--0--0--0--3--0--0--3--3--|
B|-----4--4--0--4--0--0--4--0--0--4------4--4--|-----3--0--0--3--0--0--0--0--0--3--0--0--3--3--|
G|-----3--3--0--3--0--0--3--0--0--3------3--3--|-----3--0--0--3--0--0--0--0--0--3--0--0--3--3--|
D|---------------------------------------------|-----------------------------------------------|
A|-3-------------------------------------------|-----------------------------------------------|
E|---------------------------------------------|-----------------------------------------------|


E|-0--0--0--0--0--3--0--0--3--0--0--3--0--0--3---|------------------------|-----3--3-----------5-6--6-------|
B|-0--0--0--0--0--3--0--0--3--0--0--3--0--0--3---|---------6---------6----|-----3--3-----------7-8--8-------|
G|-0--0--0--0--0--3--0--0--3--0--0--3--0--0--3---|---------6---------5----|-----3--3-----------6-7--7-------|
D|-----------------------------------------------|---------8---------7----|---------------------------------|
A|-----------------------------------------------|-6---6--------5---------|---------------------------------|
E|-----------------------------------------------|------------------------|-3-------------------------------|


E|------6------------5--5------|-----5-6--6-----------5-6--6-------|---------6--6-----------5--5------|
B|------6------------6--6------|-----7-8--8-----------7-8--8-------|---------6--6-----------6--6------|
G|------6------------5--5------|-----6-7--7-----------6-7--7-------|---------6--6-----------5--5------|
D|------8------------7--7------|-----------------------------------|---------8--8-----------7--7------|
A|-6------------5--------------|-----------------------------------|-----6----------------------------|
E|-----------------------------|-----------------------------------|----------------------------------|


E|-----10-10----------10-10---------|--------------------------|-----6--6-----------10-10------|
B|-----11-11----------11-11---------|------6---------5--5------|-----8--8-----------11-11------|
G|-----12-12----------12-12---------|------6---------6--6------|-----7--7-----------12-12------|
D|----------------------------------|------8---------7--7------|-------------------------------|
A|------------------------------5---|-6---------5--------------|-------------------------------|
E|----------------------------------|--------------------------|-------------------------------|


E|------6--6-----------5--5------|-----10-10----------10-10------|---------------------------------------------|
B|------6--6-----------6--6------|-----11-11----------11-11------|---------------------------------------------|
G|------6--6-----------5--5------|-----12-12----------12-12------|---------------------------------------------|
D|------8--8-----------7--7------|-------------------------------|-3-5---5-------------------------------------|
A|-6----6--6------5----5--5------|-------------------------------|----------3--3---3-5---5--5-3---3--1---3-5---|
E|-------------------------------|-------------------------------|---------------------------------------------|


E|---------------------|-----------0--3------3---|-----3--3------3-------3--3------3---|
B|---------------------|-----------0--3------3---|-----3--3------3-------4--4------4---|
G|---------------------|-----------0--3------3---|-----3--3------3-------3--3------3---|
D|---------------------|-------------------------|-----------------------5--5------5---|
A|-3----1--------------|-------------------------|-------------------3-----------------|
E|-----------3---3-----|-------3-----------------|-------------------------------------|


E|-----3--3------3---3---0--3------3---|-----3--3--0--0--3---0--0--3--0--0--3--0--0--|
B|-----4--4------4---3---0--3------3---|-----3--3--0--0--3---0--0--3--0--0--3--0--0--|
G|-----3--3------3---3---0--3------3---|-----3--3--0--0--3---0--0--3--0--0--3--0--0--|
D|-----5--5------5---------------------|---------------------------------------------|
A|-------------------------------------|---------------------------------------------|
E|-------------------------------------|---------------------------------------------|


E|-3--0--0--3--0--0--3--3------0--3--0--3--0--0--|-3--3--0--3--0--0--3--0------3--3--0--3--0--0--|
B|-3--0--0--3--0--0--3--3------0--3--0--3--0--0--|-3--3--0--3--0--0--3--0------4--4--0--4--0--0--|
G|-3--0--0--3--0--0--3--3------0--3--0--3--0--0--|-3--3--0--3--0--0--3--0------3--3--0--3--0--0--|
D|-----------------------------------------------|-----------------------------------------------|
A|-----------------------------------------------|-------------------------3---------------------|
E|-------------------------3---------------------|-----------------------------------------------|


E|-3--0--0--3------3--3------3--0--0--3--0--0--|-0--0--0--3--0--0--3--3--0--0--0--0--0--3--0--0--|
B|-4--0--0--4------4--4------3--0--0--3--0--0--|-0--0--0--3--0--0--3--3--0--0--0--0--0--3--0--0--|
G|-3--0--0--3------3--3------3--0--0--3--0--0--|-0--0--0--3--0--0--3--3--0--0--0--0--0--3--0--0--|
D|---------------------------------------------|-------------------------------------------------|
A|---------------------------------------------|-------------------------------------------------|
E|---------------------------------------------|-------------------------------------------------|


E|-3--0--0--3--0--0--3--------6--6------|------5--5----------10-10-----10-10-|----10-10-10-----10---------6--6------|
B|-3--0--0--3--0--0--3--------6--6------|------6--6----------11-11-----11-11-|----11-11-11-----11---------6--6------|
G|-3--0--0--3--0--0--3--------6--6------|------5--5----------12-12-----12-12-|-------12-12-----12---------6--6------|
D|----------------------------8--8------|------7--7--------------------------|----------------------------8--8------|
A|-----------------------6----6--6------|-5----5--5--------------------------|-----------------------6----6--6------|
E|--------------------------------------|------------------------------------|--------------------------------------|


E|------5--5----------10-10-----10-10-|----10-10-10-----------6--6------|------5--5----------10-10-----10-10-|
B|------6--6----------11-11-----11-11-|----11-11-11-----------6--6------|------6--6----------11-11-----11-11-|
G|------5--5----------12-12-----12-12-|-------12-12-----------6--6------|------5--5----------12-12-----12-12-|
D|------7--7--------------------------|-----------------------8--8------|------7--7--------------------------|
A|-5----5--5--------------------------|------------------6----6--6------|-5----5--5--------------------------|
E|------------------------------------|---------------------------------|------------------------------------|


E|----0--10-10-----3----------6--6------|------5--5----------10-10------|-----10-10------------|
B|----0--11-11-----3----------6--6------|------6--6----------11-11------|-----11-11------------|
G|----0--12-12-----3----------6--6------|------5--5----------12-12------|-----12-12------------|
D|----------------------------8--8------|------7--7---------------------|----------------------|
A|-----------------------6----6--6------|-5----5--5---------------------|----------------------|
E|--------------------------------------|-------------------------------|----------------------|


E|-------------|-------------|-------------|-----------0--3------3---|-----3--3------3-------3--3------3---|
B|-------------|-------------|-------------|-----------0--3------3---|-----3--3------3-------4--4------4---|
G|-------------|-------------|-------------|-----------0--3------3---|-----3--3------3-------3--3------3---|
D|-------------|-------------|-------------|-------------------------|-----------------------5--5------5---|
A|-------------|-------------|-------------|-------------------------|-------------------3-----------------|
E|-------------|-------------|-------------|-------3-----------------|-------------------------------------|


E|-----3--3------3---3---0--3------3---|-----3--3--0--0--3---0--0--3--0--0--3--0--0--|
B|-----4--4------4---3---0--3------3---|-----3--3--0--0--3---0--0--3--0--0--3--0--0--|
G|-----3--3------3---3---0--3------3---|-----3--3--0--0--3---0--0--3--0--0--3--0--0--|
D|-----5--5------5---------------------|---------------------------------------------|
A|-------------------------------------|---------------------------------------------|
E|-------------------------------------|---------------------------------------------|


E|-3--0--0--3--0--0--3--3------0--3--0--3--0--0--|-3--3--0--3--0--0--3--0------3--3--0--3--0--0--|
B|-3--0--0--3--0--0--3--3------0--3--0--3--0--0--|-3--3--0--3--0--0--3--0------4--4--0--4--0--0--|
G|-3--0--0--3--0--0--3--3------0--3--0--3--0--0--|-3--3--0--3--0--0--3--0------3--3--0--3--0--0--|
D|-----------------------------------------------|-----------------------------------------------|
A|-----------------------------------------------|-------------------------3---------------------|
E|-------------------------3---------------------|-----------------------------------------------|


E|-3--0--0--3------3--3------3--0--0--3--0--0--|-0--0--0--3--0--0--3--3--0--0--0--0--0--3--0--0--|
B|-4--0--0--4------4--4------3--0--0--3--0--0--|-0--0--0--3--0--0--3--3--0--0--0--0--0--3--0--0--|
G|-3--0--0--3------3--3------3--0--0--3--0--0--|-0--0--0--3--0--0--3--3--0--0--0--0--0--3--0--0--|
D|---------------------------------------------|-------------------------------------------------|
A|---------------------------------------------|-------------------------------------------------|
E|---------------------------------------------|-------------------------------------------------|


E|-3--0--0--3--0--0--3-------------|------------------------|---------------------------|
B|-3--0--0--3--0--0--3--------6----|------6--------18---18--|---------------------------|
G|-3--0--0--3--0--0--3--------6----|------5--------17---17--|-----17--15-----------6----|
D|----------------------------8----|------7-----------------|------------17--------8----|
A|-----------------------6---------|-5----------------------|-----------------6---------|
E|---------------------------------|------------------------|---------------------------|


E|------------------------|-----------------------------|----------------------6---6--|
B|------6-----------------|------------------------6----|------6--------6---6--6---6--|
G|------5--------5---5----|-3----------------------6----|------5--------5---5---------|
D|------7-----------------|----5---3---------------8----|------7----------------------|
A|-5----------------------|-----------5---3---6---------|-5---------------------------|
E|------------------------|-----------------------------|-----------------------------|


E|------6-----------------6----|---------5--5--------------------------|--------------------------6----|
B|-6----6--6--------------6----|---------6--6--------------------------|--------------------------6----|
G|-5-------5--5--5--------6----|---------5--5--------------------------|--------------------------6----|
D|------------------------8----|---------7--7-------------------3---0--|-5--3---------------------8----|
A|-------------------6---------|-5---5---5--5---------3--5---5---------|-------5---3--1------6---------|
E|-----------------------------|---------------------------------------|-----------------3-------------|


E|---------5--5----------2-3---3--3--0--0--|-3--0--3--3--0--0--3-------------------------|
B|---------6--6----------2-3---3--3--0--0--|-3--0--3--3--0--0--3-------------------------|
G|---------5--5----------2-3---3--3--0--0--|-3--0--3--3--0--0--3-------------------------|
D|---------7--7----------------------------|-----------------------3-5---5---------------|
A|-5---5---5--5----------------------------|--------------------------------3--3---3-5---|
E|-----------------------------------------|---------------------------------------------|


E|-------------------------------------|-------------|-------------|--------------0--3------3-------|
B|-------------------------------------|-------------|-------------|--------------0--3------3-------|
G|-------------------------------------|-------------|-------------|--------------0--3------3-------|
D|-------------------------------------|-------------|-------------|--------------------------------|
A|-5--5-3---3--1---3-5---3----1--------|-------------|-------------|--------------------------------|
E|---------------------------------3---|-3-----3-----|-------3-----|-3----3---3---------------------|


E|-3--3------3-------3--3------3-------|-3--3------3---3---0--3------3-------|-3--3--0--0--3---0--0--3--0--0--3--0--0--3--0--|
B|-3--3------3-------4--4------4-------|-4--4------4---3---0--3------3-------|-3--3--0--0--3---0--0--3--0--0--3--0--0--3--0--|
G|-3--3------3-------3--3------3-------|-3--3------3---3---0--3------3-------|-3--3--0--0--3---0--0--3--0--0--3--0--0--3--0--|
D|-------------------5--5------5-------|-5--5------5-------------------------|-----------------------------------------------|
A|---------------3---------------------|-------------------------------------|-----------------------------------------------|
E|-------------------------------------|-------------------------------------|-----------------------------------------------|


E|-0--3--0--0--3--3------0--3--0--3--0--0--3--3--|-0--3--0--0--3--0------3--3--0--3--0--0--3--0--|
B|-0--3--0--0--3--3------0--3--0--3--0--0--3--3--|-0--3--0--0--3--0------4--4--0--4--0--0--4--0--|
G|-0--3--0--0--3--3------0--3--0--3--0--0--3--3--|-0--3--0--0--3--0------3--3--0--3--0--0--3--0--|
D|-----------------------------------------------|-----------------------------------------------|
A|-----------------------------------------------|-------------------3---------------------------|
E|-------------------3---------------------------|-----------------------------------------------|


E|-0--3------3--3------3--0--0--3--0--0--0--0--|-0--3--0--0--3--3--0--0--0--0--0--3--0--0--3--0--|
B|-0--4------4--4------3--0--0--3--0--0--0--0--|-0--3--0--0--3--3--0--0--0--0--0--3--0--0--3--0--|
G|-0--3------3--3------3--0--0--3--0--0--0--0--|-0--3--0--0--3--3--0--0--0--0--0--3--0--0--3--0--|
D|---------------------------------------------|-------------------------------------------------|
A|---------------------------------------------|-------------------------------------------------|
E|---------------------------------------------|-------------------------------------------------|


E|-0--3--0--0--3-----------6--------|-----5--5------------------------------|---------------------6--6--------|
B|-0--3--0--0--3-----------6--------|-----6--6------------------------------|---------------------6--6--------|
G|-0--3--0--0--3-----------6--------|-----5--5------------------------------|---------------------6--6--------|
D|-------------------------8--------|-----7--7----------15-17---15----------|---------------------8--8--------|
A|-----------------6---6---6----5---|-----5--5---------------------17-15-13-|-15--13------6---6---6--6----5---|
E|----------------------------------|---------------------------------------|--------15-----------------------|


E|-----5--5------------------------------|-----------------------------|--------------------------------|
B|-----6--6------------------------------|--------------------6--------|-----6--------------------------|
G|-----5--5------------15--17--15--------|--------------------6--------|-----5--------3---3--5----3--5--|
D|-----7--7---------17-------------7--15-|--------------------8--------|-----7--------------------------|
A|---------------------------------------|-1715--13------6----6----5---|-----5--------------------------|
E|---------------------------------------|----------15-----------------|--------------------------------|


E|-------------------------------|------------------------------|---------------6--------|
B|-3-----------------------------|-----6--------6---6--6----6---|-6---8---------6--------|
G|----5--5--3-----------6--------|-----5------------------------|---------------6--------|
D|-------------5--------8--------|-----7------------------------|---------------8--------|
A|-----------------6----6----5---|-5---5------------------------|----------6----6----5---|
E|-------------------------------|------------------------------|------------------------|


E|-----5--5------0---3--3--0--3------------|---------------------------------------|
B|-----6--6------0---3--3--0--3------------|---------------------------------------|
G|-----5--5------0---3--3--0--3------5--3--|---------------------------------------|
D|-----7--7--------------------------------|-5---5----3-5---5----------------------|
A|-----5--5--------------------------------|-------------------3--3---3-5---5--5-3-|
E|-----------------------------------------|---------------------------------------|


E|-----------------------------------|----------------|-0--3------3-------3--3------3-------|
B|-----------------------------------|----------------|-0--3------3-------3--3------3-------|
G|-----------------------------------|----------------|-0--3------3-------3--3------3-------|
D|-----------------------------------|----------------|-------------------------------------|
A|----3--1---3-5---3----1------------|----------------|---------------------------------3---|
E|---------------------------3---3---|------------3---|-------------------------------------|


E|-3--3------3-------3--3------3---3---|-0--3------3-------3--3--0--0--3---0--0--|
B|-4--4------4-------4--4------4---3---|-0--3------3-------3--3--0--0--3---0--0--|
G|-3--3------3-------3--3------3---3---|-0--3------3-------3--3--0--0--3---0--0--|
D|-5--5------5-------5--5------5-------|-----------------------------------------|
A|-------------------------------------|-----------------------------------------|
E|-------------------------------------|-----------------------------------------|


E|-3--0--0--3--0--0--3--0--0--3--0--0--3--3------|-0--3--0--3--0--0--3--3--0--3--0--0--3--0------|
B|-3--0--0--3--0--0--3--0--0--3--0--0--3--3------|-0--3--0--3--0--0--3--3--0--3--0--0--3--0------|
G|-3--0--0--3--0--0--3--0--0--3--0--0--3--3------|-0--3--0--3--0--0--3--3--0--3--0--0--3--0------|
D|-----------------------------------------------|-----------------------------------------------|
A|-----------------------------------------------|-------------------------------------------3---|
E|-------------------------------------------3---|-----------------------------------------------|


E|-3--3--0--3--0--0--3--0--0--3------3--3------|-3--0--0--3--0--0--0--0--0--3--0--0--3--3--0--0--|
B|-4--4--0--4--0--0--4--0--0--4------4--4------|-3--0--0--3--0--0--0--0--0--3--0--0--3--3--0--0--|
G|-3--3--0--3--0--0--3--0--0--3------3--3------|-3--0--0--3--0--0--0--0--0--3--0--0--3--3--0--0--|
D|---------------------------------------------|-------------------------------------------------|
A|---------------------------------------------|-------------------------------------------------|
E|---------------------------------------------|-------------------------------------------------|


E|-0--0--0--3--0--0--3--0--0--3--0--0--3-------|------------------5--------|------------------------------------|
B|-0--0--0--3--0--0--3--0--0--3--0--0--3-------|-----6------------6--------|------------------------------------|
G|-0--0--0--3--0--0--3--0--0--3--0--0--3-------|-----6------------5--------|-----5----5--5--5--3----------------|
D|---------------------------------------------|-----8------------7--------|----------------------5--3--5-------|
A|---------------------------------------------|-----6----5---5---5--------|--------------------------------6---|
E|---------------------------------------------|---------------------------|------------------------------------|


E|-----------------------5--5----------|-5--6--6--6--0--0--5--6--6--6--0---6-------|
B|-----6--6--------------6--6----------|-7--8--8--8--0--0--7--8--8--8--0---8-------|
G|-----6--6--------------5--5----------|-6--7--7--7--0--0--6--7--7--7--0---7-------|
D|-----8--8------7---7---7--7----------|-------------------------------------------|
A|-----6--6------5---5---5--5----------|---------------------------------------6---|
E|-------------------------------------|-------------------------------------------|


E|-----------------------5--5----------|-----------------------------------------|
B|-----6--6--------------5--5----------|-----------------------------------------|
G|-----6--6--------------5--5----------|-----------------------------------------|
D|-----8--8--------------7--7----------|-5------3------5--3-----3------3--5------|
A|-----6--6------5---5---5--5----------|---------------------5---------------6---|
E|-------------------------------------|-----------------------------------------|


E|---------------------------|-----------------------------------------|---------------------------|
B|------------------6--------|-----------------------------------------|-----6------------6--------|
G|-----6------------5--------|-----------------------------------------|-----6------------5--------|
D|-----8------------7--------|----------3-----0--5--3------------------|-----8------------7--------|
A|-----6----5---5---5--------|-3--4--5-----------------5---3-------6---|-6---6----5---5---5--------|
E|---------------------------|-----------------------------------------|---------------------------|


E|---------------------------------------|------------------5--5----------|-------------------------------------|
B|---------------------------------------|-----6------------5--5----------|-------------------------------------|
G|---------------------------------------|-----6------------5--5----------|-------------------------------------|
D|---------------------------------------|-----8------------7--7----------|-3--5------5-------3--5------5-------|
A|-----------------------------------6---|-----6----5---5---5--5----------|-------------------------------------|
E|-1--3------3------1--2--3------3-------|--------------------------------|-------------------------------------|





Track 3: Gtr. 1

G|--------|--------|--------|--------|--------|--------|--------|--------|--------|
D|--------|--------|--------|--------|--------|--------|--------|--------|--------|
A|--------|--------|--------|--------|--------|--------|--------|--------|--------|
E|--------|--------|--------|--------|--------|--------|--------|--------|--------|


G|--------|--------|--------|--------|--------|--------|--------|--------|--------|
D|--------|--------|--------|--------|--------|--------|--------|--------|--------|
A|--------|--------|--------|--------|--------|--------|--------|--------|--------|
E|--------|--------|--------|--------|--------|--------|--------|--------|--------|


G|--------|--------|--------|--------|--------|--------|--------|--------|--------|
D|--------|--------|--------|--------|--------|--------|--------|--------|--------|
A|--------|--------|--------|--------|--------|--------|--------|--------|--------|
E|--------|--------|--------|--------|--------|--------|--------|--------|--------|


G|--------|--------|--------|--------|--------|--------|--------|--------|--------|
D|--------|--------|--------|--------|--------|--------|--------|--------|--------|
A|--------|--------|--------|--------|--------|--------|--------|--------|--------|
E|--------|--------|--------|--------|--------|--------|--------|--------|--------|


G|--------|--------|--------|--------|--------|--------|--------|--------|--------|
D|--------|--------|--------|--------|--------|--------|--------|--------|--------|
A|--------|--------|--------|--------|--------|--------|--------|--------|--------|
E|--------|--------|--------|--------|--------|--------|--------|--------|--------|


G|--------|--------|--------|--------|--------|--------|--------|--------|--------|
D|--------|--------|--------|--------|--------|--------|--------|--------|--------|
A|--------|--------|--------|--------|--------|--------|--------|--------|--------|
E|--------|--------|--------|--------|--------|--------|--------|--------|--------|


G|--------|--------|--------|--------|--------|--------|--------|--------|--------|
D|--------|--------|--------|--------|--------|--------|--------|--------|--------|
A|--------|--------|--------|--------|--------|--------|--------|--------|--------|
E|--------|--------|--------|--------|--------|--------|--------|--------|--------|


G|--------|--------|--------|--------|--------|--------|--------|--------|--------|
D|--------|--------|--------|--------|--------|--------|--------|--------|--------|
A|--------|--------|--------|--------|--------|--------|--------|--------|--------|
E|--------|--------|--------|--------|--------|--------|--------|--------|--------|


G|--------|--------|--------|--------|--------|--------|--------|--------|--------|
D|--------|--------|--------|--------|--------|--------|--------|--------|--------|
A|--------|--------|--------|--------|--------|--------|--------|--------|--------|
E|--------|--------|--------|--------|--------|--------|--------|--------|--------|


G|--------|--------|--------|--------|--------|--------|--------|--------|--------|
D|--------|--------|--------|--------|--------|--------|--------|--------|--------|
A|--------|--------|--------|--------|--------|--------|--------|--------|--------|
E|--------|--------|--------|--------|--------|--------|--------|--------|--------|


G|--------|--------|--------|--------|--------|--------|--------|--------|--------|
D|--------|--------|--------|--------|--------|--------|--------|--------|--------|
A|--------|--------|--------|--------|--------|--------|--------|--------|--------|
E|--------|--------|--------|--------|--------|--------|--------|--------|--------|


G|--------|--------|--------|--------|
D|--------|--------|--------|--------|
A|--------|--------|--------|--------|
E|--------|--------|--------|--------|