Menu:

 

Search:

 

eric clapton - hideaway:

 



Title: Hideaway
Artist: 
Album: John Mayall's Blues Breakers With Eric Clapton
Author: Freddie King & Sonny Thompson


Track 1: Eric Clapton (Gtr.1)

E|---------------------------|--------------------|-----------------------------------------|
B|---------------------------|--------------------|-----------------------------------------|
G|---------------9-------9---|-11--11-------------|-----------------9---11--11--11--9-------|
D|-----------9---9---11------|--------------------|-----9---9---11----------------------11--|
A|---------------------------|--------------------|-----------------------------------------|
E|---------------------------|--------------------|-----------------------------------------|


E|-----------------|-------------------------------------------------|-----------------|
B|-----------------|-------------------------------------------------|-----------------|
G|-9----11---------|---------9-----------9-----------9-----------9---|-9---------------|
D|-----------------|-9---11------9---11------9---11------9---11------|-----------------|
A|-----------------|-------------------------------------------------|-----------------|
E|-----------------|-------------------------------------------------|-----------------|


E|-----------------------------------------|------------------------|-----------------------0---|
B|-----------------------------------------|------------------------|-----------0---0---2-------|
G|-----------------9---11--11--11--9-------|-9--------------8---7---|-7-------------------------|
D|-----9---9---11----------------------11--|----------------7---6---|-6-------------------------|
A|-----------------------------------------|----------------8---7---|-7-------------------------|
E|-----------------------------------------|------------------------|---------------------------|


E|-2---2---2---2---2---4---0---2---0-------|---------0-----------0-----------0---------------|
B|-------------------------------------2---|-0---2-------0---2-------0---2-------0-------0---|
G|-----------------------------------------|-----------------------------------------2-------|
D|-----------------------------------------|-------------------------------------------------|
A|-----------------------------------------|-------------------------------------------------|
E|-----------------------------------------|-------------------------------------------------|


E|---------0--------------------------------|-0----------------------------|---------------------|
B|---------------------3--------------------|-0-------0--------------------|---------------------|
G|-0---0-------------------4----2---0-------|-------------2---2----2---2---|-0--------------1----|
D|--------------------------------------2---|-----2------------------------|------2----2---------|
A|------------------------------------------|------------------------------|---------------------|
E|------------------------------------------|------------------------------|---------------------|


E|--------------------------------------|-----------------------------------------------|
B|----------3-------3-------3-------3---|-3-----3------3------3---3-----3-------3-------|
G|------4---4---4---4---4---4---4---4---|-4--4--4---4--4---4--4---4--4--4----4--4---4---|
D|--------------------------------------|-----------------------------------------------|
A|--------------------------------------|-----------------------------------------------|
E|--------------------------------------|-----------------------------------------------|


E|--------------------------------------------|---------------------------|------------------------|
B|-3------3-------3---------------------------|---------------------------|------5----5----7---5---|
G|-4---4--4---4---4----2---0---2--2--2--0-----|-2---0---2----2---0--------|------------------------|
D|-----------------------------------------2--|---------------------------|------------------------|
A|--------------------------------------------|---------------------------|------------------------|
E|--------------------------------------------|---------------------------|------------------------|


E|------------------------|---------------------------------------------|-------------------------------------------------|
B|-7-------5----7---------|-------------3---3---3---3---3-------3---3---|-3---3---3---3---3---3---3---3---3---3---3---3---|
G|-----6------------------|-----2---4---4---4---4---4---4---4---4---4---|-4---4---4---4---4---4---4---4---4---4---4---4---|
D|------------------------|---------------------------------------------|-------------------------------------------------|
A|------------------------|---------------------------------------------|-------------------------------------------------|
E|------------------------|---------------------------------------------|-------------------------------------------------|


E|-------------------------------------------------|---------------------------------------------|
B|-3---3---3---3---3---3---3---3---3---3---3---3---|-5----3-------3------------------------------|
G|-4---4---4---4---4---4---4---4---4---4---4---4---|----------4-------2---0-------0--1--0--------|
D|-------------------------------------------------|--------------------------2------------2-----|
A|-------------------------------------------------|------------------------------------------2--|
E|-------------------------------------------------|---------------------------------------------|


E|-0-------------------------|------------------------|---------------------------|
B|-0----0--------------------|------------------------|---------------------------|
G|----------2---2---0--------|------------------------|---------------------------|
D|----------------------2----|------------------------|---------------------2-----|
A|---------------------------|--------------------2---|-5---2---4---2-------------|
E|---------------------------|-0---------4------------|---------------------------|


E|------------------------|---------------------------|------------------------|---------------------------|
B|------------------------|---------------------------|------------------------|---------------------------|
G|------------------------|---------------------------|------------------------|---------------------------|
D|------------------------|---------------------2-----|-2------------------2---|-5---2---4---2-------2-----|
A|--------------------2---|-5---2---4---2-------------|-0---------4------------|---------------------------|
E|-0---------4------------|---------------------------|------------------------|---------------------------|


E|------------------------|---------------------------|------------------------|---------------------------|
B|------------------------|---------------------------|------------------------|---------------------------|
G|------------------------|---------------------------|------------------------|---------------------------|
D|------------------------|---------------------2-----|--------------------4---|-7---4---6---4-------2-----|
A|--------------------2---|-5---2---4---2-------------|-2---------6------------|---------------------------|
E|-0---------4------------|---------------------------|------------------------|---------------------------|


E|------------------------|-----------------------|---------12---------|-----------------12--------------------|
B|------------------------|-----------------------|-12--12-------------|-------------12------------------------|
G|------------------------|-----------------------|-14-----------------|-----14--14----------14---12-----14-12-|
D|------------------------|-----------------------|--------------------|-----------------------------14--------|
A|--------------------2---|-5---2---4---2---------|--------------------|---------------------------------------|
E|-0---------4------------|-----------------------|--------------------|---------------------------------------|


E|-----------------|------------------------|------------------------|---------------------------|
B|-----------------|------14--14--12--------|------14--14--12--------|------14--14--14--14--12---|
G|------------12---|------14--14--12--------|------14--14--12--------|------14--14--14--14--12---|
D|------14---------|-------------------14---|-------------------14---|---------------------------|
A|-----------------|------------------------|------------------------|---------------------------|
E|-----------------|------------------------|------------------------|---------------------------|


E|---------------------------|-----------------12--------------12----------|-------------------------------|
B|------14--14--14--14--12---|-------------12------15--12--15------15--12--|-15----15--12------12----------|
G|------14--14--14--14--12---|-----14--14----------------------------------|---------------14------12--12--|
D|---------------------------|---------------------------------------------|-------------------------------|
A|---------------------------|---------------------------------------------|-------------------------------|
E|---------------------------|---------------------------------------------|-------------------------------|


E|-----------------------------------------|-----------------12--------------------------|
B|-----15--15--15--12----------------------|-------------12------15--12------------------|
G|---------------------14--14--12--14--12--|-----12--13------------------14--14--12------|
D|-----------------------------------------|-----------------------------------------14--|
A|-----------------------------------------|---------------------------------------------|
E|-----------------------------------------|---------------------------------------------|


E|-----------------------|-12--12--12--12--12--12--12--------|-12--12--12--12--12--12--12--------|
B|-----------------------|-9---9---9---9---9---9---9---------|-9---9---9---9---9---9---9---------|
G|-13--------------------|-11--11--11--11--11--11--11--------|-11--11--11--11--11--11--11--------|
D|-----14----------------|-----------------------------------|-----------------------------------|
A|---------14--14--14----|-----------------------------------|-----------------------------------|
E|-----------------------|-----------------------------------|-----------------------------------|


E|-----9---7---4---2---0---4---2---|-0---4---2---0-----------------------|------------------------|
B|---------------------------------|-------------------------------------|--------------------5---|
G|-----9---7---4---2---1---4---2---|-1---4---2---1---2---2---0---2---0---|-2----0---------6-------|
D|---------------------------------|-------------------------------------|------------------------|
A|---------------------------------|-------------------------------------|------------------------|
E|---------------------------------|-------------------------------------|------------------------|


E|-7---5---------------7---5---3-------------------|-------------------------------------------------|
B|---------7---7---5---------------7---5-------5---|-7---7---7---7---7---7---7---7---7---7---7---7---|
G|-----------------------------------------6-------|-------------------------------------------------|
D|-------------------------------------------------|-------------------------------------------------|
A|-------------------------------------------------|-------------------------------------------------|
E|-------------------------------------------------|-------------------------------------------------|


E|---------------------------------------------|------------------------------|------------------------------|
B|-7---7---7---7---7---7---7--7--5-----5---7---|-7---5---7-------5--------10--|-10--10--8---10--8------------|
G|----------------------------------6----------|-------------6----------------|----------------------9---7---|
D|---------------------------------------------|------------------------------|------------------------------|
A|---------------------------------------------|------------------------------|------------------------------|
E|---------------------------------------------|------------------------------|------------------------------|


E|----------------------------------|------------------------|-------------------------------------|
B|----------------------------------|------------------------|-------------------------------------|
G|-9----7---------------------------|-9----------------------|-------------------------------------|
D|----------9---7---5---7---5-------|------9---9---9---------|-----------------2------------2------|
A|------------------------------7---|------------------------|-----------------2---2--2--4-----4---|
E|----------------------------------|-------------------7----|-0---0---4---4-----------------------|


E|-------------------------------------|-------------------------------------|-------------------------------------|
B|-------------------------------------|-------------------------------------|-------------------------------------|
G|-------------------------------------|-------------------------------------|-------------------------------------|
D|-----------------2------------2------|-----------------2------------2------|------------------------------2------|
A|-----------------2---2--2--4-----4---|-----------------2---2--2--4-----4---|-----------------2---2--2--4-----4---|
E|-0---0---4---4-----------------------|-0---0---4---4-----------------------|-0---0---4---4-----------------------|


E|-------------------------------------|-------------------------------------|-------------------------------------|
B|-------------------------------------|-------------------------------------|-------------------------------------|
G|-------------------------------------|-------------------------------------|-------------------------------------|
D|-------------4---7------------7------|-------------4---7------------7------|-----------------2------------2------|
A|-0---0---4---4---7---7--7--9-----9---|-0---0---4---4---7---7--7--9-----9---|-----------------2---2--2--4-----4---|
E|-------------------------------------|-------------------------------------|-0---0---4---4-----------------------|


E|-------------------------------------|-------------------------------------|-------------------------------------|
B|-------------------------------------|-------------------------------------|-------------------------------------|
G|-------------------------------------|-----------------4---4--4-----4------|-----------------2---2--2-----2------|
D|-----------------2------------2------|-----------------4---4--4--6-----6---|-----------------2---2--2--4-----4---|
A|-----------------2---2--2--4-----4---|-2---2---6---6-----------------------|-0---0---4---4-----------------------|
E|-0---0---4---4-----------------------|-------------------------------------|-------------------------------------|


E|-------------------------------------|---------------------------|-12---12-----|
B|-------------------------------------|---------------------------|-15---15-----|
G|-------------------------------------|---------------------------|-------------|
D|-----------------2---2--2-----2------|---------------------------|-------------|
A|-----------------2---2--2--4-----4---|---------------------------|-------------|
E|-0---0---4---4-----------------------|-7---7---7---7---7---------|-------------|


E|------12---12---------------------|---------------------------------|------------------------|
B|------15--------15--12-----12-----|---------------------------------|------15--15------------|
G|------------------------14----14--|-14----------12-12----------15---|-12-----------12---12---|
D|----------------------------------|----14-14-14---------------------|------------------------|
A|----------------------------------|---------------------------------|------------------------|
E|----------------------------------|---------------------------------|------------------------|


E|------------------------------|---------------------------------------|-------------------------------------------------|
B|------------------------------|---------------------------------------|---------------------15--14--14------------------|
G|-12---12--12--12--12--12--12--|-----12------12--12--13---12---13--12--|-13--12--13--12--12--------------14--14------12--|
D|------------------------------|---------------------------------------|-----------------------------------------14------|
A|------------------------------|---------------------------------------|-------------------------------------------------|
E|------------------------------|---------------------------------------|-------------------------------------------------|


E|-------12-------------15--15---|-15--12--------------------------------------|---------12-------------------------------------|
B|----12-------------------------|---------15--12------------------14----------|-----12---------------------14------------------|
G|-14-------14-12----------------|-----------------14--14--12------14------12--|-14----------14-14-14-12----14--12--------------|
D|-------------------------------|-----------------------------14------14------|-------------------------14---------14--12--14--|
A|-------------------------------|---------------------------------------------|------------------------------------------------|
E|-------------------------------|---------------------------------------------|------------------------------------------------|


E|------14--14--14--16--16--16-14-------12-12-|-12---------------------|-------------------------------------------------|
B|--------------------------------12-12-------|------------------------|-------------------------------------------------|
G|--------------------------------------------|------12----------------|-13--13--13--13--13--13--13--13--13--13--13--13--|
D|-14-----------------------------------------|------------------------|-14--14--14--14--14--14--14--14--14--14--14--14--|
A|--------------------------------------------|----------14--14---14---|-------------------------------------------------|
E|--------------------------------------------|------------------------|-------------------------------------------------|


E|--------------------|-------------------------------------------------|---------------------12----|
B|---------------17---|-12--12--12--12--12--12--12--12--12--12--12--12--|-12---12---12---12---------|
G|-12-----------------|-13--13--13--13--13--13--13--13--13--13--13--13--|-14---14---14---14---------|
D|-14--14--14---------|-------------------------------------------------|---------------------------|
A|--------------------|-------------------------------------------------|---------------------------|
E|--------------------|-------------------------------------------------|---------------------------|


E|----------------|-------------------------------|-------------------12--15--12------|
B|-15-----12--12--|-15----15--15--12------12------|---------------12--------------12--|
G|----------------|-------------------14------12--|-------12--13----------------------|
D|----------------|-------------------------------|-14--------------------------------|
A|----------------|-------------------------------|-----------------------------------|
E|----------------|-------------------------------|-----------------------------------|


E|-----------------12--------------12--|-14---12--------------------|-----15--15----15--12------|
B|-----12----------12------12--14------|---------12----12-----------|-----------------------15--|
G|-14------14--13----------------------|------------14----13--------|---------------------------|
D|-------------------------------------|----------------------------|---------------------------|
A|-------------------------------------|-----------------------14---|---------------------------|
E|-------------------------------------|----------------------------|---------------------------|


E|-12-----------------------------------|-------------------------------------12--|
B|------15--12------------------14------|-12----------------------12--12--14------|
G|--------------14--14--12------14------|-13--13----------------------------------|
D|--------------------------14------14--|---------14------------------------------|
A|--------------------------------------|-------------14--14--14------------------|
E|--------------------------------------|-----------------------------------------|


E|-14----------|-----------------12--14--14------12--12--|-12---14------------17--|
B|-------------|-----12--12--14--------------14----------|------------------------|
G|-------------|-----------------------------------------|------------------------|
D|-------------|-----------------------------------------|------------------------|
A|-------------|-----------------------------------------|------------------------|
E|-------------|-----------------------------------------|------------------------|


E|-17----17--15--15-17-15----|------15--------15---|-15---12----------------------------------|
B|------------------------17-|-17------------------|----------15--12------------------14------|
G|---------------------------|---------------------|------------------14--14--12------14------|
D|---------------------------|---------------------|------------------------------14------14--|
A|---------------------------|---------------------|------------------------------------------|
E|---------------------------|---------------------|------------------------------------------|


E|---------------------------------12--|-14--14--12----------------------------|-------------------------------|
B|---------------------12--12--14------|-------------12-----12-----------------|-------------14----------------|
G|-13----------------------------------|-----------------14----12--12----------|-14-14-12----14--12------------|
D|-----14------------------------------|-------------------------------14--14--|----------14-------------------|
A|---------14--14--14------------------|---------------------------------------|---------------------14---12---|
E|-------------------------------------|---------------------------------------|-------------------------------|


E|--------------------------------------|-------------12--14------12--14------12--14--|
B|-----15--15--15--12------12-----------|-----12--14----------14----------14----------|
G|---------------------14------12-------|---------------------------------------------|
D|---------------------------------14---|---------------------------------------------|
A|--------------------------------------|---------------------------------------------|
E|--------------------------------------|---------------------------------------------|


E|-14---------------------|
B|------------------------|
G|------8---7---7----7----|
D|------7---6---6----6----|
A|------------------------|
E|------------------------|





Track 2: John McVie (Bass)

G|--------|-----------------------------------|------1----4---------|-------------1---------------------|
D|--------|-2----0------------------------0---|-2--------------0----|-------------------------0---------|
A|--------|-----------4-------2---3-----------|---------------------|---------0-----------2--------4----|
E|--------|-----------------------------------|---------------------|-0---------------------------------|


G|------1----4----3----|-2----0---------------------|-----------0----2----|---------------------|
D|-2-------------------|-----------2------------2---|---------------------|-2----0----3---------|
A|---------------------|----------------4-----------|-0----4--------------|----------------2----|
E|---------------------|----------------------------|---------------------|---------------------|


G|------1----2----3----|-4-------4---------------2----4----|-2----0------------2---0-----------|
D|-2-------------------|-------------1-------4-------------|-----------2---------------2---0---|
A|---------------------|-----------------------------------|-----------------------------------|
E|---------------------|-----------------------------------|-----------------------------------|


G|------1----2----3----|-4----------------------|-----------------------------------|
D|-2-------------------|------0-----------------|-2----0------------------------0---|
A|---------------------|--------------2---2-----|-----------4-------2---3-----------|
E|---------------------|------------------------|-----------------------------------|


G|------1----4---------|-----------------------------------|------1----4----3----|
D|-2--------------0----|-2-----------------------0---------|-2-------------------|
A|---------------------|---------0-----------2--------4----|---------------------|
E|---------------------|-------------4---------------------|---------------------|


G|-2----0---------------------|-------------------------0----2----|---------------------|
D|-----------2------------2---|---------------------2-------------|-2---------0---------|
A|----------------4-----------|-0-------0---4---------------------|----------------4----|
E|----------------------------|-----------------------------------|------4--------------|


G|------1----2----3-------4---|-------------------------2----4----|-2----0----------------------------|
D|-2--------------------------|-------------1-------4-------------|-----------2-------0---0-------1---|
A|----------------------------|-2-------2-------------------------|-----------------------------------|
E|----------------------------|-----------------------------------|-----------------------------------|


G|---------------------|-------------------------------|----------------------------|
D|-2----0--------------|-------------------------------|----------------------------|
A|-----------4----3----|-2-------0---2-------2---2-----|------------------------2---|
E|---------------------|-------------------------------|-0---------4----------------|


G|------------------------------------------|----------------------------|--------------------------------------|
D|-0-------------------------------2--------|------------------------2---|-0------------------------------------|
A|---------2---4-------2--------------------|----------------------------|---------2---4-------2----------------|
E|------------------------------------------|-0---------4----------------|-----------------------------0--------|


G|----------------------------|-0----------------------------------------|----------------------------|
D|------------------------2---|---------2---4-------2-----------2--------|----------------------------|
A|-0---------4----------------|------------------------------------------|------------------------2---|
E|----------------------------|------------------------------------------|-0---------4----------------|


G|-------------------------------------------------|----------------------------|-2-----------1----------------------------|
D|-0-----------------------------------------------|-----------1------------4---|---------4-----------4-----------2--------|
A|---------2---4-------2---------------0-------1---|-2--------------------------|------------------------------------------|
E|---------------------------------4---------------|----------------------------|------------------------------------------|


G|----------------------------|-------------------------------|-----------------------------------|
D|----------------------------|-0-----------------------------|-2-----------------------------0---|
A|------------------------2---|---------2---4-------2---------|------4----2-------2---4-----------|
E|-0---------4----------------|-------------------------------|-----------------------------------|


G|--------------4---7----4-----------|-----------4----6---7---8---|-9-------9---7-------7---------------------------|
D|-2----6------------------------6---|------6---------------------|-------------------------11------9-----------6---|
A|-----------------------------------|-7--------------------------|-------------------------------------7-----------|
E|-----------------------------------|----------------------------|-------------------------------------------------|


G|-2-------2---0-------0-------------|-------------------------0----2----|-----------------------------------|
D|-------------------------2---------|---------------------2-------------|-2-----------------------0---------|
A|------------------------------4----|-0-------0---4---------------------|---------0-----------2--------4----|
E|-----------------------------------|-----------------------------------|-------------4---------------------|


G|------1----2----3----|-4----2---------------------|-----------------------------------|
D|-2-------------------|-----------4----------------|-------------------------0----1----|
A|---------------------|----------------2-------1---|-0-------0---3-------4-------------|
E|---------------------|----------------------------|-----------------------------------|


G|---------------------|-------------------------------|---------------------|---------------------|
D|-2----0--------------|-------------------------------|---------------------|---------------------|
A|-----------4----3----|-2-------0---2-------2---2-----|---------------------|---------------------|
E|---------------------|-------------------------------|-0-------------------|-0-------------------|


G|---------------------|--------------0---0---0---0-----------|-------------------------0----2-------0---|
D|---------------------|----------2-----------------------2---|---------------------2--------------------|
A|---------------------|--------------------------------------|-0-------0---4----------------------------|
E|-0-------------------|--------------------------------------|------------------------------------------|


G|-2---------0-----------------------|-----------------------------------|------1----2----3----|
D|------4----------------------------|-2---------0-----------0-------1---|-2-------------------|
A|-------------------4---0-------4---|------4------------2---------------|---------------------|
E|-----------------------------------|-----------------------------------|---------------------|


G|-4-----------2----------------4-------3---|-2----0---------------------|------1----2----3----|
D|---------4-----------4--------------------|-----------2----0-------1---|-2-------------------|
A|-------------------------2----------------|----------------------------|---------------------|
E|------------------------------------------|----------------------------|---------------------|


G|-4-----------2-------4---4-----|-----------------4---4--4--6--9--9---|---------------------------6--9--9---|
D|---------2---------------------|-2---2---6---6-----------------------|---------6---6---9---9--9------------|
A|-------------------------------|-------------------------------------|-7---7-------------------------------|
E|-------------------------------|-------------------------------------|-------------------------------------|


G|---------------------------6--9--9---|---------------------------6--9--9---|------------------------------2--2---|
D|---------6---6---9---9--9------------|---------6---6---9---9--9------------|-----------------2---2--2--4---------|
A|-7---7-------------------------------|-7---7-------------------------------|-0---0---4---4-----------------------|
E|-------------------------------------|-------------------------------------|-------------------------------------|


G|------------------------------2--2---|---------------------------6--9--9---|------------------------------9--9---|
D|-----------------2---2--2--4---------|---------6---6---9---9--9------------|---------5---5---9---9--9--10--------|
A|-0---0---4---4-----------------------|-7---7-------------------------------|-7---7-------------------------------|
E|-------------------------------------|-------------------------------------|-------------------------------------|


G|---------------------------1--4--4---|------------------------------2--2---|---------------------------6--9--9---|
D|---------1---1---4---4--4------------|-----------------2---2--2--4---------|---------5---5---9---9--9------------|
A|-2---2-------------------------------|-0---0---4---4-----------------------|-7---7-------------------------------|
E|-------------------------------------|-------------------------------------|-------------------------------------|


G|-4-------0---4-------4-----------------------|-----------------------------------|
D|---------------------------------0-----------|-2----0------------------------0---|
A|-----------------------------2-----------2---|-----------4-------2---4-----------|
E|---------------------------------------------|-----------------------------------|


G|------1----4----1----|-4-------------------|------1----4----3----|-2----2----2----2----|
D|-2-------------------|------2----0---------|-2-------------------|---------------------|
A|---------------------|----------------4----|---------------------|---------------------|
E|---------------------|---------------------|---------------------|---------------------|


G|-0-------------------|---------------------|------1----2----3----|-4----2---------------------|
D|------2--------------|-2----0---------0----|-2-------------------|-----------4-----------1----|
A|-----------0----4----|-----------4---------|---------------------|-------------------2--------|
E|---------------------|---------------------|---------------------|----------------------------|


G|-2----0-------------------------------0---|---------0---1-------0---2-------0---3-------0---|
D|--------------2---------------0-----------|-2-----------------------------------------------|
A|------------------0-------4---------------|-------------------------------------------------|
E|------------------------------------------|-------------------------------------------------|


G|-4-------0---------------------|---------------------|---------------------|---------------------|
D|-------------------------------|-2----2----2----2----|-2----2----2----2----|-2----2----2----2----|
A|-------------2-------2---2-----|---------------------|---------------------|---------------------|
E|-------------------------------|---------------------|---------------------|---------------------|


G|---------------------|-------------------------0----------------|-------------------------0----------------|
D|-2----2----2----2----|-------------2-------4--------4-------2---|-------------2-------4--------4-------2---|
A|---------------------|-0-------4--------------------------------|-0-------4--------------------------------|
E|---------------------|------------------------------------------|------------------------------------------|


G|----------------------------|------1----2----3----|-4----2--------------|-2----0--------------|
D|-2----0-----------------3---|-2-------------------|-----------4---------|-----------2----0----|
A|-----------4----4-----------|---------------------|----------------2----|---------------------|
E|----------------------------|---------------------|---------------------|---------------------|


G|---------------------|-------------------------------|---------------------|----------------6-----------|
D|-2----0--------------|-------------------------------|-2----0--------------|------6----9------------9---|
A|-----------4----3----|-2-------0---2-------2---2-----|-----------4----2----|-7--------------------------|
E|---------------------|-------------------------------|---------------------|----------------------------|


G|----------------7---8---9---|-9---------0---------|-----------------------0-------2---|
D|------6----9----------------|------2---------2----|-----------2-------4---------------|
A|-7--------------------------|---------------------|-0----4----------------------------|
E|----------------------------|---------------------|-----------------------------------|


G|-2---------0----2-------0---|---------------------|------1----2----4----|------1----2----4-------2---|
D|------4---------------------|-2----0---------0----|-2-------------------|-4--------------------------|
A|----------------------------|-----------4---------|---------------------|----------------------------|
E|----------------------------|---------------------|---------------------|----------------------------|


G|-2----0---------------------|----------------------------|-------------------------------|
D|-----------2------------0---|-2-------0---0--------------|---------0---1-------2---2-----|
A|----------------3-----------|------------------4----3----|-2-----------------------------|
E|----------------------------|----------------------------|-------------------------------|