Menu:

 

Search:

 

eric clapton - change the world:

 



Title: Change The World
Artist: 
Album: soundtrack "PHENOMENON" 
Author: Gordon Kennedy, Tommy Sims & Wayne Kirkpatrick


Track 1: gtr 1

E|---------------------------|-----------------------------------|---------------------------|
B|-----------------------0---|-0-----------------0-----------0---|-----0---------------------|
G|-----1--------2------------|------------2--------------2-------|--------------2--------1---|
D|--------------2--------0---|-0-------------0-------0-----------|-----0--------2------------|
A|-----2---------------------|-----------------------------------|-----------------------2---|
E|-0--------0---2----2---3---|-3---3---3-------------------------|-3--------3---2----2-------|


E|-----0---0---------0-----------0---|---------------------------|---------------------------------|
B|------------0--------------0-------|-----------------------0---|-0-------------------0-----------|
G|-1---------------------------------|-----1--------2------------|-------------2---2---------------|
D|-----------------------------------|--------------2--------0---|-0-------0---------------0-------|
A|-2---------------------------------|-----2---------------------|---------------------------------|
E|---------------0-------0-----------|-0--------0---2----2---3---|-3---3-----------------------3---|


E|--------------------------0---|-0------|---------------------------|-----0---0---------0-----------------|
B|-----0--------------------0---|-0------|---------------------------|------------0-------------0------0---|
G|--------------2-----------2---|-2------|-----1--------2--------4---|-4---------------------------4-------|
D|-----0--------2----2------4---|-4------|---------------------------|---------------0-------0-------------|
A|--------------------------2---|-2------|-----2--------4--------5---|-5-----------------------------------|
E|-3--------3---2-------2-------|--------|-0--------0--------0-------|-------------------------------------|


E|---------------------------|-----0---------------0-----------|---------------------------|
B|---------------------------|-------------0-------------------|---------------------------|
G|-----4--------2--------1---|-1---------------------------1---|-----1--------2--------4---|
D|---------------------------|---------------------------------|---------------------------|
A|-----5--------4--------2---|-2-------------------------------|-----2--------4--------5---|
E|-0--------0--------0-------|---------0-------0-------0-------|-0--------0--------0-------|


E|-----0---0---------0---7-------------|-7-------------------------|-----0---------------------------|
B|------------0-------------0------0---|---------------------------|-------------0-----------8---5---|
G|-4---------------------------4-------|-----4--------2--------1---|-1---------------1---------------|
D|---------------0-------0-------------|---------------------------|-----------------------------2---|
A|-5-----------------------------------|-----5--------4--------2---|-2-------------------------------|
E|-------------------------------------|-0--------0--------0-------|---------0-----------0-----------|


E|---------------------------|-----0-----------0-----------------|---------------------------|
B|-5---2--------3--------5---|-5---------------------------------|-----5--------3--------2---|
G|---------------------------|-------------------------------0---|---------------------------|
D|-----2--------4--------5---|-5-----------5-------------5-------|-----5--------4--------2---|
A|-0--------0--------0-------|---------0-----------0--7----------|-0--------0--------0-------|
E|---------------------------|-----------------------------------|---------------------------|


E|---------------------5--5--3--3------|---------------------------|-----0---0---------0-----------------|
B|-2-----------2---2-------------------|---------------------------|------------0-------------0------0---|
G|-------------------------------------|-----1--------2--------4---|-4---------------------------4-------|
D|-2-------2---------------------------|---------------------------|---------------0-------0-------------|
A|-----0---------------------0-----2---|-----2--------4--------5---|-5-----------------------------------|
E|-------------------------------------|-0--------0--------0-------|-------------------------------------|


E|--------------------4---|--------|--------|--------|--------|--------|--------|--------|
B|--------------------4---|--------|--------|--------|--------|--------|--------|--------|
G|-----4--------2-----5---|--------|--------|--------|--------|--------|--------|--------|
D|--------------------4---|--------|--------|--------|--------|--------|--------|--------|
A|-----5--------4-----6---|--------|--------|--------|--------|--------|--------|--------|
E|-0--------0---------4---|--------|--------|--------|--------|--------|--------|--------|


E|--------|--------|--------|---------------------------|-----------------------------------|
B|--------|--------|--------|-----------------------0---|-0-----------------0-----------0---|
G|--------|--------|--------|-----1--------2------------|------------2--------------2-------|
D|--------|--------|--------|--------------2--------0---|-0-------------0-------0-----------|
A|--------|--------|--------|-----2---------------------|-----------------------------------|
E|--------|--------|--------|-0--------0---2----2---3---|-3---3---3-------------------------|


E|---------------------------|-----0---0---------0-----------0---|---------------------------|
B|-----0---------------------|------------0--------------0-------|---------------------------|
G|--------------2--------1---|-1---------------------------------|-----1--------2--------4---|
D|-----0--------2------------|-----------------------------------|---------------------------|
A|-----------------------2---|-2---------------------------------|-----2--------4--------5---|
E|-3--------3---2----2-------|---------------0-------0-----------|-0--------0--------0-------|


E|-----0---0---------0-----------------|---------------------------|-----0---------------0-----------|
B|------------0-------------0------0---|---------------------------|-------------0-------------------|
G|-4---------------------------4-------|-----4--------2--------1---|-1---------------------------1---|
D|---------------0-------0-------------|---------------------------|---------------------------------|
A|-5-----------------------------------|-----5--------4--------2---|-2-------------------------------|
E|-------------------------------------|-0--------0--------0-------|---------0-------0-------0-------|


E|---------------------------|-----0---0---------0-----------------|---------------------------|
B|---------------------------|------------0-------------0------0---|---------------------------|
G|-----1--------2--------4---|-4---------------------------4-------|-----4--------2--------1---|
D|---------------------------|---------------0-------0-------------|---------------------------|
A|-----2--------4--------5---|-5-----------------------------------|-----5--------4--------2---|
E|-0--------0--------0-------|-------------------------------------|-0--------0--------0-------|


E|-----0------------------------|---------------------------|-----0-----------0-----------------|
B|-------------0----------------|-----2--------3--------5---|-5---------------------------------|
G|-1---------------1------------|---------------------------|-------------------------------0---|
D|--------------------------2---|-----2--------4--------5---|-5-----------5-------------5-------|
A|-2----------------------------|-0--------0--------0-------|---------0-----------0--7----------|
E|---------0-----------0--------|---------------------------|-----------------------------------|


E|---------------------------|------------------------------|---------------------------|
B|-----5--------3--------2---|-2-----------2---2------------|---------------------------|
G|---------------------------|------------------------------|-----1--------2--------4---|
D|-----5--------4--------2---|-2-------2--------------------|---------------------------|
A|-0--------0--------0-------|-----0----------------0---2---|-----2--------4--------5---|
E|---------------------------|------------------------------|-0--------0--------0-------|


E|-----0---0---------0-----------------|--------------------4---|-4------|--------|
B|------------0-------------0------0---|--------------------4---|-4------|--------|
G|-4---------------------------4-------|-----4--------2-----5---|-5------|--------|
D|---------------0-------0-------------|--------------------4---|-4------|--------|
A|-5-----------------------------------|-----5--------4-----6---|-6------|--------|
E|-------------------------------------|-0--------0---------4---|-4------|--------|


E|--------|--------|--------|--------|--------|--------|--------|--------|--------|
B|--------|--------|--------|--------|--------|--------|--------|--------|--------|
G|--------|--------|--------|--------|--------|--------|--------|--------|--------|
D|--------|--------|--------|--------|--------|--------|--------|--------|--------|
A|--------|--------|--------|--------|--------|--------|--------|--------|--------|
E|--------|--------|--------|--------|--------|--------|--------|--------|--------|


E|--------|--------|---------------------------|-----------------------------------|
B|--------|--------|-----------------------0---|-0-----------------0-----------0---|
G|--------|--------|-----1--------2------------|------------2--------------2-------|
D|--------|--------|--------------2--------0---|-0-------------0-------0-----------|
A|--------|--------|-----2---------------------|-----------------------------------|
E|--------|--------|-0--------0---2----2---3---|-3---3---3-------------------------|


E|---------------------------|-----0---0---------0-----------0---|---------------------------|
B|-----0---------------------|------------0--------------0-------|-----------------------0---|
G|--------------2--------1---|-1---------------------------------|-----1--------2------------|
D|-----0--------2------------|-----------------------------------|--------------2--------0---|
A|-----------------------2---|-2---------------------------------|-----2---------------------|
E|-3--------3---2----2-------|---------------0-------0-----------|-0--------0---2----2---3---|


E|-----------------------------------|--------------------------4---|-4------|--------|
B|-0-----------------0-----------0---|-----0--------------------4---|-4------|--------|
G|------------2--------------2-------|--------------2-----------5---|-5------|--------|
D|-0-------------0-------0-----------|-----0--------2----2------4---|-4------|--------|
A|-----------------------------------|--------------------------6---|-6------|--------|
E|-3---3---3-------------------------|-3--------3---2-------2---4---|-4------|--------|


E|--------|--------|--------|--------|--------|--------|--------|--------|--------|
B|--------|--------|--------|--------|--------|--------|--------|--------|--------|
G|--------|--------|--------|--------|--------|--------|--------|--------|--------|
D|--------|--------|--------|--------|--------|--------|--------|--------|--------|
A|--------|--------|--------|--------|--------|--------|--------|--------|--------|
E|--------|--------|--------|--------|--------|--------|--------|--------|--------|


E|--------|--------|--------|--------------------|--------------------------------|
B|--------|--------|--------|--------------------|----------0---0-----------------|
G|--------|--------|--------|-----------1--------|-2-----------------------2------|
D|--------|--------|--------|--------------------|-2--------0---0-------------0---|
A|--------|--------|--------|-----------2--------|--------------------------------|
E|--------|--------|--------|-------0--------0---|-2----2---3---3---3---3---------|


E|----------------------0----|-------------|-------------|
B|-0-----------0---0---------|-------------|-------------|
G|---------2-----------------|-2-----1-----|-------1-----|
D|-----0-----------0---------|-2-----0-----|-------0-----|
A|---------------------------|-------2-----|-------2-----|
E|-----------------3---------|-2-----0-----|-------0-----|





Track 2: gtr 2

E|--------|--------|--------|--------|---------------------------|--------|-------------------------------------|
B|--------|--------|--------|--------|-------------------3-------|--------|-------------------------------------|
G|--------|--------|--------|--------|------4---2---2--------4---|-4------|-----4----4--2--0--2---0-------------|
D|--------|--------|--------|--------|---------------------------|--------|---------------------------2--0------|
A|--------|--------|--------|--------|---------------------------|--------|---------------------------------2---|
E|--------|--------|--------|--------|---------------------------|--------|-------------------------------------|


E|-------------------------|--------|--------|--------|--------|--------|--------|
B|-------------------------|--------|--------|--------|--------|--------|--------|
G|-------------------------|--------|--------|--------|--------|--------|--------|
D|-----------------0-------|--------|--------|--------|--------|--------|--------|
A|-2-----2---0--2----------|--------|--------|--------|--------|--------|--------|
E|---------------------0---|--------|--------|--------|--------|--------|--------|


E|--------|--------|--------|--------|--------|--------|--------|--------|--------|
B|--------|--------|--------|--------|--------|--------|--------|--------|--------|
G|--------|--------|--------|--------|--------|--------|--------|--------|--------|
D|--------|--------|--------|--------|--------|--------|--------|--------|--------|
A|--------|--------|--------|--------|--------|--------|--------|--------|--------|
E|--------|--------|--------|--------|--------|--------|--------|--------|--------|


E|-----4------------------------|--------|--------|--------|----------9---9----9-------|
B|-----------------4---5---7----|--------|--------|--------|-------------------7-------|
G|---------5---6----------------|--------|--------|--------|---------------------------|
D|------------------------------|--------|--------|--------|---------------------------|
A|------------------------------|--------|--------|--------|---------------------------|
E|------------------------------|--------|--------|--------|---------------------------|


E|--------|--------|---------------------------|-------2-----|-2------|---------------------------|
B|--------|--------|---------------------------|-------2-----|-2------|-------------------3-------|
G|--------|--------|-----------------9--11-9---|-------2-----|-2------|------4---2---2--------4---|
D|--------|--------|-----------9--11-----------|-------2-----|-2------|---------------------------|
A|--------|--------|---------------------------|-------4-----|-4------|---------------------------|
E|--------|--------|---------------------------|-------2-----|-2------|---------------------------|


E|--------|-------------------------------------|-------------------------------------|
B|--------|-------------------------------------|-------------------------------------|
G|-4------|-----4----4--2--0--2---0-------------|-------------------------------------|
D|--------|---------------------------2--0--2---|-2----------0----------------0---2---|
A|--------|-------------------------------------|------0--2------0--1--0--------------|
E|--------|-------------------------------------|-------------------------3-----------|


E|--------|--------|--------|------3----3----------------------|--------|--------|
B|--------|--------|--------|--------------5--3----------------|--------|--------|
G|--------|--------|--------|--------------------2--4--2---0---|--------|--------|
D|--------|--------|--------|----------------------------------|-2------|--------|
A|--------|--------|--------|----------------------------------|--------|--------|
E|--------|--------|--------|----------------------------------|--------|--------|


E|--------|-------5--5--3--3-------|--------|--------|--------|-------6--7--6--0---------------|
B|--------|------------------------|--------|--------|--------|-------------------5--8---5-----|
G|--------|------------------------|--------|--------|--------|-----------------------------6--|
D|--------|------------------------|--------|--------|--------|--------------------------------|
A|--------|------------------------|--------|--------|--------|--------------------------------|
E|--------|------------------------|--------|--------|--------|--------------------------------|


E|--------|--------|--------|-----4------------------------|--------|--------|--------|
B|-5------|--------|--------|-----------------4---5---7----|--------|--------|--------|
G|--------|--------|--------|---------5---6----------------|--------|--------|--------|
D|--------|--------|--------|------------------------------|--------|--------|--------|
A|--------|--------|--------|------------------------------|--------|--------|--------|
E|--------|--------|--------|------------------------------|--------|--------|--------|


E|----------9---9--------7---|-7-----------|--------|--------|--------|---------------------------|
B|-------------------7-------|-------------|--------|--------|--------|---------------------------|
G|---------------------------|-------------|--------|--------|--------|-----------9--11-9---9-----|
D|---------------------------|-------------|--------|--------|--------|-----9--11-----------------|
A|---------------------------|-------------|--------|--------|--------|---------------------------|
E|---------------------------|-------------|--------|--------|--------|---------------------------|


E|--------|-------2-----|-2------|--------|--------|--------|--------|--------|--------|
B|--------|-------2-----|-2------|--------|--------|--------|--------|--------|--------|
G|--------|-------2-----|-2------|--------|--------|--------|--------|--------|--------|
D|--------|-------2-----|-2------|--------|--------|--------|--------|--------|--------|
A|--------|-------4-----|-4------|--------|--------|--------|--------|--------|--------|
E|--------|-------2-----|-2------|--------|--------|--------|--------|--------|--------|


E|--------|--------|--------|--------|--------|------------------12--14--12--|-12----------|
B|--------|--------|--------|--------|--------|----------14--14--------------|-------------|
G|--------|--------|--------|--------|--------|------------------------------|-------------|
D|--------|--------|--------|--------|--------|------------------------------|-------------|
A|--------|--------|--------|--------|--------|------------------------------|-------------|
E|--------|--------|--------|--------|--------|------------------------------|-------------|


E|--------|-------------------------|-----------------------|-----------------------------|
B|--------|-------------------------|-----------------------|--------------12-------------|
G|--------|-----------------9---9---|-9---------9---9---9---|-9--------13-------11--9--9--|
D|--------|-----------9--11---------|-----------------------|-----------------------------|
A|--------|-------------------------|-----------------------|-----------------------------|
E|--------|-------------------------|-----------------------|-----------------------------|


E|---------------------------------|---------------------12----12--|-12-----------------|
B|---------------------------------|----------------12---12-14-12--|-12-----------------|
G|-9-----------9---9--11-9--9--9---|-9--------11-13----------------|--------------------|
D|-------9--11---------------------|-------------------------------|--------------------|
A|---------------------------------|-------------------------------|----------------2---|
E|---------------------------------|-------------------------------|--------------------|


E|-----------------------|---------------------------|--------------------|-------------------------|
B|---------0-------------|---------------------------|------3-------------|-------------------------|
G|-----2-------2---4-----|-4---4-------------4---2---|-2--------4---4-----|-----------4----4--2--0--|
D|-0---------------------|---------------------------|--------------------|-------------------------|
A|-----------------------|---------------------------|--------------------|-------------------------|
E|-----------------------|---------------------------|--------------------|-------------------------|


E|--------------------------------------|-----------------------------|
B|--------------------------------------|-----------------------------|
G|-2-----0------------------------------|-----------------------------|
D|----------2--2---0--------------------|-2--0------------------2-----|
A|--------------------2--0--1--0--------|-------2--1--0---------------|
E|--------------------------------3--0--|----------------4---0--------|





Track 3: gtr 3

E|--------|--------|--------|--------|--------|--------|--------|--------|--------|
B|--------|--------|--------|--------|--------|--------|--------|--------|--------|
G|--------|--------|--------|--------|--------|--------|--------|--------|--------|
D|--------|--------|--------|--------|--------|--------|--------|--------|--------|
A|--------|--------|--------|--------|--------|--------|--------|--------|--------|
E|--------|--------|--------|--------|--------|--------|--------|--------|--------|


E|--------|--------|--------|--------|--------|--------|--------|--------|--------|
B|--------|--------|--------|--------|--------|--------|--------|--------|--------|
G|--------|--------|--------|--------|--------|--------|--------|--------|--------|
D|--------|--------|--------|--------|--------|--------|--------|--------|--------|
A|--------|--------|--------|--------|--------|--------|--------|--------|--------|
E|--------|--------|--------|--------|--------|--------|--------|--------|--------|


E|--------|--------|--------|--------|--------|--------|--------|--------|--------|
B|--------|--------|--------|--------|--------|--------|--------|--------|--------|
G|--------|--------|--------|--------|--------|--------|--------|--------|--------|
D|--------|--------|--------|--------|--------|--------|--------|--------|--------|
A|--------|--------|--------|--------|--------|--------|--------|--------|--------|
E|--------|--------|--------|--------|--------|--------|--------|--------|--------|


E|--------|--------|--------|--------|--------|--------|--------|--------|--------|
B|--------|--------|--------|--------|--------|--------|--------|--------|--------|
G|--------|--------|--------|--------|--------|--------|--------|--------|--------|
D|--------|--------|--------|--------|--------|--------|--------|--------|--------|
A|--------|--------|--------|--------|--------|--------|--------|--------|--------|
E|--------|--------|--------|--------|--------|--------|--------|--------|--------|


E|--------|-----------------------------------------|-----------------------------------------|
B|--------|-----------------------------------------|-----------------------------------------|
G|--------|-----------------------------------------|-----------------------------------------|
D|--------|-0--2--2--2--2---2---0--2--2--2--2---2---|-0--2--2--2--2---2---0--2--2--2--2---2---|
A|--------|-----------------------------------------|-----------------------------------------|
E|--------|-----------------------------------------|-----------------------------------------|


E|-----------------------------------------|-----------------------------------------|
B|-----------------------------------------|-----------------------------------------|
G|-----------------------------------------|-----------------------------------------|
D|-0--2--2--2--2---2---0--2--2--2--2---2---|-0--2--2--2--2---2---0--2--2--2--2---2---|
A|-----------------------------------------|-----------------------------------------|
E|-----------------------------------------|-----------------------------------------|


E|-----------------------------------------|-----------------------------------------|
B|-----------------------------------------|-----------------------------------------|
G|-----------------------------------------|-----------------------------------------|
D|-0--2--2--2--2---2---0--2--2--2--2---2---|-0--2--2--2--2---2---0--2--2--2--2---2---|
A|-----------------------------------------|-----------------------------------------|
E|-----------------------------------------|-----------------------------------------|


E|-----------------------------------------|-----------------------------------------|
B|-----------------------------------------|-----------------------------------------|
G|-----------------------------------------|-----------------------------------------|
D|-0--2--2--2--2---2---0--2--2--2--2---2---|-0--2--2--2--2---2---0--2--2--2--2---2---|
A|-----------------------------------------|-----------------------------------------|
E|-----------------------------------------|-----------------------------------------|


E|-----------------------------------------|-----------------------------------------|
B|-----------------------------------------|-----------------------------------------|
G|-0--2--2--2--2---2---0--2--2--2--2---2---|-0--2--2--2--2---2---0--2--2--2--2---2---|
D|-----------------------------------------|-----------------------------------------|
A|-----------------------------------------|-----------------------------------------|
E|-----------------------------------------|-----------------------------------------|


E|-----------------------------------------|-----------------------------------------|
B|-----------------------------------------|-----------------------------------------|
G|-0--2--2--2--2---2---0--2--2--2--2---2---|-0--2--2--2--2---2---0--2--2--2--2---2---|
D|-----------------------------------------|-----------------------------------------|
A|-----------------------------------------|-----------------------------------------|
E|-----------------------------------------|-----------------------------------------|


E|-----------------------------------------|-----------------------------------------|
B|-----------------------------------------|-----------------------------------------|
G|-----------------------------------------|-----------------------------------------|
D|-0--2--2--2--2---2---0--2--2--2--2---2---|-0--2--2--2--2---2---0--2--2--2--2---2---|
A|-----------------------------------------|-----------------------------------------|
E|-----------------------------------------|-----------------------------------------|


E|-------------------------------------4---|-4---4---4---4---4---4---4---4---|--------|
B|-------------------------------------4---|-4---4---4---4---4---4---4---4---|--------|
G|-------------------------------------5---|-5---5---5---5---5---5---5---5---|--------|
D|-0--2--2--2--2---2---0--2--2--2--2---4---|-4---4---4---4---4---4---4---4---|--------|
A|-------------------------------------6---|-6---6---6---6---6---6---6---6---|--------|
E|-------------------------------------4---|-4---4---4---4---4---4---4---4---|--------|


E|--------|--------|--------|--------|--------|--------|--------|---------------------------|
B|--------|--------|--------|--------|--------|--------|--------|---------------------------|
G|--------|--------|--------|--------|--------|--------|--------|-----1--------2------------|
D|--------|--------|--------|--------|--------|--------|--------|---------------------------|
A|--------|--------|--------|--------|--------|--------|--------|-----2--------4------------|
E|--------|--------|--------|--------|--------|--------|--------|-0--------0--------0---0---|


E|--------|--------|--------|-----------10--10--10--10--10--10--|------------------------------|
B|--------|--------|--------|-----10-12-12--12--12--12--12--12--|-10---8--10--8---8---10-------|
G|--------|--------|--------|-----------------------------------|------------------------------|
D|--------|--------|--------|-----------------------------------|------------------------------|
A|--------|--------|--------|-----------------------------------|------------------------------|
E|--------|--------|--------|-----------------------------------|------------------------------|


E|--------------------------------------|-----------------------------------------|
B|-10--8--------------------------------|-------------------------8-----10-10-8---|
G|---------9-------9----7---------------|---------------7---7--9-----9------------|
D|-------------9-----------9--7--5------|--------5--9-----------------------------|
A|----------------------------------7---|-7---7-----------------------------------|
E|--------------------------------------|-----------------------------------------|


E|-------------10---12--12----12-10-------|-----------------------------------------|
B|----------12----------------------12-11-|-10-8-----10-10-10-8--8------------------|
G|-9--------------------------------------|-------9------------------9--9---9-------|
D|----------------------------------------|-----------------------------------------|
A|----------------------------------------|-----------------------------------------|
E|----------------------------------------|-----------------------------------------|


E|---------15--15--12------12--11--|-11-------14--14-12-12------------|--------|--------|
B|-----12--------------14------13--|-13---------------------14-12-14--|--------|--------|
G|---------------------------------|------13--------------------------|--------|--------|
D|---------------------------------|----------------------------------|--------|--------|
A|---------------------------------|----------------------------------|--------|--------|
E|---------------------------------|----------------------------------|--------|--------|


E|--------|--------|--------|--------|--------|--------|--------|--------|--------|
B|--------|--------|--------|--------|--------|--------|--------|--------|--------|
G|--------|--------|--------|--------|--------|--------|--------|--------|--------|
D|--------|--------|--------|--------|--------|--------|--------|--------|--------|
A|--------|--------|--------|--------|--------|--------|--------|--------|--------|
E|--------|--------|--------|--------|--------|--------|--------|--------|--------|


E|--------|--------|--------|--------|--------|--------|--------|
B|--------|--------|--------|--------|--------|--------|--------|
G|--------|--------|--------|--------|--------|--------|--------|
D|--------|--------|--------|--------|--------|--------|--------|
A|--------|--------|--------|--------|--------|--------|--------|
E|--------|--------|--------|--------|--------|--------|--------|





Track 4: gtr 1

E|--------|--------|--------|--------|--------|--------|--------|--------|--------|
B|--------|--------|--------|--------|--------|--------|--------|--------|--------|
G|--------|--------|--------|--------|--------|--------|--------|--------|--------|
D|--------|--------|--------|--------|--------|--------|--------|--------|--------|
A|--------|--------|--------|--------|--------|--------|--------|--------|--------|
E|--------|--------|--------|--------|--------|--------|--------|--------|--------|


E|--------|--------|--------|--------|--------|--------|--------|--------|--------|
B|--------|--------|--------|--------|--------|--------|--------|--------|--------|
G|--------|--------|--------|--------|--------|--------|--------|--------|--------|
D|--------|--------|--------|--------|--------|--------|--------|--------|--------|
A|--------|--------|--------|--------|--------|--------|--------|--------|--------|
E|--------|--------|--------|--------|--------|--------|--------|--------|--------|


E|--------|--------|--------|--------|--------|--------|--------|--------|--------|
B|--------|--------|--------|--------|--------|--------|--------|--------|--------|
G|--------|--------|--------|--------|--------|--------|--------|--------|--------|
D|--------|--------|--------|--------|--------|--------|--------|--------|--------|
A|--------|--------|--------|--------|--------|--------|--------|--------|--------|
E|--------|--------|--------|--------|--------|--------|--------|--------|--------|


E|--------|--------|--------|--------|--------|--------|--------|--------|--------|
B|--------|--------|--------|--------|--------|--------|--------|--------|--------|
G|--------|--------|--------|--------|--------|--------|--------|--------|--------|
D|--------|--------|--------|--------|--------|--------|--------|--------|--------|
A|--------|--------|--------|--------|--------|--------|--------|--------|--------|
E|--------|--------|--------|--------|--------|--------|--------|--------|--------|


E|--------|--------|--------|--------|--------|--------|--------|--------|--------|
B|--------|--------|--------|--------|--------|--------|--------|--------|--------|
G|--------|--------|--------|--------|--------|--------|--------|--------|--------|
D|--------|--------|--------|--------|--------|--------|--------|--------|--------|
A|--------|--------|--------|--------|--------|--------|--------|--------|--------|
E|--------|--------|--------|--------|--------|--------|--------|--------|--------|


E|--------|--------|--------|--------|--------|--------|--------|--------|--------|
B|--------|--------|--------|--------|--------|--------|--------|--------|--------|
G|--------|--------|--------|--------|--------|--------|--------|--------|--------|
D|--------|--------|--------|--------|--------|--------|--------|--------|--------|
A|--------|--------|--------|--------|--------|--------|--------|--------|--------|
E|--------|--------|--------|--------|--------|--------|--------|--------|--------|


E|--------|--------|--------|--------|--------|--------|--------|--------|--------|
B|--------|--------|--------|--------|--------|--------|--------|--------|--------|
G|--------|--------|--------|--------|--------|--------|--------|--------|--------|
D|--------|--------|--------|--------|--------|--------|--------|--------|--------|
A|--------|--------|--------|--------|--------|--------|--------|--------|--------|
E|--------|--------|--------|--------|--------|--------|--------|--------|--------|


E|--------|--------|-----------------------------------------|-----------------------------------------|
B|--------|--------|-----------------------------------------|-----------------------------------------|
G|--------|--------|-----------------------------------------|-----------------------------------------|
D|--------|--------|-0--2--2--2--2---2---0--2--2--2--2---2---|-0--2--2--2--2---2---0--2--2--2--2---2---|
A|--------|--------|-----------------------------------------|-----------------------------------------|
E|--------|--------|-----------------------------------------|-----------------------------------------|


E|-----------------------------------------|-----------------------------------------|
B|-----------------------------------------|-----------------------------------------|
G|-----------------------------------------|-----------------------------------------|
D|-0--2--2--2--2---2---0--2--2--2--2---2---|-0--2--2--2--2---2---0--2--2--2--2---2---|
A|-----------------------------------------|-----------------------------------------|
E|-----------------------------------------|-----------------------------------------|


E|-----------------------------------------|-----------------------------------------|
B|-----------------------------------------|-----------------------------------------|
G|-----------------------------------------|-----------------------------------------|
D|-0--2--2--2--2---2---0--2--2--2--2---2---|-0--2--2--2--2---2---0--2--2--2--2---2---|
A|-----------------------------------------|-----------------------------------------|
E|-----------------------------------------|-----------------------------------------|


E|-------------------------------------4---|-4---4---4---4---4---4---4---4---|--------|
B|-------------------------------------4---|-4---4---4---4---4---4---4---4---|--------|
G|-------------------------------------5---|-5---5---5---5---5---5---5---5---|--------|
D|-0--2--2--2--2---2---0--2--2--2--2---4---|-4---4---4---4---4---4---4---4---|--------|
A|-------------------------------------6---|-6---6---6---6---6---6---6---6---|--------|
E|-------------------------------------4---|-4---4---4---4---4---4---4---4---|--------|


E|--------|--------|--------|--------|--------|--------|--------|--------|--------|
B|--------|--------|--------|--------|--------|--------|--------|--------|--------|
G|--------|--------|--------|--------|--------|--------|--------|--------|--------|
D|--------|--------|--------|--------|--------|--------|--------|--------|--------|
A|--------|--------|--------|--------|--------|--------|--------|--------|--------|
E|--------|--------|--------|--------|--------|--------|--------|--------|--------|


E|--------|--------|--------|--------|--------|--------|--------|--------|
B|--------|--------|--------|--------|--------|--------|--------|--------|
G|--------|--------|--------|--------|--------|--------|--------|--------|
D|--------|--------|--------|--------|--------|--------|--------|--------|
A|--------|--------|--------|--------|--------|--------|--------|--------|
E|--------|--------|--------|--------|--------|--------|--------|--------|





Track 5: Bass gtr

G|--------|-----21--21----21---|-21--------------|-------------------21--|-21----------|
D|--------|--------------------|-----------------|-----------------------|-------------|
A|--------|--------------------|-----------------|-----------21--21------|-------------|
E|--------|--------------------|-----------------|-----------------------|-------------|
B|--------|--------------------|-----------------|-----------------------|-------------|


G|----------21--21----21--|-21--21---------21-19--------|-------------|--------|-------------------------------|
D|------------------------|----------------------21-21--|-21----------|--------|----------14--14-15-14-12-14---|
A|------------------------|-----------------------------|-------------|--------|-------------------------------|
E|------------------------|-----------------------------|--------19---|-0------|-0-----------------------------|
B|------------------------|-----------------------------|-------------|--------|-------------------------------|


G|--------|-------------------------|--------|--------------------|--------|-----------------------|
D|-14-----|-----------------2-------|--------|----------14--14----|-14-----|-14----14--14--12--14--|
A|--------|-----------2--4----------|--------|--------------------|--------|-----------------------|
E|-0------|-0-----0-------------0---|-0------|-0------------------|-0------|-0---------------------|
B|--------|-------------------------|--------|--------------------|--------|-----------------------|


G|-----------------|-----------------------|--------|---------------------------|--------|
D|-----------------|-------------------7---|-7------|-7-------------------------|--------|
A|-0---0-----0-----|-0-----4----7--7-------|--------|-------0-----0-----0---2---|--------|
E|-----------------|-----------------------|--------|----------------0----------|-0------|
B|-----------------|-----------------------|--------|---------------------------|--------|


G|------------------------|----------------|---------------------------|------------------------|
D|----------14--14---14---|----------------|-----6---------------------|------------------------|
A|------------------------|----------------|----------6---6------------|--------------------4---|
E|-0----------------------|-0----------4---|-4-----------------4-------|-2---------4------------|
B|------------------------|----------------|---------------------------|------------------------|


G|----------------6----|-----------------------|------------------------|---------------------|
D|-------6---6---------|-------4--5--6---------|------------------------|-------4-------------|
A|-4-------------------|-6---------------------|-4------------------4---|-6-------------------|
E|---------------------|-----------------------|----------------4-------|-----------4---------|
B|---------------------|-----------------------|-------2---2------------|---------------------|


G|-----------------------|-----------------|-----------------|-------------------------|
D|-----------------------|-----------------|-----------------|---------------------2---|
A|-4----3----2-----------|-----------------|-----------------|-----------2---2--4------|
E|-----------------2--4--|-5-----4---------|-4----5----2-----|-2-----2-----------------|
B|-----------------------|-----------------|-----------------|-------------------------|


G|----------------21--|-21--------23--23--21--|-21-----|----------------|-----------------------------------|
D|--------------------|-----------------------|--------|----------------|-----------------------------------|
A|--------------------|-----------------------|--------|----------------|-----------------------------------|
E|-0------------------|-0---------------------|-0------|-0------0---0---|-0-------0-----------0--0------0---|
B|--------------------|-----------------------|--------|----------------|-----------------------------------|


G|-----------------------------------|-----------------------------------|---------------------------------------|
D|---------------------12-14-14------|-----------------------------------|-----------------------------------2---|
A|-----------------------------------|-----------------------------------|-----------------------------2--4------|
E|-0-------0---------------------0---|-0-------0-----------0--0------0---|-0------0--0-----------0--0------------|
B|-----------------------------------|-----------------------------------|---------------------------------------|


G|-----------------------------------|---------------------------------------|-----------------------------------|
D|-----------------------------------|-----------------------12-14-14--12-14-|-----------------------------------|
A|-----------------------------------|---------------------------------------|-----------------------------------|
E|-0-------0-----------0------0--0---|-0------0--0---------------------------|-0-------0-----------0------0--0---|
B|-----------------------------------|---------------------------------------|-----------------------------------|


G|-----------------------------------|---------------------------2-------|-----------------------------0---2---|
D|-----------------------------------|------------------------2----------|-------------------------------------|
A|-----------------------------------|-0-------0-------0---0---------0---|-0-------0---------0---0--0----------|
E|-0-------0-----------0--0--2---4---|-----------------------------------|----------------0--------------------|
B|-----------------------------------|-----------------------------------|-------------------------------------|


G|---------------------------2-------|-------------------------------------|-------------------------------------|
D|------------------------2----------|-------------------------------------|-------------------------------------|
A|-0-------0-------0---0---------0---|-0-------0---------0---0-----0---2---|-------------------------------------|
E|-----------------------------------|----------------0---------0----------|-0-------0-----------0--0-----0--0---|
B|-----------------------------------|-------------------------------------|-------------------------------------|


G|--------------------------------|---------------------------------------|-----------------------------|
D|------------------12-14-12--14--|---------------------------------------|-------------------------4---|
A|--------------------------------|---------------------------------------|----------------------6------|
E|-0-------0----0-----------------|-0-------0------0--0-----0--0--0---4---|-4-----7---7----4--7---------|
B|--------------------------------|---------------------------------------|-----------------------------|


G|------------------------------|------------------------------------|------------------------------|
D|------------------6-----------|------------------------------2-----|------------4--6--6-----6-----|
A|------4-------------------4---|--------------------------4------4--|-6-------6-----------------6--|
E|-4--------2---4---------------|------------0---0--0--4-------------|---------------4--4-----------|
B|------------------------------|-2-------2--------------------------|------------------------------|


G|-------6---6--4------------------|--------------------------|-----------------------------|
D|-----------------6---------------|----------------------6---|-------------------2--4--2---|
A|-4------------------7--4---4--4--|-6-------5--6-------------|-4----4--3----2--------------|
E|---------------------------------|----------------4---------|-----------------------------|
B|---------------------------------|--------------------------|-----------------------------|


G|---------------------|--------------------------|-----------------------------|-----------------------|
D|---------------------|----------------------2---|------------------2----------|-----------------------|
A|-0-----0-------------|----------------2--4------|-----------------------4--2--|-0----0----------------|
E|-----------4---------|-4----3----2--------------|-0--------0---0--------------|-----------4-----0--0--|
B|---------------------|--------------------------|-----------------------------|-----------------------|


G|-----------------|-------------------------|-------------------------|----------------------------------|
D|-----------------|---------------------2---|-------------------------|------------------5-----5---------|
A|-----------------|-----------2---2--4------|-------------------------|---------------------5------5-----|
E|-4----3----2-----|-2-----------------------|-0-----0---2--0--2---3---|-3--------3---3----------------0--|
B|-----------------|-------------------------|-------------------------|----------------------------------|


G|---------------------------|-------------------------|--------------------|-------------------------------|
D|----------5----------------|-----------------2---2---|--------------------|-------5---5-------------5-----|
A|---------------------------|-----------2--4----------|--------------------|---------------5--5--5------5--|
E|-3------------2--------0---|-0-----------------------|-0-----2--------3---|-3-----------------------------|
B|---------------------------|-------------------------|--------------------|-------------------------------|


G|---------------------------|---------------------------------------|--------------------------------|
D|----------5----------------|---------------6--6--6-----------------|--------------------------------|
A|---------------------------|-------------------------6-------------|----------------------------4---|
E|-3------------2--------4---|-4---4--4--4-----------------4--4--4---|-----2----2--3--4---4-----------|
B|---------------------------|---------------------------------------|--------------------------------|


G|------------6---6--4----------------|-----------------------------------|----------------------------------|
D|---------5------------6-------------|------------4--6--6----------------|----------------------------------|
A|-4-----------------------7--6---4---|-6----6--6-------------------6--5--|-4--------------------------------|
E|------------------------------------|--------------------------4--------|---------4--0---0--4--0-----------|
B|------------------------------------|-----------------------------------|--------------------------2---2---|


G|-----------------------|-------------------------------|--------------------------|
D|-----------------4--6--|---------------4--3--2---------|----------------------6---|
A|-------6---------------|-4----3----2------------2------|-0----------0-------------|
E|-----------4-----------|---------------------------0---|---------0------4---------|
B|-4---------------------|-------------------------------|--------------------------|


G|-------------------------------|-------------------------------|--------------------------------------|
D|------------------4--4---------|------4---2-----------6--------|-----------------------4--4-----------|
A|---------------4---------------|-0-----------------------6-----|--------------------4--------4--------|
E|-4----3----2-------------2--4--|--------------4----4--------7--|-4----3------0--2---------------2--4--|
B|-------------------------------|-------------------------------|--------------------------------------|


G|-------------2-------------|--------------------4---|-4-----16--------|--------------------|
D|---------2-----------------|------------------------|-----------------|--------------------|
A|-0----0--------------------|------------------------|-----------------|--------------------|
E|-----------------4----4----|-4----3----3------------|-3-----15--------|--------------0-----|
B|---------------------------|------------------------|-----------------|-----12--24---------|


G|-------------------------5---|----------------------------------|-----------------|
D|-----------------------------|-----------5----------------------|-----------------|
A|-----------------------------|-----5--7------7--5---------------|-----------------|
E|-2---0--0--2---3---3---------|-------------------------3--------|-2-----2---0-----|
B|-----------------------------|----------------------------------|-----------------|


G|-------------|
D|-------------|
A|-------------|
E|-------0-----|
B|-------------|