Menu:

 

Search:

 

dream theater - wait for sleep:

 



Title: Wait For Sleep
Artist: 
Album: Images And Words
Author: James Labrie, Kevin Moore, John Myung, Michael Portnoy, John Petrucci


Track 1: Keyboard

E|---------------------------------|-----------------------------10--|-0---8---5---7-------5---7---0---|
B|-12------10--12--0---12------10--|-12--0---12------10--12--0-------|---------------------------------|
G|---------------------------------|---------------------------------|-----------------5---------------|
D|-----9-------------------9-------|-------------9-------------------|---------------------------------|
A|---------------------------------|---------------------------------|---------------------------------|
E|---------------------------------|---------------------------------|---------------------------------|


E|-----7-------5---7---0-------3---|-----2---3-------2---0-----------|---------------------------------|
B|---------------------------------|-------------0---------------3---|-0---12------10--12--0---12------|
G|-5-------5---------------5-------|-2-----------------------2-------|---------------------------------|
D|---------------------------------|---------------------------------|---------9-------------------9---|
A|---------------------------------|---------------------------------|---------------------------------|
E|---------------------------------|---------------------------------|---------------------------------|


E|---------------------------------|-10--0---8---5---7-------5---7---|-0-------7-------5---7---0-------|
B|-10--12--0---12------10--12--0---|---------------------------------|---------------------------------|
G|---------------------------------|---------------------5-----------|-----5-------5---------------5---|
D|-----------------9---------------|---------------------------------|---------------------------------|
A|---------------------------------|---------------------------------|---------------------------------|
E|---------------------------------|---------------------------------|---------------------------------|


E|-3-------2---3-------2---0-------|---------------------------------|---------------------------------|
B|-----------------0---------------|-3---0---12------10--12--0---12--|-----10--12--0---12------10--12--|
G|-----2-----------------------2---|---------------------------------|---------------------------------|
D|---------------------------------|-------------9-------------------|-9-------------------9-----------|
A|---------------------------------|---------------------------------|---------------------------------|
E|---------------------------------|---------------------------------|---------------------------------|


E|-----10--0---8---5---7-------5---|-7---0-------7-------5---7---0---|-----3-------2---3-------2---0---|
B|-0-------------------------------|---------------------------------|---------------------0-----------|
G|-------------------------5-------|---------5-------5---------------|-5-------2-----------------------|
D|---------------------------------|---------------------------------|---------------------------------|
A|---------------------------------|---------------------------------|---------------------------------|
E|---------------------------------|---------------------------------|---------------------------------|


E|---------------------------------|---------------------------------|---------10--0---8---5---7-------|
B|-----3---0---12------10--12--0---|-12------10--12--0---12------10--|-12--0---------------------------|
G|-2-------------------------------|---------------------------------|-----------------------------5---|
D|-----------------9---------------|-----9-------------------9-------|---------------------------------|
A|---------------------------------|---------------------------------|---------------------------------|
E|---------------------------------|---------------------------------|---------------------------------|


E|-5---7---0-------7-------5---7---|-0-------3-------2---3-------2---|-0---------------0-----0---|
B|---------------------------------|-------------------------0-------|---------3---0---8-----8---|
G|-------------5-------5-----------|-----5-------2-------------------|-----2-----------5-----5---|
D|---------------------------------|---------------------------------|-----------------7-----7---|
A|---------------------------------|---------------------------------|-----------------0---------|
E|---------------------------------|---------------------------------|---------------------------|


E|------------------|-0-----0-----0----|-----0-----0-----0---|------5-----5-----|-7-----7-----7----|
B|------7-----7-----|-3-----3-----3----|-----3-----8-----8---|------7-----7-----|-8-----8-----8----|
G|------7-----7-----|-4-----4-----4----|-----4-----5-----5---|------7-----------|-7-----7-----9----|
D|------7-----7-----|-5-----5-----5----|-----5-----7-----7---|------9-----9-----|------------------|
A|------------------|-------------3----|-----------0---------|------------------|-7-----------10---|
E|------7-----------|-0----------------|---------------------|------7-----------|-------------8----|


E|-----7-----8-----7---|------------------|-0-----0-----0----|-----0-----0-----0---|
B|-----8-----8-----8---|------10----8-----|-8-----8-----8----|-----8-----8-----8---|
G|-----9-----9-----9---|------7-----7-----|-7-----7-----7----|-----7-----5-----5---|
D|-----------10----10--|------9-----9-----|-9-----9-----9----|-----9-----7-----7---|
A|-----------0---------|------------------|-7----------------|-----------0---------|
E|---------------------|------7-----------|-------------8----|---------------------|


E|------------------|---------------------------------|-----------------------------10--|
B|------7-----7-----|-12------10--12--0---12------10--|-12--0---12------10--12--0-------|
G|------7-----7-----|---------------------------------|---------------------------------|
D|------7-----7-----|-----9-------------------9-------|-------------9-------------------|
A|------------------|---------------------------------|---------------------------------|
E|------7-----------|---------------------------------|---------------------------------|


E|-0---8---5---7-------5---7---0---|-----7-------5---7---0-------3---|-----2---3-------2---0-----------|
B|---------------------------------|---------------------------------|-------------0---------------3---|
G|-----------------5---------------|-5-------5---------------5-------|-2-----------------------2-------|
D|---------------------------------|---------------------------------|---------------------------------|
A|---------------------------------|---------------------------------|---------------------------------|
E|---------------------------------|---------------------------------|---------------------------------|


E|-----7-----------7-----------7---|---------7-----------7-----------|-7-----------10----------8-------|
B|-0-----------10------------------|-----10----------------------10--|-----------------8---------------|
G|---------------------9-----------|-------------9-------------------|-----9---------------9-------8---|
D|---------9---------------9-------|-9---------------9-------9-------|---------9-----------------------|
A|-----------------7-----------7---|---------------------------------|-7-----------7-------------------|
E|-----0---------------------------|---------------------0-----------|---------------------------------|


E|-----7-----------7---0-------7---|---------7---0-------3-----------|-3-------------------0-------3---|
B|-------------10------------------|-----10----------------------7---|-7---0---7---5-----------7-------|
G|-----------------0-----------0---|---------------------------------|-----------------7---------------|
D|-9-------10--------------10------|-10--------------10------7-------|---------------------------------|
A|---------------------------------|---------------------0-----------|---------------------------------|
E|-----8---------------------------|---------------------------------|-------------7-------------------|


E|-0---7-----------7-----------7---|---------7-----------7-----------|-7-----------10----------8-------|
B|-------------10------------------|-----10----------------------10--|-----------------8---------------|
G|---------------------9-----------|-------------9-------------------|-----9---------------9-------8---|
D|-7-------9---------------9-------|-9---------------9-------9-------|---------9-----------------------|
A|-----------------7-----------7---|---------------------------------|-7-----------7-------------------|
E|-----0---------------------------|---------------------0-----------|---------------------------------|


E|-----7-----------7---0-------7---|---------7---0-------3-----------|-3-----------0-------0-----------|
B|-------------10------------------|-----10----------------------7---|-7---0---7-------5-------0-------|
G|-----------------0-----------0---|---------------------------------|-----------------------------4---|
D|-9-------10--------------10------|-10--------------10------7-------|---------------------------------|
A|---------------------------------|---------------------0-----------|-------------0-------------------|
E|-----8---------------------------|---------------------------------|---------------------------------|


E|-----0-----0---------|---------------0-----|-0-----0-----0----|-----0-----0-----5---|
B|-0---8-----8-----7---|------7--------3-----|-3-----3-----3----|-----8-----8-----7---|
G|-----5-----5-----7---|------7--------4-----|-4-----4-----4----|-----5-----5-----7---|
D|-----7-----7-----7---|------7--------5-----|-5-----5-----5----|-----7-----7-----9---|
A|-----0---------------|---------------------|-------3----------|-----0---------------|
E|-----------------7---|---------------0-----|------------------|-----------------7---|


E|------5--------7-----|-7-----7-----7----|-----8-----7---------|---------------0-----|
B|------7--------8-----|-8-----8-----8----|-----8-----8-----10--|------8--------8-----|
G|---------------7-----|-7-----9-----9----|-----9-----9-----7---|------7--------7-----|
D|------9--------------|------------------|-----10----10----9---|------9--------9-----|
A|---------------7-----|-------10---------|-----0---------------|---------------7-----|
E|---------------------|-------8----------|-----------------7---|---------------------|


E|-0-----0-----0----|-----0-----0---------|------------------------|---------------------------------|
B|-8-----8-----8----|-----8-----8-----7---|------7-----12------10--|-12--0---12------10--12--0---12--|
G|-7-----7-----7----|-----5-----5-----7---|------7-----------------|---------------------------------|
D|-9-----9-----9----|-----7-----7-----7---|------7---------9-------|-------------9-------------------|
A|------------------|-----0---------------|------------------------|---------------------------------|
E|-------8----------|-----------------7---|------------------------|---------------------------------|


E|-----------------10--0---8---5---|-7-------5---7---0-------7-------|-5---7---0-------3-------2---3---|
B|-----10--12--0-------------------|---------------------------------|---------------------------------|
G|---------------------------------|-----5---------------5-------5---|-------------5-------2-----------|
D|-9-------------------------------|---------------------------------|---------------------------------|
A|---------------------------------|---------------------------------|---------------------------------|
E|---------------------------------|---------------------------------|---------------------------------|


E|-----2---0---------------7-------|-----7-----------7-----------7---|---------7-----------7-----------|
B|-0---------------3---0-----------|-10----------------------10------|-----------------10--------------|
G|-------------2-------------------|---------9-----------------------|-9-----------------------9-------|
D|-----------------------------9---|-------------9-------9-----------|-----9-------9---------------9---|
A|---------------------------------|-----7-----------7---------------|---------------------7-----------|
E|-------------------------0-------|---------------------------------|---------0-----------------------|


E|-10----------8-----------7-------|-----7---0-------7-----------7---|-0-------3-----------3-----------|
B|-----8---------------------------|-10----------------------10------|-----------------7---7---0---7---|
G|---------9-------8---------------|-----0-----------0---------------|---------------------------------|
D|---------------------9-------10--|-------------10------10----------|-----10------7-------------------|
A|-7-------------------------------|---------------------------------|---------0-----------------------|
E|-------------------------8-------|---------------------------------|---------------------------------|


E|---------0-------3---0---7-------|-----7-----------7-----------7---|---------7-----------7-----------|
B|-5-----------7-------------------|-10----------------------10------|-----------------10--------------|
G|-----7---------------------------|---------9-----------------------|-9-----------------------9-------|
D|---------------------7-------9---|-------------9-------9-----------|-----9-------9---------------9---|
A|---------------------------------|-----7-----------7---------------|---------------------7-----------|
E|-7-----------------------0-------|---------------------------------|---------0-----------------------|


E|-10----------8-----------7-------|-----7---0-------7-----------7---|-0-------3-----------3-----------|
B|-----8---------------------------|-10----------------------10------|-----------------7---7---0---7---|
G|---------9-------8---------------|-----0-----------0---------------|---------------------------------|
D|---------------------9-------10--|-------------10------10----------|-----10------7-------------------|
A|-7-------------------------------|---------------------------------|---------0-----------------------|
E|-------------------------8-------|---------------------------------|---------------------------------|


E|-0-------0---------------0-------|-----0-------0---0-----------0---|-----0---0-----------0-------0---|
B|-----5-------0-------0-----------|-3-----------------------3-------|-----------------3---------------|
G|-----------------4-----------4---|---------4-----------4-----------|-4-----------4-----------4-------|
D|---------------------------------|---------------------------------|---------------------------------|
A|-0-----------------------0-------|-----2-------2---0---------------|---------0-----------2-------2---|
E|---------------------------------|---------------------------------|---------------------------------|


E|-0-----------0-------0---0----|--------------5------------|------0-----0-----|-0-----------12----7----|
B|---------3--------------------|--------------7----8---8---|-7----8-----8-----|---------12--------8----|
G|-----4-----------4-------2----|--------------7----7---7---|-7----7-----8-----|-----12------------7----|
D|-------------------------0----|-----0----0---0------------|------------------|------------------------|
A|-0----------------------------|---------------------------|------------------|-------------------0----|
E|------------------------------|---------------------------|------8-----------|-8----------------------|


E|-----10----10-----------|------0-----------|-0-----------0----|--------------5------------|
B|----------------8---8---|-7----0-----0-----|-0-----0-----0----|--------------7----8---8---|
G|------------------------|------7-----------|-7-----------7----|--------------7----7---7---|
D|------------------------|------9-----------|-9----------------|-----4---------------------|
A|-----------12-----------|------------------|------------------|---------------------------|
E|------------------------|------------------|-------------7----|----------7---7------------|


E|------0-----0-----|---------12--7-----------0----|------------------------|------------------|
B|-7----8-----8-----|-----8-----------8-------7----|-----------7----8---8---|-10---12----------|
G|-7----7-----5-----|-11------------------8---7----|-----------7----9---9---|-11---12----------|
D|------------7-----|-0-----------------------0----|-----7-----0------------|------12----12----|
A|------0-----------|------------------------------|------------------------|------------------|
E|------------------|------------------------------|------------------------|------8-----------|


E|-------------7----|-----10----10-----------|------0------|-0------5----|---------------------------|
B|-12----------7----|----------------8---8---|-7----3------|-3------7----|--------------7----8---8---|
G|-12----------7----|-----------0------------|------4------|-4-----------|--------------7----9---9---|
D|-12----12----0----|------------------------|------2------|-2------0----|-----7----0---0------------|
A|------------------|------------------------|------3------|-3------0----|-------------------7---7---|
E|-8----------------|------------------------|-------------|-------------|---------------------------|


E|---------------------|------------------|-------------|------0------|--------0----|
B|-10---12----12---12--|-12----------7----|-------10----|-------------|-7------8----|
G|-11---12----12---12--|-12----------7----|-------7-----|------0------|-7-----------|
D|-0----12----12-------|-------12----7----|-------9-----|-------------|-------------|
A|---------------------|------------------|-------------|-------------|-------------|
E|------12-------------|-12----------7----|-------7-----|------8------|-8------8----|


E|-------0-----|------------------------------|---------------------------------|-----10--0---8---5---7-------5---|
B|-------10----|------12------10--12--0---12--|-----10--12--0---12------10--12--|-0-------------------------------|
G|-------7-----|------------------------------|---------------------------------|-------------------------5-------|
D|-------------|----------9-------------------|-9-------------------9-----------|---------------------------------|
A|-------------|------------------------------|---------------------------------|---------------------------------|
E|-------8-----|------------------------------|---------------------------------|---------------------------------|


E|-7---0-------7-------5---7---0---|-----3-------2---3-------2---0---|---------------------------------|
B|---------------------------------|---------------------0-----------|-----3---0---12------10--12--0---|
G|---------5-------5---------------|-5-------2-----------------------|-2-------------------------------|
D|---------------------------------|---------------------------------|-----------------9---------------|
A|---------------------------------|---------------------------------|---------------------------------|
E|---------------------------------|---------------------------------|---------------------------------|


E|---------------------------------|---------10--0---8---5---7-------|-5---7---0-------7-------5---7---|
B|-12------10--12--0---12------10--|-12--0---------------------------|---------------------------------|
G|---------------------------------|-----------------------------5---|-------------5-------5-----------|
D|-----9-------------------9-------|---------------------------------|---------------------------------|
A|---------------------------------|---------------------------------|---------------------------------|
E|---------------------------------|---------------------------------|---------------------------------|


E|-0-------3-------2---3-------2---|-0-------------------------|
B|-------------------------0-------|---------3---0-------------|
G|-----5-------2-------------------|-----2---------------------|
D|---------------------------------|---------------------------|
A|---------------------------------|---------------------------|
E|---------------------------------|---------------------------|





Track 2: Guitar

E|--------|--------|--------|--------|--------|---------------------------------|---------------------------------|
B|--------|--------|--------|--------|--------|-----12----------12------12------|-----12------12----------12------|
G|--------|--------|--------|--------|--------|---------------------------------|---------------------------------|
D|--------|--------|--------|--------|--------|---------12------------------12--|-----------------12--------------|
A|--------|--------|--------|--------|--------|-----------------7---------------|-----7-------------------7-------|
E|--------|--------|--------|--------|--------|-----12------7-------7---12------|-7-------7---12------7-------7---|


E|---------8-------7-----------7---|-0-------7-----------7---0-------|-3-------2---3-------2---0-------|
B|-------------------------10------|-----------------10--------------|-------------0-------------------|
G|-7-------------------0-----------|-----10------0---------------10--|---------2-----------2-------0---|
D|-------------7-------10------10--|-------------10------10----------|-----2-----------2-------4-------|
A|-----7---7-----------------------|---------------------------------|-0-----------------------0-------|
E|-7---------------8---------------|---------8-----------------------|---------------------------------|


E|---------7-----------7-------7---|---------7-------7-----------7---|-----10------8-------7-----------|
B|-3---0-----------10--------------|-----10------------------10------|-----------------10----------10--|
G|---------------------------------|---------------------------------|---------9-----------------------|
D|-4---2-------9-----------9-------|-9-----------9-------9-----------|-9-----------------------10------|
A|---------------------7-----------|---------7-------------------7---|---------------------------------|
E|---------0-------------------0---|-----------------0---------------|-----0---------------8-----------|


E|-7---0-------7-----------7---0---|-----0-----------3-----------0---|-------------7-----------7-------|
B|---------------------10----------|-------------7---7---0---7-------|---------9-----------10----------|
G|---------------------------------|---------------------------------|-----7---------------------------|
D|---------10------10--------------|-10------7-----------------------|-9---------------9-----------9---|
A|---------------------------------|-----0---------------------------|-------------------------7-------|
E|-------------8-------------------|-----------------------------7---|-------------0-------------------|


E|-7-----------7-------7-----------|-7-------10------8-------7-------|-----7---0-------7-----------7---|
B|---------10------------------10--|---------------------10----------|-10----------------------10------|
G|---------------------------------|-------------9-------------------|---------------------------------|
D|-----9-----------9-------9-------|-----9-----------------------10--|-------------10------10----------|
A|-------------7-------------------|-7-------------------------------|---------------------------------|
E|-0-------------------0-----------|---------0---------------8-------|-----------------8---------------|


E|-0-------0-----------3-----------|-0-------------------0---------|--------|--------|
B|-----------------7---7---0---7---|---------3-------5-------------|--------|--------|
G|---------------------------------|-----7-------7-----------------|--------|--------|
D|-----10------7-------------------|-------------------------------|--------|--------|
A|---------0-----------------------|-------------------------------|--------|--------|
E|---------------------------------|-7-----------------------------|--------|--------|


E|--------|--------|--------|--------|--------|--------|--------|--------|---------------------------------|
B|--------|--------|--------|--------|--------|--------|--------|--------|-12----------12------12----------|
G|--------|--------|--------|--------|--------|--------|--------|--------|---------------------------------|
D|--------|--------|--------|--------|--------|--------|--------|--------|-----12------------------12------|
A|--------|--------|--------|--------|--------|--------|--------|--------|-------------7-------------------|
E|--------|--------|--------|--------|--------|--------|--------|--------|-12------7-------7---12------7---|


E|---------------------------------|-----8-------7-----------7---0---|-----7-----------7---0-------3---|
B|-12------12----------12----------|---------------------10----------|-------------10------------------|
G|-----------------------------7---|-----------------0---------------|-10------0---------------10------|
D|-------------12------------------|---------7-------10------10------|---------10------10--------------|
A|-7-------------------7-----------|-7---7---------------------------|-----------------------------0---|
E|-----7---12------7-------7---7---|-------------8-------------------|-----8---------------------------|


E|-----2---3-------2---0-----------|----------------|--------|--------|--------|--------|
B|---------0-------------------3---|-0--------------|--------|--------|--------|--------|
G|-----2-----------2-------0-------|----------------|--------|--------|--------|--------|
D|-2-----------2-------4-------4---|-2--------------|--------|--------|--------|--------|
A|---------------------0-----------|----------------|--------|--------|--------|--------|
E|---------------------------------|----------------|--------|--------|--------|--------|


E|--------|--------|--------|--------|--------|--------|--------|--------|--------|
B|--------|--------|--------|--------|--------|--------|--------|--------|--------|
G|--------|--------|--------|--------|--------|--------|--------|--------|--------|
D|--------|--------|--------|--------|--------|--------|--------|--------|--------|
A|--------|--------|--------|--------|--------|--------|--------|--------|--------|
E|--------|--------|--------|--------|--------|--------|--------|--------|--------|


E|--------|--------|--------|--------|--------|--------|--------|--------|-----------------------|
B|--------|--------|--------|--------|--------|--------|--------|--------|-----------12----------|
G|--------|--------|--------|--------|--------|--------|--------|--------|-----------------------|
D|--------|--------|--------|--------|--------|--------|--------|--------|---------------12------|
A|--------|--------|--------|--------|--------|--------|--------|--------|-----------------------|
E|--------|--------|--------|--------|--------|--------|--------|--------|-----------12------7---|


E|---------------------------------|-------------------------8-------|-7-----------7---0-------7-------|
B|-12------12----------12------12--|---------12----------------------|---------10----------------------|
G|---------------------------------|-----------------7---------------|-----0---------------10------0---|
D|-------------12------------------|-12--------------------------7---|-----10------10--------------10--|
A|-7-------------------7-----------|---------7-----------7---7-------|---------------------------------|
E|-----7---12------7-------7---12--|-----7-------7---7---------------|-8-----------------------8-------|


E|-----7---0-------3-------2---3---|-----2---0--------------------|--------|--------|
B|-10--------------------------0---|-----------------3---0--------|--------|--------|
G|-------------10----------2-------|-----2-------0----------------|--------|--------|
D|-----10--------------2-----------|-2-------4-------4---2--------|--------|--------|
A|-----------------0---------------|---------0--------------------|--------|--------|
E|---------------------------------|------------------------------|--------|--------|


E|--------|--------|--------|--------|--------|--------|--------|--------|--------|
B|--------|--------|--------|--------|--------|--------|--------|--------|--------|
G|--------|--------|--------|--------|--------|--------|--------|--------|--------|
D|--------|--------|--------|--------|--------|--------|--------|--------|--------|
A|--------|--------|--------|--------|--------|--------|--------|--------|--------|
E|--------|--------|--------|--------|--------|--------|--------|--------|--------|


E|--------|--------|--------|--------|--------|--------|--------|--------|--------|
B|--------|--------|--------|--------|--------|--------|--------|--------|--------|
G|--------|--------|--------|--------|--------|--------|--------|--------|--------|
D|--------|--------|--------|--------|--------|--------|--------|--------|--------|
A|--------|--------|--------|--------|--------|--------|--------|--------|--------|
E|--------|--------|--------|--------|--------|--------|--------|--------|--------|


E|--------|--------|--------|--------|--------|--------|--------|--------|--------|
B|--------|--------|--------|--------|--------|--------|--------|--------|--------|
G|--------|--------|--------|--------|--------|--------|--------|--------|--------|
D|--------|--------|--------|--------|--------|--------|--------|--------|--------|
A|--------|--------|--------|--------|--------|--------|--------|--------|--------|
E|--------|--------|--------|--------|--------|--------|--------|--------|--------|


E|--------|--------|--------|--------|--------|--------|--------|--------|------------------------------|
B|--------|--------|--------|--------|--------|--------|--------|--------|------12----------12------12--|
G|--------|--------|--------|--------|--------|--------|--------|--------|------------------------------|
D|--------|--------|--------|--------|--------|--------|--------|--------|----------12------------------|
A|--------|--------|--------|--------|--------|--------|--------|--------|------------------7-----------|
E|--------|--------|--------|--------|--------|--------|--------|--------|------12------7-------7---12--|


E|---------------------------------|-------------8-------7-----------|-7---0-------7-----------7---0---|
B|---------12------12----------12--|-----------------------------10--|---------------------10----------|
G|---------------------------------|-----7-------------------0-------|---------10------0---------------|
D|-12------------------12----------|-----------------7-------10------|-10--------------10------10------|
A|---------7-------------------7---|---------7---7-------------------|---------------------------------|
E|-----7-------7---12------7-------|-7---7---------------8-----------|-------------8-------------------|


E|-----3-------2---3-------2---0---|---------------------------------|---------------------------------|
B|-----------------0---------------|-----3---0---12----------12------|-12----------12------12----------|
G|-10----------2-----------2-------|-0-------------------------------|---------------------------------|
D|---------2-----------2-------4---|-----4---2-------12--------------|-----12------------------12------|
A|-----0-----------------------0---|-------------------------7-------|-------------7-------------------|
E|---------------------------------|-------------12------7-------7---|-12------7-------7---12------7---|


E|-----------------8-------7-------|-----7---0-------7-----------7---|-0-------3-------2---3-------0---|
B|-12------------------------------|-10----------------------10------|---------------------0---1-------|
G|---------7-------------------0---|-------------10------0-----------|-----10----------2-----------2---|
D|---------------------7-------10--|-----10--------------10------10--|-------------2-------------------|
A|-7-----------7---7---------------|---------------------------------|---------0-----------------------|
E|-----7---7---------------8-------|-----------------8---------------|---------------------------------|


E|-----0---3-------10------0----|
B|-3-------0---12------7---3----|
G|-----0-----------11------2----|
D|-4-----------12------7---4----|
A|-------------------------2----|
E|-------------------------0----|





Track 3: Untitled

G|--------|--------|--------|--------|--------|--------|--------|--------|--------|
D|--------|--------|--------|--------|--------|--------|--------|--------|--------|
A|--------|--------|--------|--------|--------|--------|--------|--------|--------|
E|--------|--------|--------|--------|--------|--------|--------|--------|--------|


G|--------|--------|--------|--------|--------|--------|--------|--------|--------|
D|--------|--------|--------|--------|--------|--------|--------|--------|--------|
A|--------|--------|--------|--------|--------|--------|--------|--------|--------|
E|--------|--------|--------|--------|--------|--------|--------|--------|--------|


G|--------|--------|--------|--------|--------|--------|--------|--------|--------|
D|--------|--------|--------|--------|--------|--------|--------|--------|--------|
A|--------|--------|--------|--------|--------|--------|--------|--------|--------|
E|--------|--------|--------|--------|--------|--------|--------|--------|--------|


G|--------|--------|--------|--------|--------|--------|--------|--------|--------|
D|--------|--------|--------|--------|--------|--------|--------|--------|--------|
A|--------|--------|--------|--------|--------|--------|--------|--------|--------|
E|--------|--------|--------|--------|--------|--------|--------|--------|--------|


G|--------|--------|--------|--------|--------|--------|--------|--------|--------|
D|--------|--------|--------|--------|--------|--------|--------|--------|--------|
A|--------|--------|--------|--------|--------|--------|--------|--------|--------|
E|--------|--------|--------|--------|--------|--------|--------|--------|--------|


G|--------|--------|--------|--------|--------|--------|--------|--------|--------|
D|--------|--------|--------|--------|--------|--------|--------|--------|--------|
A|--------|--------|--------|--------|--------|--------|--------|--------|--------|
E|--------|--------|--------|--------|--------|--------|--------|--------|--------|


G|--------|--------|--------|--------|--------|--------|--------|--------|--------|
D|--------|--------|--------|--------|--------|--------|--------|--------|--------|
A|--------|--------|--------|--------|--------|--------|--------|--------|--------|
E|--------|--------|--------|--------|--------|--------|--------|--------|--------|


G|--------|--------|--------|--------|--------|--------|--------|--------|--------|
D|--------|--------|--------|--------|--------|--------|--------|--------|--------|
A|--------|--------|--------|--------|--------|--------|--------|--------|--------|
E|--------|--------|--------|--------|--------|--------|--------|--------|--------|


G|--------|--------|--------|--------|--------|--------|--------|--------|--------|
D|--------|--------|--------|--------|--------|--------|--------|--------|--------|
A|--------|--------|--------|--------|--------|--------|--------|--------|--------|
E|--------|--------|--------|--------|--------|--------|--------|--------|--------|


G|--------|--------|--------|--------|--------|--------|--------|--------|--------|
D|--------|--------|--------|--------|--------|--------|--------|--------|--------|
A|--------|--------|--------|--------|--------|--------|--------|--------|--------|
E|--------|--------|--------|--------|--------|--------|--------|--------|--------|


G|--------|--------|--------|--------|--------|--------|--------|--------|--------|
D|--------|--------|--------|--------|--------|--------|--------|--------|--------|
A|--------|--------|--------|--------|--------|--------|--------|--------|--------|
E|--------|--------|--------|--------|--------|--------|--------|--------|--------|


G|--------|--------|--------|--------|--------|--------|--------|--------|--------|
D|--------|--------|--------|--------|--------|--------|--------|--------|--------|
A|--------|--------|--------|--------|--------|--------|--------|--------|--------|
E|--------|--------|--------|--------|--------|--------|--------|--------|--------|


G|--------|--------|--------|--------|
D|--------|--------|--------|--------|
A|--------|--------|--------|--------|
E|--------|--------|--------|--------|