Menu:

 

Search:

 

dream theater - voices:

 



/---------------------------------------------------------------------------
/ The following is the author's own interpretation of the song, to be used -
/ for studying or private use only, removal of any part of this ten line   -
/ header is illegal!!!  Removal of the transcribers name or anything       -
/ relevant to the transcriber is also illegal, as so is the removal of the -
/ place inwhich the tab was downloaded. Publishing as well as printing of  -
/ the tab is illegal without permission of the transcriber and copyright   -
/ owner of the song. Failure to apply to these laws result will in legal   -
/ action from the appropriate parties.                                     -
/---------------------------------------------------------------------------

downloaded from Displacer's Tablature Site at
        http://www.dsrmusic.com/metaltab
join the death/black tab emailing list by filling out the free
subscription form at http://www.dsrmusic.com/metaltab/join.htm


Voices - Guitar Tab


Author - Brian Cox


Voices

A Mind Beside Itself: II. Voices

                     Transcribed by Brian Cox (lerxst@tamu.edu)

each dash represents one 32nd note.  top staff is guitar, bottom staff
is 6- string bass, tuned as shown.

      guitar:
   _  1                                    2
E||_||0-----------------------------------|------------------------------------|
B|  ||-0----------------------------------|------------------------------------|
G|   |------------------------------------|------------------------------------|
D| _ |------------------------------------|------------------------------------|
A||_||------------------------------------|------------------------------------|
E||_||------------------------------------|------------------------------------|
 |                                                                             |
 |                                                                             |
 |    6 string bass:                                                           |
 | _                                                                           |
C||_||----16------16--15----------14------|----16------16--15----------14------|
G|  ||14------14----------17--14------17--|14------14----------17--14------17--|
D|   |------------------------------------|------------------------------------|
A| _ |------------------------------------|------------------------------------|
E||_||------------------------------------|------------------------------------|
B||_||------------------------------------|------------------------------------|

      
   _  3                                    4
E||_||------------------------------------|------------------------------------|
B|  ||------------------------------------|------------------------------------|
G|   |------------------------------------|------------------------------------|
D| _ |------------------------------------|------------------------------------|
A||_||------------------------------------|------------------------------------|
E||_||------------------------------------|------------------------------------|
 |                                                                             |
 |                                                                             |
 |                                                                             |
 | _                                                                           |
C||_||----16------16--15----------14------|----16------16--15----------14------|
G|  ||14------14----------17--14------17--|14------14----------17--14------17--|
D|   |------------------------------------|------------------------------------|
A| _ |------------------------------------|------------------------------------|
E||_||------------------------------------|------------------------------------|
B||_||------------------------------------|------------------------------------|


   _  5                                    6
E||_||------------------------------------|------------------------------------|
B|  ||------------------------------------|------------------------------------|
G|   |------------------------------------|------------------------------------|
D| _ |2-------------------------------2---|1-------------------------------1---|
A||_||0-------------------------------0---|0-------------------------------0---|
E||_||------------------------------------|------------------------------------|
 |                                                                             |
 |                                                                             |
 |                                                                             |
 | _                                                                           |
C||_||----16------16--15----------14------|----16------16--15----------14------|
G|  ||14------14----------17--14------17--|14------14----------17--14------17--|
D|   |------------------------------------|------------------------------------|
A| _ |------------------------------------|------------------------------------|
E||_||------------------------------------|------------------------------------|
B||_||------------------------------------|------------------------------------|
   


   _  7                                    8
E||_||------------------------------------|------------------------------------|
B|  ||------------------------------------|------------------------------------|
G|   |------------------------------------|------------------------------------|
D| _ |3-------------------------------3---|5---------------3---------------3---|
A||_||0-------------------------------0---|0---------------0---------------0---|
E||_||------------------------------------|------------------------------------|
 |                                                                             |
 |                                                                             |
 |                                                                             |
 | _                                                                           |
C||_||----16------16--15----------14------|----16------16--15----------14------|
G|  ||14------14----------17--14------17--|14------14----------17--14------17--|
D|   |------------------------------------|------------------------------------|
A| _ |------------------------------------|------------------------------------|
E||_||------------------------------------|------------------------------------|
B||_||------------------------------------|------------------------------------|
   

   _  9                                    10
E||_||------------------------------------|------------------------------------|
B|  ||------------------------------------|------------------------------------|
G|   |------------------------------------|------------------------------------|
D| _ |2-------------------------------2---|1-------------------------------1---|
A||_||0-------------------------------0---|0-------------------------------0---|
E||_||------------------------------------|------------------------------------|
 |                                                                             |
 |                                                                             |
 |                                                                             |
 | _                                                                           |
C||_||------------------------------------|------------------------------------|
G|  ||----9-------9---8-----------7-------|----9-------9---8-----------7-------|
D|   |7-------7-----------10--7-------10--|7-------7-----------10--7-------10--|
A| _ |------------------------------------|------------------------------------|
E||_||------------------------------------|------------------------------------|
B||_||------------------------------------|------------------------------------|
   


   _  11                                   12
E||_||------------------------------------|------------------------------------|
B|  ||------------------------------------|------------------------------------|
G|   |------------------------------------|------------------------------------|
D| _ |3-------------------------------3---|5---------------3---------------3---|
A||_||0-------------------------------0---|0---------------0---------------0---|
E||_||------------------------------------|------------------------------------|
 |                                                                             |
 |                                                                             |
 |                                                                             |
 | _                                                                           |
C||_||------------------------------------|------------------------------------|
G|  ||----9-------9---8-----------7-------|------------------------------------|
D|   |7-------7-----------10--7-------10--|------------------------------------|
A| _ |------------------------------------|------------------------------------|
E||_||------------------------------------|3---------------1---------------0---|
B||_||------------------------------------|------------------------------------|
   

   _  13                                  14
E||_||------------------------------------|------------------------------------|
B|  ||10------------------------------10--|10------------------------------10--|
G|   |9-------------------------------9---|8-------------------------------8---|
D| _ |7-------------------------------7---|7-------------------------------7---|
A||_||7-------------------------------7---|7-------------------------------7---|
E||_||------------------------------------|------------------------------------|
 |                                                                             |
 |                                                                             |
 |                                                                             |
 | _                                                                           |
C||_||------------------------------------|------------------------------------|
G|  ||------------------------------------|------------------------------------|
D|   |----2-------2---1-----------0-------|----2-------2---1-----------0-------|
A| _ |0-------0-----------3---0-------3---|0-------0-----------3---0-------3---|
E||_||------------------------------------|------------------------------------|
B||_||------------------------------------|------------------------------------|
   

   _  15                                  16
E||_||------------------------------------|------------------------------------|
B|  ||------------------------------------|------------------------------------|
G|   |10------------------------------10--|12--------------10--------------10--|
D| _ |7-------------------------------7---|7---------------7---------------7---|
A||_||7-------------------------------7---|7---------------7---------------7---|
E||_||------------------------------------|------------------------------------|
 |                                                                             |
 |                                                                             |
 |                                                                             |
 | _                                                                           |
C||_||------------------------------------|------------------------------------|
G|  ||------------------------------------|------------------------------------|
D|   |----2-------2---1-----------0-------|------------0---1---0-------0-------|
A| _ |0-------0-----------3---0-------3---|0---3---4---------------3-------3---|
E||_||------------------------------------|------------------------------------|
B||_||------------------------------------|------------------------------------|
   

   _  17                                  18
E||_||------------------------------------|------------------------------------|
B|  ||10--101010--101010--101010--101010--|10--101010--101010--101010--101010--|
G|   |9---9-9-9---9-9-9---9-9-9---9-9-9---|8---8-8-8---8-8-8---8-8-8---8-8-8---|
D| _ |7---7-7-7---7-7-7---7-7-7---7-7-7---|7---7-7-7---7-7-7---7-7-7---7-7-7---|
A||_||7---7-7-7---7-7-7---7-7-7---7-7-7---|7---7-7-7---7-7-7---7-7-7---7-7-7---|
E||_||------------------------------------|------------------------------------|
 |                                                                             |
 |                                                                             |
 |                                                                             |
 | _                                                                           |
C||_||------------------------------------|------------------------------------|
G|  ||------------------------------------|------------------------------------|
D|   |----2-------2---1-----------0-------|----2-------2---1-----------0-------|
A| _ |0-------0-----------3---0-------3---|0-------0-----------3---0-------3---|
E||_||------------------------------------|------------------------------------|
B||_||------------------------------------|------------------------------------|
   

   _  19                                   20
E||_||------------------------------------|------------------------------------|
B|  ||------------------------------------|------------------------------------|
G|   |10--101010--101010--101010--101010--|12--121212--121210--101010--101010--|
D| _ |7---7-7-7---7-7-7---7-7-7---7-7-7---|7---7-7-7---7-7-7---7-7-7---7-7-7---|
A||_||7---7-7-7---7-7-7---7-7-7---7-7-7---|7---7-7-7---7-7-7---7-7-7---7-7-7---|
E||_||------------------------------------|------------------------------------|
 |                                                                             |
 |                                                                             |
 |                                                                             |
 | _                                                                           |
C||_||------------------------------------|------------------------------------|
G|  ||------------------------------------|------------------------------------|
D|   |----2-------2---1-----------0-------|------------0---1---0-------0-------|
A| _ |0-------0-----------3---0-------3---|0---3---4---------------3-------3---|
E||_||------------------------------------|------------------------------------|
B||_||------------------------------------|------------------------------------|
   


   _  21                                   22
E||_||------------------------------------|------------------------------------|
B|  ||------------------------------------|------------------------------------|
G|   |------------------------------------|------------------------------------|
D| _ |----2-------2---1-----------0-------|----2-------2---1-----------0-------|
A||_||0-------0-----------3---0-------3---|0-------0-----------3---0-------3---|
E||_||------------------------------------|------------------------------------|
 |                                                                             |
 |                                                                             |
 |                                                                             |
 | _                                                                           |
C||_||------------------------------------|------------------------------------|
G|  ||------------------------------------|------------------------------------|
D|   |----2-------2---1-----------0-------|----2-------2---1-----------0-------|
A| _ |0-------0-----------3---0-------3---|0-------0-----------3---0-------3---|
E||_||------------------------------------|------------------------------------|
B||_||------------------------------------|------------------------------------|
   

   _  23                                   24
E||_||------------------------------------|------------------------------------|
B|  ||------------------------------------|------------------------------------|
G|   |------------------------------------|------------------------------------|
D| _ |----2-------2---1-----------0-------|------------0---1---0-------0-------|
A||_||0-------0-----------3---0-------3---|0---3---4---------------3-------3---|
E||_||------------------------------------|------------------------------------|
 |                                                                             |
 |                                                                             |
 |                                                                             |
 | _                                                                           |
C||_||------------------------------------|------------------------------------|
G|  ||------------------------------------|------------------------------------|
D|   |----2-------2---1-----------0-------|------------0---1---0-------0-------|
A| _ |0-------0-----------3---0-------3---|0---3---4---------------3-------3---|
E||_||------------------------------------|------------------------------------|
B||_||------------------------------------|------------------------------------|
   

   _  25                                   26
E||_||------------------------------------|------------------------------------|
B|  ||------------------------------------|------------------------------------|
G|   |------------------------------------|------------------------------------|
D| _ |------------------------------------|------------------------------------|
A||_||----2-------2---1---------5/7---5---|----2-------2---1---------5/7---5---|
E||_||0-------0-----------3---0-3/5---3---|0-------0-----------3---0-3/5---3---|
 |                                                                             |
 |                                                                             |
 |                                                                             |
 | _                                                                           |
C||_||------------------------------------|------------------------------------|
G|  ||------------------------------------|------------------------------------|
D|   |------------------------------------|------------------------------------|
A| _ |----2-------2---1-----------0-------|----2-------2---1-----------0-------|
E||_||0-------0-----------3---0-------3---|0-------0-----------3---0-------3---|
B||_||------------------------------------|------------------------------------|
   

   _  27                                   28
E||_||------------------------------------|------------------------------------|
B|  ||------------------------------------|------------------------------------|
G|   |------------------------------------|------------------------------------|
D| _ |------------------------------------|------------------------------------|
A||_||----2-------2---1---------5/7---5---|----2-------2---1---0---------------|
E||_||0-------0-----------3---0-3/5---3---|0-------0---------------3---1---0---|
 |                                                                             |
 |                                                                             |
 |                                                                             |
 | _                                                                           |
C||_||------------------------------------|------------------------------------|
G|  ||------------------------------------|------------------------------------|
D|   |------------------------------------|------------------------------------|
A| _ |----2-------2---1-----------0-------|----2-------2---1---0---------------|
E||_||0-------0-----------3---0-------3---|0-------0---------------3---1---0---|
B||_||------------------------------------|------------------------------------|
   



   _  29                                   30
E||_||------------------------------------|------------------------------------|
B|  ||------------------------------------|------------------------------------|
G|   |------------------------------------|------------------------------------|
D| _ |----2-------2---1-----------0-------|----2-------2---1-----------0-------|
A||_||0-------0-----------3---0-------3---|0-------0-----------3---0-------3---|
E||_||------------------------------------|------------------------------------|
 |                                                                             |
 |                                                                             |
 |                                                                             |
 | _                                                                           |
C||_||------------------------------------|------------------------------------|
G|  ||------------------------------------|------------------------------------|
D|   |----2-------2---1-----------0-------|----2-------2---1-----------0-------|
A| _ |0-------0-----------3---0-------3---|0-------0-----------3---0-------3---|
E||_||------------------------------------|------------------------------------|
B||_||------------------------------------|------------------------------------|
   

   _  31                                   32  (pinch harmonics)
E||_||------------------------------------|------------------------------------|
B|  ||------------------------------------|------------------------------------|
G|   |------------------------------------|------------------------------------|
D| _ |----2-------2---1-----------0-------|------------------------------------|
A||_||0-------0-----------3---0-------3---|0--(3)-(4)-(5)-(6)-(5)-(3)-(5)-(3)--|
E||_||------------------------------------|------------------------------------|
 |                                                                             |
 |                                                                             |
 |                                                                             |
 | _                                                                           |
C||_||------------------------------------|------------------------------------|
G|  ||------------------------------------|------------------------------------|
D|   |----2-------2---1-----------0-------|------------0---1---0-------0-------|
A| _ |0-------0-----------3---0-------3---|0---3---4---------------3-------3---|
E||_||------------------------------------|------------------------------------|
B||_||------------------------------------|------------------------------------|
   

(vocals come in)