Menu:

 

Search:

 

dream theater - under a glass moon:

 



Title: Under A Glass Moon
Artist: 
Album: Images & Words
Author: John Petrucci, Mike Portnoy, John Myung, James Labrie & Kevin Moore


Track 1: Jordan

E|-----------------|-------------|--------|-------------|--------|-------------|-----------------|
B|-----------------|-------------|--------|-------------|--------|-------------|-----------------|
G|-----------------|-------------|--------|-------------|--------|-------------|-----------------|
D|-------4---4-----|-4-----6-----|-2------|-2-----------|-0------|-0-----------|-----------------|
A|-4---------------|-------------|--------|-------2-----|-0------|-0-----4-----|-2-----1---1-----|
E|-----------------|-------------|--------|-------------|--------|-------------|-----------------|


E|--------|-----------------|-------------|--------|-------------|--------|-------------|
B|--------|-----------------|-------------|--------|-------------|--------|-------------|
G|--------|-----------------|-------------|--------|-------------|--------|-------------|
D|--------|-------4---4-----|-4-----6-----|-2------|-2-----------|-0------|-0-----------|
A|-1------|-4---------------|-------------|--------|-------2-----|-0------|-0-----4-----|
E|--------|-----------------|-------------|--------|-------------|--------|-------------|


E|-----------------|--------|-----------------|-------------|--------|-------------|
B|-----------------|--------|-----------------|-------4-----|--------|-------------|
G|-----------------|--------|-------3---3-----|-3-----1-----|-1------|-1-----------|
D|-----------------|--------|-4-----4---4-----|-4-----------|-2------|-2-----2-----|
A|-2-----1---1-----|-1------|-4---------------|-------------|--------|-------2-----|
E|-----------------|--------|-----------------|-------------|--------|-------------|


E|--------|-------------|-----------------|--------|-----------------|-------------|
B|--------|-------------|-----------------|--------|-----------------|-------4-----|
G|--------|-------------|-----------------|--------|-------3---3-----|-3-----1-----|
D|-7------|-7-----6-----|-4-----4---4-----|-4------|-4-----4---4-----|-4-----------|
A|-5------|-5-----4-----|-2-----1---1-----|-1------|-4---------------|-------------|
E|--------|-------------|-----------------|--------|-----------------|-------------|


E|--------|-------------|--------|-------------|-----------------|--------|---------------------------------|
B|--------|-------------|--------|-------------|-----------------|--------|---------------------------------|
G|-1------|-1-----------|--------|-------------|-----------------|--------|---------------------------------|
D|-2------|-2-----2-----|-7------|-7-----6-----|-4-----4---4-----|-4------|-4---5---4-----------4-------5---|
A|--------|-------2-----|-5------|-5-----4-----|-2-----1---1-----|-1------|-4---5---4-----------4-------5---|
E|--------|-------------|--------|-------------|-----------------|--------|---------------------------------|


E|-----------------------------------------|---------------------------------|-----------------------------------------|
B|-----------------------------------------|---------------------------------|-----------------------------------------|
G|-----------------------------------------|---------------------------------|-----------------3--0--------0-----------|
D|-4---5---4-------4--4--5--5--4--4--2--2--|-4---5---4-----------4-------5---|-4---5---4-------------4--2-----4--2--2--|
A|-4---5---4-------------------------------|-4---5---4-----------4-------5---|-4---5---4-------------------------------|
E|-----------------------------------------|---------------------------------|-----------------------------------------|


E|---------------------------------|-----------------------------------------|-------------------------------------------------|
B|---------------------------------|-----------------------------------------|-2-----2-----------3-----3-----------------------|
G|---------------------------------|-----------------------------------------|----4-----4-----------4-----4--------6--4--6--4--|
D|-4---5---4-----------4-------5---|-4---5---4-------4--4--5--5--4--4--2--2--|-------------5--4--------------5--4--------------|
A|-4---5---4-----------4-------5---|-4---5---4-------------------------------|-------------------------------------------------|
E|---------------------------------|-----------------------------------------|-------------------------------------------------|


E|-------------------------------9---------9---|---------------------------|---------------------------|
B|-------------------------------8---------8---|-13---13-------13------13--|-13---13-------14------14--|
G|-------6--7--6--4----------------------------|---------------------------|---------------------------|
D|-5--4--------------5--4--2--2------2--2------|-16---16-------16------16--|-16---16-------17------17--|
A|---------------------------------------------|-15---15-------15------15--|-15---15-------16------16--|
E|---------------------------------------------|---------------------------|---------------------------|


E|---------------------------|-------------------------------|---------------------------|
B|-13---13-------13------13--|-13---13---12-12-----12-12-----|-13---13-------13------13--|
G|---------------------------|-------------------------------|---------------------------|
D|-16---16-------16------16--|-16---16---15-15-----15-15-----|-16---16-------16------16--|
A|-15---15-------15------15--|-15---15---14-14-----14-14-----|-15---15-------15------15--|
E|---------------------------|-------------------------------|---------------------------|


E|---------------------------|---------------------------|-------------------------------|
B|-13---13-------11------11--|-13---13-------13------13--|-13---13---13-13-----13-13-----|
G|---------------------------|---------------------------|-------------------------------|
D|-16---16-------14------14--|-16---16-------16------16--|-16---16---14-14-----14-14-----|
A|-15---15-------13------13--|-15---15-------15------15--|-15---15---15-15-----15-15-----|
E|---------------------------|---------------------------|-------------------------------|


E|--------|--------|--------|--------|--------|--------|--------|-------------|--------|
B|--------|--------|--------|--------|--------|--------|-7------|-------5-----|--------|
G|--------|--------|--------|--------|--------|--------|-6------|-------4-----|--------|
D|--------|--------|--------|--------|--------|--------|-4------|-------2-----|--------|
A|--------|--------|--------|--------|--------|--------|--------|-------------|--------|
E|--------|--------|--------|--------|--------|--------|--------|-------------|--------|


E|--------|---------------------|-------------|--------|-------------|--------|--------|
B|-3------|-3----3--------------|-------------|-7------|-------5-----|--------|-3------|
G|-2------|-2----2----4-----3---|-3-----3-----|-6------|-------4-----|--------|-2------|
D|-0------|-0---------4-----4---|-4-----4-----|-4------|-------2-----|--------|-0------|
A|--------|------4----2-----1---|-1-----1-----|--------|-------------|--------|--------|
E|--------|---------------------|-------------|--------|-------------|--------|--------|


E|---------------------|-------------|--------|-------------|--------|--------|---------------------|
B|-3----3--------------|-------------|-19-----|-------17----|--------|-15-----|-15---14---12--------|
G|-2----2----4-----3---|-3-----3-----|-18-----|-------16----|--------|-14-----|-14---14---11----15--|
D|-0---------4-----4---|-4-----4-----|-16-----|-------14----|--------|-12-----|-12---11---9-----16--|
A|------4----2-----1---|-1-----1-----|--------|-------------|--------|--------|-----------------13--|
E|---------------------|-------------|--------|-------------|--------|--------|---------------------|


E|--------|--------|-------------|--------|--------|---------------------|--------|
B|--------|-19-----|-------17----|--------|-15-----|-15---14---12--------|--------|
G|-15-----|-18-----|-------16----|--------|-14-----|-14---14---11----15--|-15-----|
D|-16-----|-16-----|-------14----|--------|-12-----|-12---11---9-----16--|-16-----|
A|-13-----|--------|-------------|--------|--------|-----------------13--|-13-----|
E|--------|--------|-------------|--------|--------|---------------------|--------|


E|--------|-------24----|-24---26-----|--------|-21-----|-24----26----|-19-----|------22--------20---|
B|-26-----|-26----22----|-22---26-----|--------|-21-----|-22----24----|-19-----|------20--------18---|
G|-25-----|-25----21----|-21---23-----|--------|-18-----|-21----23----|-16-----|------19--------17---|
D|-23-----|-23----------|-------------|--------|--------|-------------|--------|---------------------|
A|--------|-------------|-------------|--------|--------|-------------|--------|---------------------|
E|--------|-------------|-------------|--------|--------|-------------|--------|---------------------|


E|-21-----|-21----24----|-24---26-----|--------|-21-----|-24----26----|-19-----|--------|
B|-21-----|-21----22----|-22---26-----|--------|-21-----|-22----24----|-19-----|--------|
G|-18-----|-18----21----|-21---23-----|--------|-18-----|-21----23----|-16-----|--------|
D|--------|-------------|-------------|--------|--------|-------------|--------|--------|
A|--------|-------------|-------------|--------|--------|-------------|--------|--------|
E|--------|-------------|-------------|--------|--------|-------------|--------|--------|


E|--------|--------|--------|--------|--------|--------|--------------------|------------------------------|
B|--------|--------|--------|--------|--------|--------|--------------------|------------------------------|
G|--------|--------|--------|--------|--------|--------|--------------------|---------5---6---5---3---9----|
D|--------|--------|--------|--------|--------|--------|----------------4---|-7---4------------------------|
A|--------|--------|--------|--------|--------|--------|--------------------|------------------------------|
E|--------|--------|--------|--------|--------|--------|--------------------|------------------------------|


E|--------------------------------|-------------------------------|----------12---12-------|
B|--------------------------------|-------------------------------|-------------------12---|
G|-6---9--------------------------|-------------------------------|------------------------|
D|---------13-----------------3---|------2--2-----2--2---4--------|------------------------|
A|--------------14-12---------3---|------2--2-----2--2---4--------|------------------------|
E|--------------------------------|----------------------2--------|------------------------|


E|---------------------|------------------------|------------------------|----------12---12-------|
B|-----16--------------|----------12---12-------|------------------------|-------------------12---|
G|-----------14--14----|-------------------13---|------------------------|------------------------|
D|---------------------|------------------------|-----14----13--13-------|------------------------|
A|---------------------|------------------------|-------------------14---|------------------------|
E|---------------------|------------------------|------------------------|------------------------|


E|-----11--------------|------------------------|------------------------|----------12---12-------|
B|---------------------|----------12---12-------|------------------------|-------------------12---|
G|-----------14--14----|-------------------13---|------------------------|------------------------|
D|---------------------|------------------------|-----14----13--13-------|------------------------|
A|---------------------|------------------------|-------------------14---|------------------------|
E|---------------------|------------------------|------------------------|------------------------|


E|-----11--------------|------------------------|---------------------|----------12---12-------|
B|---------------------|----------12---12-------|---------------------|-------------------12---|
G|-----------14--14----|-------------------13---|---------------------|------------------------|
D|---------------------|------------------------|-----14----13--13----|------------------------|
A|---------------------|------------------------|---------------------|------------------------|
E|---------------------|------------------------|---------------------|------------------------|


E|-----11--------------|------------------------|---------------------|----------12---12-------|
B|---------------------|----------12---12-------|---------------------|-------------------12---|
G|-----------14--14----|-------------------13---|---------------------|------------------------|
D|---------------------|------------------------|-----14----13--13----|------------------------|
A|---------------------|------------------------|---------------------|------------------------|
E|---------------------|------------------------|---------------------|------------------------|


E|-----11--------------|------------------------|---------------------|----------12---12-------|
B|---------------------|----------12---12-------|---------------------|-------------------12---|
G|-----------14--14----|-------------------13---|---------------------|------------------------|
D|---------------------|------------------------|-----14----13--13----|------------------------|
A|---------------------|------------------------|---------------------|------------------------|
E|---------------------|------------------------|---------------------|------------------------|


E|------------------------|------------------------|------------------------|------------|
B|------------------------|----------12---12-------|------------------------|-----26-----|
G|-----15-----------------|-------------------15---|-----11-----------------|-----25-----|
D|-----------16--16---14--|-----14-----------------|-----------14--14---11--|-----23-----|
A|------------------------|------------------------|------------------------|------------|
E|------------------------|------------------------|------------------------|------------|


E|-----------24----|-----24---26-----|------------|-----21-----|-----24----26----|
B|-----26----22----|-----22---26-----|------------|-----21-----|-----22----24----|
G|-----25----21----|-----21---23-----|------------|-----18-----|-----21----23----|
D|-----23----------|-----------------|------------|------------|-----------------|
A|-----------------|-----------------|------------|------------|-----------------|
E|-----------------|-----------------|------------|------------|-----------------|


E|-----19-----|----------22--------20--|-----21-----|-----21----24----|-----24---26-----|
B|-----19-----|----------20--------18--|-----21-----|-----21----22----|-----22---26-----|
G|-----16-----|----------19--------17--|-----18-----|-----18----21----|-----21---23-----|
D|------------|------------------------|------------|-----------------|-----------------|
A|------------|------------------------|------------|-----------------|-----------------|
E|------------|------------------------|------------|-----------------|-----------------|


E|------------|-----21-----|-----24----26----|-----19-----|--------|--------|---------------------12----|
B|------------|-----21-----|-----22----24----|-----19-----|--------|--------|-----14--16--14--16--14----|
G|------------|-----18-----|-----21----23----|-----16-----|--------|--------|-----14--16--14--16--------|
D|------------|------------|-----------------|------------|--------|--------|---------------------------|
A|------------|------------|-----------------|------------|--------|--------|---------------------------|
E|------------|------------|-----------------|------------|--------|--------|---------------------------|


E|-------------12------------------|------------------------------|-------------12------------|
B|-16--14--14--14--14--14--14--16--|-14------12------10-------14--|-16--14--16--14----16--14--|
G|-16--14--14------14--14--14--16--|-14------13------11-------14--|-16--14--16--------16--14--|
D|---------------------------------|------------------------------|---------------------------|
A|---------------------------------|------------------------------|---------------------------|
E|---------------------------------|------------------------------|---------------------------|


E|-----12--------------------------|------------------------------|-----12----------------12--|
B|-14--14--14--14--14--16--14------|-12------10-------14--16--14--|-16--14----16--14--14--14--|
G|-14------14--14--14--16--14------|-13------11-------14--16--14--|-16--------16--14--14------|
D|---------------------------------|------------------------------|---------------------------|
A|---------------------------------|------------------------------|---------------------------|
E|---------------------------------|------------------------------|---------------------------|


E|---------------------------------|--------------------------12--|------------------12----------|
B|-14--14--14--16--14------12------|-10-------14--16--14--16--14--|------16--14--14--14--14--14--|
G|-14--14--14--16--14------13------|-11-------14--16--14--16------|------16--14--14------14--14--|
D|---------------------------------|------------------------------|------------------------------|
A|---------------------------------|------------------------------|------------------------------|
E|---------------------------------|------------------------------|------------------------------|


E|---------------------------------|---------------------12----------|-----------------12--------------|
B|-14--16--14------12------10------|-----14--16--14--16--14--14------|-14--16------14--14------14--16--|
G|-14--16--14------13------11------|-----14--16--14--16------14------|-14--16------14----------14--16--|
D|---------------------------------|-----------------------------16--|---------16----------16----------|
A|---------------------------------|-----------------------------16--|---------16----------16----------|
E|---------------------------------|---------------------------------|---------------------------------|


E|---------------------------------|-------------12------------------|---------12----------------------|
B|-14--------------------------14--|-16--14--16--14--14------14--16--|-----14--14------14--16--14------|
G|-14------16------14----------14--|-16--14--16------14------14--16--|-----14----------14--16--14------|
D|-----16--16--16--16--14----------|---------------------16----------|-16----------16--------------16--|
A|-----16------16----------16------|---------------------16----------|-16----------16--------------16--|
E|---------------------------------|---------------------------------|---------------------------------|


E|---------------------------------|-----12-----------------|-12--12--------------------------|
B|---------------------14--16--14--|-16--14----14--16---14--|-14--14--14--16--14------12------|
G|-16------14----------14--16--14--|-16--------14--16---14--|---------14--16--14------13------|
D|-16--16--16--14------------------|------------------------|---------------------------------|
A|-----16----------16--------------|------------------------|---------------------------------|
E|---------------------------------|------------------------|---------------------------------|


E|--------------------------12--|-------------------12--12--|---------------------------------|
B|-10-------14--16--14--16--14--|------14--16---14--14--14--|-14--16--14------12------10------|
G|-11-------14--16--14--16------|------14--16---14----------|-14--16--14------13------11------|
D|------------------------------|---------------------------|---------------------------------|
A|------------------------------|---------------------------|---------------------------------|
E|------------------------------|---------------------------|---------------------------------|


E|------------|-----12-----|-----12-----|-----11-----|-----11-----|-----9------|-----9------|
B|------------|-----10-----|-----10-----|-----10-----|-----10-----|-----12-----|-----12-----|
G|-14---------|-----11-----|-----11-----|-----11-----|-----11-----|-----11-----|-----11-----|
D|-16---------|------------|------------|------------|------------|------------|------------|
A|------------|------------|------------|------------|------------|------------|------------|
E|------------|------------|------------|------------|------------|------------|------------|


E|------------|------------|---------------------------|--------------|---------------------------|
B|-----12-----|-----12-----|-----12---12-----------12--|----12--------|-----12---12-----------12--|
G|-----13-----|-----13-----|-----9----9------------9---|----9---------|-----9----9------------9---|
D|-----13-----|-----13-----|-----11---11-----------11--|----11--------|-----11---11-----------11--|
A|------------|------------|---------------------------|--------------|---------------------------|
E|------------|------------|---------------------------|--------------|---------------------------|


E|--------------|---------------------------|------------------------|---------------------------|
B|----12--------|-----12---12--12-------12--|-12--------10---10---10-|-----12---12--12-------12--|
G|----9---------|-----11---11--11-------11--|-11--------9----9----9--|-----11---11--11-------11--|
D|----11--------|-----13---13--13-------13--|-13--------11---11---11-|-----13---13--13-------13--|
A|--------------|---------------------------|------------------------|---------------------------|
E|--------------|---------------------------|------------------------|---------------------------|


E|------------|-----12-----|-----12-----|-----11-----|-----11-----|-----9------|-----9------|
B|-12---------|-----10-----|-----10-----|-----10-----|-----10-----|-----12-----|-----12-----|
G|-11---------|-----11-----|-----11-----|-----11-----|-----11-----|-----11-----|-----11-----|
D|-13---------|------------|------------|------------|------------|------------|------------|
A|------------|------------|------------|------------|------------|------------|------------|
E|------------|------------|------------|------------|------------|------------|------------|


E|------------|------------|---------------------------|--------------|---------------------------|
B|-----12-----|-----12-----|-----12---12-----------12--|----12--------|-----12---12-----------12--|
G|-----13-----|-----13-----|-----9----9------------9---|----9---------|-----9----9------------9---|
D|-----14-----|-----14-----|-----11---11-----------11--|----11--------|-----11---11-----------11--|
A|------------|------------|---------------------------|--------------|---------------------------|
E|------------|------------|---------------------------|--------------|---------------------------|


E|--------------|---------------------------|------------------------|---------------------------|
B|----12--------|-----12---12--12-------12--|-12--------10---10---10-|-----12---12--12-------12--|
G|----9---------|-----11---11--11-------11--|-11--------9----9----9--|-----11---11--11-------11--|
D|----11--------|-----13---13--13-------13--|-13--------11---11---11-|-----13---13--13-------13--|
A|--------------|---------------------------|------------------------|---------------------------|
E|--------------|---------------------------|------------------------|---------------------------|


E|------------|-----4-----4-----|-4-----4-----4---|-------4-----4----|------4-----------------------|
B|-12---------|-----------------|-----------------|------------------|------------------------------|
G|-11---------|-----6-----6-----|-6-----6-----6---|-------6-----6----|------6--------6-----6--8--6--|
D|-13---------|-----6-----6-----|-6-----6-----6---|-------6-----6----|------6-----6-----6-----------|
A|------------|-----4-----4-----|-4-----4-----4---|-------4-----4----|------4-----------------------|
E|------------|-----------------|-----------------|------------------|------------------------------|


E|-------------------------------------------------|-------------------------------------------------|
B|-------9-----------------9-----------------------|-9-----------------------------------------9-----|
G|----6-----6-----8--6--------6-----6--8--6-----6--|----6-----8--6--------6-----6--8--6-----6-----6--|
D|-6-----------6--------6--------6-----------6-----|-------6--------6--6-----6-----------6-----------|
A|-------------------------------------------------|-------------------------------------------------|
E|-------------------------------------------------|-------------------------------------------------|


E|-------------------------------------------------|-------------------------------------------------|
B|-------------------------------------9-----------|-------------------------------9-----------------|
G|----8--6--------6-----6--8--6-----6-----6-----8--|-6--------6-----6--8--6-----6-----6-----8--6-----|
D|-6--------6--6-----6-----------6-----------6-----|----6--6-----6-----------6-----------6--------6--|
A|-------------------------------------------------|-------------------------------------------------|
E|-------------------------------------------------|-------------------------------------------------|


E|-------------------------------------------------|-------------------------------------------------|
B|-------------------------9-----------------------|----------------------------5--------7-----------|
G|----6-----6--8--6-----6-----6-----8--6--------6--|----6--8--6-----6--8--6--------6--------6-----6--|
D|-6-----6-----------6-----------6--------6--6-----|-6-----------6-----------6--------6--------6-----|
A|-------------------------------------------------|-------------------------------------------------|
E|-------------------------------------------------|-------------------------------------------------|


E|-------------------------5--7-----------|----------12---------------|--------------------------------------------|
B|-5--------------5--7--9--------12--12---|-----14-------14---14------|-12-14-12-----------------------------------|
G|----6-----6--8--------------------------|----------------------13---|----------13-11----11---11-------13-11121112|
D|-------6--------------------------------|---------------------------|----------------14---------11-14------------|
A|----------------------------------------|---------------------------|--------------------------------------------|
E|----------------------------------------|---------------------------|--------------------------------------------|


E|------------------------------------|----------------------------------------------------------|
B|------------------------------------|----------------------------------------------------------|
G|-111211-----------------------11----|-------------11-------------13----11----------13----11----|
D|--------11-14-14----14--11-13----13-|-14-13-11-13----13-14-11-13----14----14-11-13----14----14-|
A|------------------------------------|----------------------------------------------------------|
E|------------------------------------|----------------------------------------------------------|


E|----------------------------------------------------------|-------------------------------------------------------------------------|
B|----------------------------------------------------------|-------------------12----------------14----------------16----------12-14-|
G|-------13----11----------11-------------------------------|-13-------------11----11-------11-13----13-11----13-15----15-13-11-------|
D|-11-13----14----14-11-13----14-13-11-14-13-11----------13-|----13-11----14----------14-11----------------13-------------------------|
A|----------------------------------------------------16----|----------14-------------------------------------------------------------|
E|----------------------------------------------14-16-------|-------------------------------------------------------------------------|


E|-14-------------11-16-11-------12-14-19-14----|-----14----14--14----|-----14---19---21---21-21-19-14-11--|
B|----14-12----14----------14-12----------------|---------------------|------------------------------------|
G|----------13----------------------------------|---------------------|------------------------------------|
D|----------------------------------------------|---------------------|------------------------------------|
A|----------------------------------------------|---------------------|------------------------------------|
E|----------------------------------------------|---------------------|------------------------------------|


E|-----14-16-14-14-12-11-12-14-12-11-----------12-|----11----------------------------|
B|-----------------------------------14-12-11-----|--------12------------------------|
G|------------------------------------------------|------------13--12--11---11-------|
D|------------------------------------------------|------------------------------14--|
A|------------------------------------------------|----------------------------------|
E|------------------------------------------------|----------------------------------|


E|-------------------------------------|------------------11-12-14-16-14---14--|-----14-16-19-21-19-16-19-21-19-16-14-16-19-21-|
B|------------12-12-----12-12---11-----|--------12--14-14----------------------|-----------------------------------------------|
G|-----11-15--------13-------------13--|-----15--------------------------------|-----------------------------------------------|
D|-------------------------------------|---------------------------------------|-----------------------------------------------|
A|-------------------------------------|---------------------------------------|-----------------------------------------------|
E|-------------------------------------|---------------------------------------|-----------------------------------------------|


E|-24-26-28-29---29---29-29----|------------|-----------------|--------|--------|--------|
B|-----------------------------|------------|-----------------|--------|--------|--------|
G|-----------------------------|------------|-----------------|--------|--------|--------|
D|-----------------------------|------------|-----------------|--------|--------|--------|
A|-----------------------------|------------|-----------------|--------|--------|--------|
E|-----------------------------|------------|-----------------|--------|--------|--------|


E|--------|-----------21----|-----------21----|-----24----24---26--|-----------26---19--|
B|--------|-----------21----|-----------21----|-----22----22---26--|-----------26---19--|
G|--------|-----------18----|-----------18----|-----21----21---23--|-----------23---16--|
D|--------|-----------------|-----------------|--------------------|--------------------|
A|--------|-----------------|-----------------|--------------------|--------------------|
E|--------|-----------------|-----------------|--------------------|--------------------|


E|-----------21----|-----------24----|-----26----19----|----------------15--|-----19----21----|
B|-----------21----|-----------22----|-----24----19----|----------------17--|-----18----21----|
G|-----------18----|-----------21----|-----23----16----|----------------16--|-----16----18----|
D|-----------------|-----------------|-----------------|--------------------|-----------------|
A|-----------------|-----------------|-----------------|--------------------|-----------------|
E|-----------------|-----------------|-----------------|--------------------|-----------------|


E|-----------21----|-----24----24---26--|-----------26---19--|-----------21----|-----------24----|
B|-----------21----|-----22----22---26--|-----------26---19--|-----------21----|-----------22----|
G|-----------18----|-----21----21---23--|-----------23---18--|-----------18----|-----------21----|
D|-----------------|--------------------|--------------------|-----------------|-----------------|
A|-----------------|--------------------|--------------------|-----------------|-----------------|
E|-----------------|--------------------|--------------------|-----------------|-----------------|


E|-----26----19----|-----------------|-----------------|-----------------|-----------------|
B|-----26----19----|-----------------|-----------7-----|-----------7-----|-----------5-----|
G|-----23----16----|-----------------|-----------6-----|-----------6-----|-----------4-----|
D|-----------------|-----------------|-----------4-----|-----------4-----|-----------2-----|
A|-----------------|-----------------|-----------------|-----------------|-----------------|
E|-----------------|-----------------|-----------------|-----------------|-----------------|


E|-----------------|-----------------|-----------------|-----------------------------|
B|-----------5-----|-----------3-----|-----------3-----|-----------------------------|
G|-----------4-----|-----------2-----|-----------2-----|-----------------------------|
D|-----------2-----|-----------0-----|-----------0-----|-----------4--4--5--5--4--4--|
A|-----------------|-----------------|-----------------|-----------------------------|
E|-----------------|-----------------|-----------------|-----------------------------|


E|---------------------------|--------------------------|
B|---------------------------|--------------------------|
G|--------------5---5--------|-3------------------------|
D|---------4------------2----|------2---4--4------------|
A|---------------------------|--------------------------|
E|---------------------------|--------------------------|





Track 2: John P 1

E|-----------------|-------------|--------|-----------------|--------|-------------|
B|-----------------|-------------|--------|-----------------|--------|-------------|
G|-6-----11--11----|-11----13----|-9------|-9-----9---4-----|-7------|-7-----6-----|
D|-----------------|-------------|--------|-----------------|-0------|-0-----------|
A|-4-----9---9-----|-9-----11----|-7------|-7-----7---2-----|-0------|-0-----4-----|
E|-----------------|-------------|--------|-----------------|--------|-------------|


E|-----------------|-------------|-----------------|-------------|--------|-----------------|
B|-----------------|-------------|-----------------|-------------|--------|-----------------|
G|-4-----3---3-----|-3------3----|-6-----11--11----|-11----13----|-9------|-9-----9---4-----|
D|-----------------|-------------|-----------------|-------------|--------|-----------------|
A|-2-----1---1-----|-1------1----|-4-----9---9-----|-9-----11----|-7------|-7-----7---2-----|
E|-----------------|-------------|-----------------|-------------|--------|-----------------|


E|--------|-------------|---------------------|-------------|-----------------|------------------------|
B|--------|-------------|---------------------|-------------|-14----19--19----|-19---19---21--21--21---|
G|-7------|-7-----6-----|-4-----3---3---------|-------------|-6-----11--11----|-11---11---11--13--13---|
D|-0------|-0-----------|----------------5----|-4------4----|-----------------|------------------------|
A|-0------|-0-----4-----|-2-----1---1---------|-------------|-4-----9---9-----|-9----9----9---11--11---|
E|--------|-------------|----------------3----|-2------2----|-----------------|------------------------|


E|--------|-----------------|--------|-------------|-----------------|--------|-------21--21----|
B|-17-----|-17----17--12----|-15-----|-15----14----|-12----11--11----|-11-----|-19--------------|
G|-9------|-9-----9---4-----|-7------|-7-----6-----|-4-----3---3-----|-3------|-6-----11--11----|
D|--------|-----------------|--------|-------------|-----------------|--------|-----------------|
A|-7------|-7-----7---2-----|-5------|-5-----4-----|-2-----1---1-----|-1------|-4-----9---9-----|
E|--------|-----------------|--------|-------------|-----------------|--------|-----------------|


E|-21----23----|-19-----|-19----19--------|--------|-------------|-----------------|
B|-------------|--------|-----------19----|-22-----|-22----21----|-19----19--19----|
G|-11----13----|-9------|-9-----9---4-----|-7------|-7-----6-----|-4-----3---3-----|
D|-------------|--------|-----------------|--------|-------------|-----------------|
A|-9-----11----|-7------|-7-----7---2-----|-5------|-5-----4-----|-2-----1---1-----|
E|-------------|--------|-----------------|--------|-------------|-----------------|


E|--------------------------|-------------------------------------|---------------------------------------------|
B|-19---19---19---19--19-19-|-------------------------------------|---------------------------------------------|
G|-3------------------------|-------------------------------------|---------------------------------------------|
D|------24---16---7---------|-4--4--5--5--4-------4---4-------5---|-------------4-------------------------------|
A|-1----24---16---7---------|-4--4--5--5--4-------4---4-------5---|-------------4-------------------------------|
E|------24---16---7---0--0--|-2--2--3--3--2-------2---2-------3---|-2--2--3--3--2-------2--2--3--3--2--2--0--0--|


E|-------------------------------------|---------------------------------------------|
B|-------------------------------------|---------------------------------------------|
G|-------------------------------------|---------------------------------------------|
D|-------------4-------4---4-------5---|-------------4-------------------------------|
A|-------------4-------4---4-------5---|-------------4-------------------------------|
E|-2--2--3--3--2-------2---2-------3---|-2--2--3--3--2-------5--3--0--0--3--2--0--0--|


E|-------------------------------------|---------------------------------------------|
B|-------------------------------------|---------------------------------------------|
G|-------------------------------------|---------------------------------------------|
D|-4--4--5--5--4-------4---4-------5---|-------------4-------------------------------|
A|-4--4--5--5--4-------4---4-------5---|-------------4-------------------------------|
E|-2--2--3--3--2-------2---2-------3---|-2--2--3--3--2-------2--2--3--3--2--2--0--0--|


E|-------------------------------------------------|---------------------------------------------|
B|-------------------------------------------------|---------------------------------------------|
G|-------------------------------------------------|---------------------------------------------|
D|-------------------------------------------------|---------------------------------------------|
A|-4--2--4--2--------5--2--5--2--------4--2--4--2--|-------4--5--4--2----------------------------|
E|-------------3--2--------------3--2--------------|-3--2--------------3--2--0--0--3---0--0--3---|


E|-------------------------------|-------------------------------|-------------------------------|
B|-13---13---------13--------13--|-13---13---------14--------14--|-13---13---------13--------13--|
G|-11---11---------11--------11--|-11---11---------12--------12--|-11---11---------11--------11--|
D|-10---10---------10--------10--|-10---10---------11--------11--|-10---10---------10--------10--|
A|-9----9----9--9--9---9--9--9---|-9----9----10-10-10--10-10-10--|-9----9----9--9--9---9--9--9---|
E|-------------------------------|-------------------------------|-------------------------------|


E|-------------17----------------------------|-------------------------------|-------------------------------|
B|-13--------19--19--------18-18-----18-18---|-13---13---------13--------13--|-13---13---------14--------14--|
G|-11------17------17------16-16-----16-16---|-11---11---------11--------11--|-11---11---------12--------12--|
D|-10----16----------16----15-15-----15-15---|-10---10---------10--------10--|-10---10---14-14-11--------11--|
A|-9---15--------------15--14-14-----14-14---|-9----9----9--9--9---9--9--9---|-9----9----------10--------10--|
E|-------------------------------------------|-------------------------------|---------------------12-12-----|


E|-------------------------------|-------------17----------------------------|---------------------------|
B|-13---13---------13--------13--|-13--------19--19--------19-19-----19-19---|---------------------------|
G|-11---11---------11--------11--|-11------17------17------17-17-----17-17---|---------------------------|
D|-10---10---------10--------10--|-10----16----------16----16-16-----16-16---|-4----4----2---4-------4---|
A|-9----9----9--9--9---9--9--9---|-9---15--------------15--15-15-----15-15---|-4----4----2---4-------4---|
E|-------------------------------|-------------------------------------------|-2----2----0---2-------2---|


E|------------------------|---------------------------------|------------------------|
B|------------------------|---------------------------------|------------------------|
G|------------------------|---------------------------------|------------------------|
D|-----2---4----4----4----|-2---4-------4-------2-------2---|-4----4----4----2---4---|
A|-----2---4----4----4----|-2---4-------4-------4-------2---|-4----4----4----2---4---|
E|-----0---2----2----2----|-0---2-------2-------2-------0---|-2----2----2----0---2---|


E|------------------------------|-----------------------------------|---------------------------|
B|------------------------------|-----------------------------------|---------------------------|
G|------------------------------|-----------------------------------|---------------------------|
D|-----4-------2---4----2---4---|-----4-------2---4---2---2---6--6--|-4----4----2---4-------4---|
A|-----4-------2---4----2---4---|-----4-------2---4---2---2---4--4--|-4----4----2---4-------4---|
E|-----2-------0---2----0---2---|-----2-------0---2---0---0---2--2--|-2----2----0---2-------2---|


E|------------------------|---------------------------------|------------------------|
B|------------------------|---------------------------------|------------------------|
G|------------------------|---------------------------------|------------------------|
D|-----2---4----4----4----|-2---4-------4-------2-------2---|-4----4----4----2---4---|
A|-----2---4----4----4----|-2---4-------4-------4-------2---|-4----4----4----2---4---|
E|-----0---2----2----2----|-0---2-------2-------2-------0---|-2----2----2----0---2---|


E|------------------------------|-----------------------------------|---------------------------|
B|------------------------------|-----------------------------------|---------------------------|
G|------------------------------|-----------------------------------|---------------------------|
D|-----4-------2---4----2---4---|-----4-------2---4---2---2---6--6--|-4----4----2---4-------4---|
A|-----4-------2---4----2---4---|-----4-------2---4---2---2---4--4--|-4----4----2---4-------4---|
E|-----2-------0---2----0---2---|-----2-------0---2---0---0---2--2--|-2----2----0---2-------2---|


E|------------------------|---------------------------------|------------------------|
B|------------------------|---------------------------------|------------------------|
G|------------------------|---------------------------------|------------------------|
D|-----2---4----4----4----|-2---4-------4-------2-------2---|-4----4----4----2---4---|
A|-----2---4----4----4----|-2---4-------4-------4-------2---|-4----4----4----2---4---|
E|-----0---2----2----2----|-0---2-------2-------2-------0---|-2----2----2----0---2---|


E|------------------------------|-----------------------------------|---------------------------------|
B|------------------------------|-----------------------------------|-11--11--11------9---9-------9---|
G|------------------------------|-----------------------------------|-11--11--11------11--11------11--|
D|-----4-------2---4----2---4---|-----4-------2---4---2---2---6--6--|-11--11--11------11--11------11--|
A|-----4-------2---4----2---4---|-----4-------2---4---2---2---4--4--|-9---9---9---9---9---9---9---9---|
E|-----2-------0---2----0---2---|-----2-------0---2---0---0---2--2--|---------------------------------|


E|-----------------------------------|-----------------------------------|---------------------------------|
B|---------9---9--9--9---9---9-------|-9---9-------7-----------7---7--7--|-7---7---7-------5---5-------5---|
G|---------11--11-11-9---9---9-------|-9---9-------9-----------9---9--9--|-7---7---7-------7---7-------7---|
D|---------11--11-11-9---9---9-------|-9---9-------9-----------9---9--9--|-7---7---7-------7---7-------7---|
A|-9---9---9---9--9--7---7---7---7---|-7---7---7---7---7---7---7---7--7--|-5---5---5---5---5---5---5---5---|
E|-----------------------------------|-----------------------------------|---------------------------------|


E|-----------------------0-----------|-----------------------------------|---------------------------------|
B|---------5---5--5--4---4-----------|-----------------------------------|-9---9---9-------9---9-------9---|
G|---------7---7--7--4---4-----------|-----------------------------------|-11--11--11------11--11------11--|
D|---------7---7--7--4---4---4---4---|-----4-------2---4---2---4---4--4--|-11--11--11------11--11------11--|
A|-5---5---5---5--5--2---2-------4---|-----4-------2---4---2---4---4--4--|-9---9---9---9---9---9---9---9---|
E|-------------------------------2---|-----2-------0---2---0---2---2--2--|---------------------------------|


E|-----------------------------------|-----------------------------------|---------------------------------|
B|---------9---9--9--9---9---9-------|-10--9-------7-----------7---7--7--|-7---7---7-------5---5-------5---|
G|---------11--11-11-9---9---9-------|-9---9-------9-----------9---9--9--|-7---7---7-------7---7-------7---|
D|---------11--11-11-9---9---9-------|-9---9-------9-----------9---9--9--|-7---7---7-------7---7-------7---|
A|-9---9---9---9--9--7---7---7---7---|-7---7---7---7---7---7---7---7--7--|-5---5---5---5---5---5---5---5---|
E|-----------------------------------|-----------------------------------|---------------------------------|


E|-------------------2---------|------------------------------|-----------------------------------------|
B|---------5---5--5--5---------|------------------------------|-----------------------------------------|
G|---------7---7--7--4---------|------------------------------|-------------6---------4---6---------6---|
D|---------7---7--7--4-----4---|-----4-------2---4---2---4----|-------------6---------4---6---------7---|
A|-5---5---5---5--5--2-----4---|-----4-------2---4---2---4----|-4--4--4--4--4---4--4--4---4---4--4--4---|
E|-------------------------2---|-----2-------0---2---0---2----|-----------------------------------------|


E|---------------------0---0-----|-0-----------------------------------|-------------------------------------|
B|---------------------0---0-----|-0-----------------------------------|-------------------------------6-----|
G|-------4---4---------1---2-----|-2---------2-------------------------|-------------------------------5-----|
D|-------4---4---------2---2-----|-2---------6---------6---4---4-------|-------------------------------4--4--|
A|-4--4--4---4---0--0--0---0-----|-0---------4---------4---4---4-------|-3---4-------5-----------------------|
E|-------------------------------|-----0--2------2--2--2---2---2---0---|---------3-------0--0--0---0---------|


E|-------------------------------------------------|-----------------------------------------------|
B|-------------------------------------------------|-----------------------------------------------|
G|-------------------------------------------------|-------------9---------------------------------|
D|-6--6--------------4--4--------6--7--6--4--------|-------9--9--7---------11-11-------9--9--------|
A|-------4--4--4--4--------4--4--------------4--4--|-7--7------------9--9--------9--9--------9--9--|
E|-------------------------------------------------|-----------------------------------------------|


E|-----------2---2---2---2---|-------------------------------|-----------------------------------------|
B|-2-------------2---2---2---|-------------------------------|-----------------------------------------|
G|-4-----------------4---4---|-------------------------------|-------------6---------4---6---------6---|
D|-4---------------------4---|---------5----------------3----|-------------6---------4---6---------7---|
A|-2-----2-------------------|---------5----------------3----|-4--4--4--4--4---4--4--4---4---4--4--4---|
E|---------------------------|-3---3---3----1--2--1--1--1----|-----------------------------------------|


E|---------------------0---0-----|-0-----------------------------------|-------------------------------------|
B|---------------------0---0-----|-0-----------------------------------|-------------------------------6-----|
G|-------4---4---------1---2-----|-2---------2-------------------------|-------------------------------5-----|
D|-------4---4---------2---2-----|-2---------6---------6---4---4-------|-------------------------------4--4--|
A|-4--4--4---4---0--0--0---0-----|-0---------4---------4---4---4-------|-3---4-------5-----------------------|
E|-------------------------------|-----0--2--2---2--2--2---2---2---0---|---------3-------0--0--0---0---------|


E|-------------------------------------------------|-----------------------------------------------|
B|-------------------------------------------------|-----------------------------------------------|
G|-------------------------------------------------|-------------9---------------------------------|
D|-6--6--------------4--4--------6--7--6--4--------|-------9--9--7---------11-11-------9--9--------|
A|-------4--4--4--4--------4--4--------------4--4--|-7--7------------9--9--------9--9--------9--9--|
E|-------------------------------------------------|-----------------------------------------------|


E|-----------2---2---2---2---|---------------------------------------------------------------|
B|-2-------------2---2---2---|---------------------------------------------------------------|
G|-4-----------------4---4---|-----------------------------------------------------------0---|
D|-4---------------------4---|-------------------------------------------------------8---0---|
A|-2-----2-------------------|-------------------------------------------------------8-------|
E|---------------------------|-12-11-10-0--8--9--10-9--8--0--6--7--6--7--6--0--0--0--6-------|


E|-------------------------------------|---------------------------------------------|
B|-------------------------------------|---------------------------------------------|
G|-------------------------------------|---------------------------------------------|
D|-------------4-------4---4-------5---|-------------4-------------------------------|
A|-------------4-------4---4-------5---|-------------4-------------------------------|
E|-2--2--3--3--2-------2---2-------3---|-2--2--3--3--2-------2--2--3--3--2--2--0--0--|


E|-------------------------------------|--------------------------------------|-------------------------------------|
B|-------------------------------------|--------------------------------------|-------------------------------------|
G|-------------------------------------|-----------------------8----5----4----|-------------------------------------|
D|-------------4-------4---4-------5---|-4---------------------8----5----4----|-------------4-------4---4-------4---|
A|-------------4-------4---4-------5---|-4---------------------6----3----2----|-------------4-------4---4-------4---|
E|-2--2--3--3--2-------2---2-------3---|-2---0--0-----0--0--------------------|-2--2--3--3--2-------2---2-------2---|


E|-----------------------------------------|-------------------------------------|
B|-----------------------------------------|-------------------------------------|
G|-----------------------------------------|-------------------------------------|
D|-5-----------------------------------2---|-----2---------------4-------4-------|
A|-5----------------------------2------2---|-----2---------------4-------4-------|
E|-3-------2--2--3--3--2--2--0--0------0---|-----0---2--2--3--3--2-------2---2---|


E|------------------------------|--------------------------------|-------------------------------|
B|------------------------------|--------------------------------|-------------------------------|
G|------------------------------|--------------------------------|-------------------------------|
D|------------------------------|----------------------------3---|----------------------4--------|
A|---------3---4---3---0---7----|-4---7---6----2--0----------3---|----------------------4--------|
E|-5---2------------------------|----------------------------1---|------0--0-----0--0---2--------|


E|----------------|--------|--------|--------|--------|--------|--------|--------|
B|----------------|--------|--------|--------|--------|--------|--------|--------|
G|----------------|--------|--------|--------|--------|--------|--------|--------|
D|----------------|--------|--------|--------|--------|--------|--------|--------|
A|----------------|--------|--------|--------|--------|--------|--------|--------|
E|----------------|--------|--------|--------|--------|--------|--------|--------|


E|--------|--------|--------|--------|--------|--------|--------|--------|------------------------|
B|--------|--------|--------|--------|--------|--------|--------|--------|----------17---17-------|
G|--------|--------|--------|--------|--------|--------|--------|--------|-------------------16---|
D|--------|--------|--------|--------|--------|--------|--------|--------|------------------------|
A|--------|--------|--------|--------|--------|--------|--------|--------|-----0------------------|
E|--------|--------|--------|--------|--------|--------|--------|--------|------------------------|


E|---------------------|------------------------|---------------------|-------------0----0---0----|
B|-----16--------------|----------12---12--9----|---------------------|----------------------0----|
G|-----------14--14----|------------------------|-----9-----8---8-----|---------------------------|
D|---------------------|------------------------|---------------------|---------------------------|
A|---------------------|------------------------|---------------------|---------------------------|
E|---------------------|-----7------------------|---------------------|-----0---2-----------------|


E|------------------------|---------------------------|------------------------|-----------------------------------------|
B|------------------------|-------------0----0--------|------------------------|-----------------------------------------|
G|-----3------------------|----------------------3----|------------------------|-----------------6---------4---6---------|
D|-----------4---4----2---|---------------------------|-----4-----2---2--------|-----------------6---------4---6---------|
A|------------------------|---------------------------|--------------------4---|-----4--4--4--4--4---4--4--4---4---4--4--|
E|------------------------|-----0---2-----------------|------------------------|-----------------------------------------|


E|-------------------------0---0----|-----0-------------------------------|-----------------------------------|
B|-------------------------0---0----|-----0-------------------------------|-----------------------------------|
G|-6---------4---4---------1---2----|-----2---------2---------------------|-----------------------------------|
D|-7---------4---4---------2---2----|-----2---------6---------6---4---4---|-----------------------------------|
A|-4---4--4--4---4---0--0--0---0----|-----0---------4---------4---4---4---|-----3---4-------5-----------------|
E|----------------------------------|---------0--2------2--2--2---2---2---|-0-----------3-------0--0--0---0---|


E|-------------------------------------------------|-----------------------------------------------|
B|-6-----------------------------------------------|-----------------------------------------------|
G|-5-----------------------------------------------|-------------------9---------------------------|
D|-4--4--6--6--------------4--4--------6--7--6--4--|-------------9--9--7---------11-11-------9--9--|
A|-------------4--4--4--4--------4--4--------------|-4--4--7--7------------9--9--------9--9--------|
E|-------------------------------------------------|-----------------------------------------------|


E|-----------------2---2---2---|-2--------------------------------|-----------------------------------------|
B|-------2-------------2---2---|-2--------------------------------|-----------------------------------------|
G|-------4-----------------4---|-4--------------------------------|-----------------6---------4---6---------|
D|-------4---------------------|-4-----------5----------------3---|-----------------6---------4---6---------|
A|-9--9--2-----2---------------|-------------5----------------3---|-----4--4--4--4--4---4--4--4---4---4--4--|
E|-----------------------------|-----3---3---3----1--2--1--1--1---|-----------------------------------------|


E|-------------------------0---0----|-----0-------------------------------|-----------------------------------|
B|-------------------------0---0----|-----0-------------------------------|-----------------------------------|
G|-6---------4---4---------1---2----|-----2---------2---------------------|-----------------------------------|
D|-7---------4---4---------2---2----|-----2---------6---------6---4---4---|-----------------------------------|
A|-4---4--4--4---4---0--0--0---0----|-----0---------4---------4---4---4---|-----3---4-------5-----------------|
E|----------------------------------|---------0--2--2---2--2--2---2---2---|-0-----------3-------0--0--0---0---|


E|-------------------------------------------------|-----------------------------------------------|
B|-6-----------------------------------------------|-----------------------------------------------|
G|-5-----------------------------------------------|-------------------9---------------------------|
D|-4--4--6--6--------------4--4--------6--7--6--4--|-------------9--9--7---------11-11-------9--9--|
A|-------------4--4--4--4--------4--4--------------|-4--4--7--7------------9--9--------9--9--------|
E|-------------------------------------------------|-----------------------------------------------|


E|-----------------2---2---2---|-2-------------------------------------------------------------|
B|-------2-------------2---2---|-2-------------------------------------------------------------|
G|-------4-----------------4---|-4-------------------------------------------------------------|
D|-------4---------------------|-4---------------------------------------------------------8---|
A|-9--9--2-----2---------------|-----------------------------------------------------------8---|
E|-----------------------------|-----12-11-10-0--8--9--10-9--8--0--6--7--6--7--6--0--0--0--6---|


E|---------------------------------------------------------------|---------------------------|
B|---------------------------------------------------------------|---------------------------|
G|-0-------------------------------------------------------------|-0-------------------------|
D|-0---------------------------------------------------------8---|-0---4----4------------4---|
A|-----------------------------------------------------------8---|-----4----4--------4-------|
E|-----12-11-10-0--8--9--10-9--8--0--6--7--6--7--6--0--0--0--6---|-----2----2----------------|


E|---------------------------|--------------------------------|---------------------------|
B|---------------------------|--------------------------------|---------------------------|
G|---------------------------|--------------------------------|---------------------------|
D|---------4-----------------|-----4----4----2--4--2------4---|-----4------------4--------|
A|------------------4--------|------------------------4-------|--------------4------------|
E|---------------------------|--------------------------------|---------------------------|


E|------------------------|--------------------------------|------------------------------|
B|------------------------|--------------------------------|------------------------------|
G|------------------------|--------------------------------|------------------------------|
D|-4------------------4---|-----4----2--4--2------4----4---|-------------4--------4-------|
A|----------4-------------|-------------------4------------|---------4--------------------|
E|------------------------|--------------------------------|------------------------------|


E|------------------------|--------------------------------|---------------------------|
B|------------------------|--------------------------------|---------------------------|
G|------------------------|--------------------------------|---------------------------|
D|---------------4----4---|-----2--4--2------4----4--------|-----4--------4------------|
A|-----4------------------|--------------4-----------------|-4---------------------4---|
E|------------------------|--------------------------------|---------------------------|


E|-----------------------------|-----------------------------------|-----------------------------------|
B|-----------------------------|-----------------------------------|-----------------------------------|
G|-----------------------------|-----------------------------------|-----------------------------------|
D|----------4----4----2--4--2--|-----------------------------------|-----------------------------------|
A|-----------------------------|-4---4---6---4---6---7-------------|-4---6-------4---7---------4---6---|
E|-----------------------------|-------------------------2--2--2---|---------2-----------2--2----------|


E|--------------------------------------|-----------------------------------|-----------------------------------|
B|--------------------------------------|-----------------------------------|-----------------------------------|
G|--------------------------------------|-----------------------------------|-----------------------------------|
D|--------------------------------------|-----------------------------------|-----------------------------------|
A|-4-------2-------0--2--0----------4---|-6---4---6---7-------------4---6---|-----4---7---------4---6---4-------|
E|-----2-------2------------2---0-------|-----------------2--2--2-----------|-2-----------2--2--------------2---|


E|--------------------------------------|-----------------------------|-------------------------------------|
B|--------------------------------------|-----------------------------|-------------------------------------|
G|--------------------------------------|-----------------------------|---------------------------4---------|
D|--------------------------4---6---4---|-6---7-----4---6---------4---|-7---7---4---6---4---------4---------|
A|-2-------0--2--0----------4---6---4---|-6---7-----4---6---0--0--4---|-7---7---4---6---4---0--0--2---------|
E|-----2------------2---0---------------|-----------------------------|-------------------------------2--2--|


E|-----------------------------------|--------------------------------|---------------------------------------|
B|-----------------------------------|--------------------------------|---------------------------------------|
G|-----------------------------------|--------------------------------|-------------------4-------------------|
D|-4---------4---4---6---4---6---7---|------4---6---------4---7---7---|-4---6---4---------4---------4---------|
A|-4---------4---4---6---4---6---7---|------4---6---0--0--4---7---7---|-4---6---4---0--0--2---------4---------|
E|-2---0--0--2-----------------------|--------------------------------|-----------------------2--2--2---0--0--|


E|------------|--------|--------|--------|--------|--------|--------|--------|--------|
B|------------|--------|--------|--------|--------|--------|--------|--------|--------|
G|------------|--------|--------|--------|--------|--------|--------|--------|--------|
D|-4----------|--------|--------|--------|--------|--------|--------|--------|--------|
A|-4----------|--------|--------|--------|--------|--------|--------|--------|--------|
E|-2----------|--------|--------|--------|--------|--------|--------|--------|--------|


E|--------|--------|--------|--------|--------|--------|--------|--------|--------|
B|--------|--------|--------|--------|--------|--------|--------|--------|--------|
G|--------|--------|--------|--------|--------|--------|--------|--------|--------|
D|--------|--------|--------|--------|--------|--------|--------|--------|--------|
A|--------|--------|--------|--------|--------|--------|--------|--------|--------|
E|--------|--------|--------|--------|--------|--------|--------|--------|--------|


E|--------|--------|--------|--------|--------|--------|--------|--------|--------|
B|--------|--------|--------|--------|--------|--------|--------|--------|--------|
G|--------|--------|--------|--------|--------|--------|--------|--------|--------|
D|--------|--------|--------|--------|--------|--------|--------|--------|--------|
A|--------|--------|--------|--------|--------|--------|--------|--------|--------|
E|--------|--------|--------|--------|--------|--------|--------|--------|--------|


E|--------|--------|--------|--------|--------|--------|------------|------------|
B|--------|--------|--------|--------|--------|--------|------------|------------|
G|--------|--------|--------|--------|--------|--------|------------|------------|
D|--------|--------|--------|--------|--------|--------|------------|------------|
A|--------|--------|--------|--------|--------|--------|-----4------|-4------4---|
E|--------|--------|--------|--------|--------|--------|------------|------------|


E|---------------------------|-----------4-----|-------4-----|----------6------|------6------|
B|---------------------------|-----------4-----|-------4-----|----------6------|------6------|
G|--------------4---4---4----|-----------6-----|-------6-----|----------8------|------8------|
D|---------------------------|-----------6-----|-------6-----|----------8------|------8------|
A|------4--------------------|-----------4-----|-------4-----|----------6------|------6------|
E|---------------------------|-----------4-----|-------4-----|----------6------|------6------|


E|-----9------|-9----------7---|--------7----|-----------4-----|-------4-----|----------6------|
B|-----9------|-9----------7---|--------7----|-----------4-----|-------4-----|----------6------|
G|-----11-----|-11---------9---|--------9----|-----------6-----|-------6-----|----------8------|
D|-----11-----|-11---------9---|--------9----|-----------6-----|-------6-----|----------8------|
A|-----9------|-9----------7---|--------7----|-----------4-----|-------4-----|----------6------|
E|-----9------|-9----------7---|--------7----|-----------4-----|-------4-----|----------6------|


E|------6------|-----9------|-9----------7---|--------7----|-----------4-----|-----------4-----|
B|------6------|-----9------|-9----------7---|--------7----|-----------4-----|-----------4-----|
G|------8------|-----11-----|-11---------9---|--------9----|-----------6-----|-----------6-----|
D|------8------|-----11-----|-11---------9---|--------9----|-----------6-----|-----------6-----|
A|------6------|-----9------|-9----------7---|--------7----|-----------4-----|-----------4-----|
E|------6------|-----9------|-9----------7---|--------7----|-----------4-----|-----------4-----|


E|-----------6-----|-----------6-----|-----------9-----|-----------9-----|-----------7-----|
B|-----------6-----|-----------6-----|-----------9-----|-----------9-----|-----------7-----|
G|-----------8-----|-----------8-----|-----------11----|-----------11----|-----------9-----|
D|-----------8-----|-----------8-----|-----------11----|-----------11----|-----------9-----|
A|-----------6-----|-----------6-----|-----------9-----|-----------9-----|-----------7-----|
E|-----------6-----|-----------6-----|-----------9-----|-----------9-----|-----------7-----|


E|-----------7-----|-----------4--4--4--4--4---|---------4-------4---4--4--4--4--4---|
B|-----------7-----|-----------4--4--4--4--4---|---------4-------4---4--4--4--4--4---|
G|-----------9-----|-----------6--6--6--6--6---|---------6-------6---6--6--6--6--6---|
D|-----------9-----|-----------6--6--6--6--6---|---------6-------6---6--6--6--6--6---|
A|-----------7-----|-----------4--4--4--4--4---|---------4-------4---4--4--4--4--4---|
E|-----------7-----|-----------4--4--4--4--4---|---------4-------4---4--4--4--4--4---|


E|-----4--4--4--4--8--8--8--8--8--------|-6-------6-------6---6--6------6--6--|-----9--9--9--9--9--------9--9--9--9--|
B|-----4--4--4--4--6--6--6--6--6--------|-6-------6-------6---6--6------6--6--|-----9--9--9--9--9--------9--9--9--9--|
G|-----6--6--6--6--8--8--8--8--8--------|-8-------8-------8---8--8------8--8--|-----11-11-11-11-11-------11-11-11-11-|
D|-----6--6--6--6--8--8--8--8--8--------|-8-------8-------8---8--8------8--8--|-----11-11-11-11-11-------11-11-11-11-|
A|-----4--4--4--4--6--6--6--6--6--------|-6-------6-------6---6--6------6--6--|-----9--9--9--9--9--------9--9--9--9--|
E|-----4--4--4--4--6--6--6--6--6--------|-6-------6-------6---6--6------6--6--|-----9--9--9--9--9--------9--9--9--9--|


E|-9------------9--9--9--9------9---|-----7--7--7--7--7----7---7-------|-7-------7---7--------------------|
B|-9------------9--9--9--9------9---|-----7--7--7--7--7----7---7-------|-7-------7---7--------------------|
G|-11-----------11-11-11-11-----11--|-----9--9--9--9--9----9---9-------|-9-------9---9----------------6---|
D|-11-----------11-11-11-11-----11--|-----9--9--9--9--9----9---9-------|-9-------9---9----------------6---|
A|-9------------9--9--9--9------9---|-----7--7--7--7--7----7---7-------|-7-------7---7----4--4--4--4--4---|
E|-9------------9--9--9--9------9---|-----7--7--7--7--7----7---7-------|-7-------7---7--------------------|


E|---------------------------------------|-------0---0-----0-------------|------------------------------2---|
B|---------------------------------------|-------0---0-----0-------------|------------------------------2---|
G|-------4---6---------6---------4---4---|-------1---2-----2-------------|------------------------------4---|
D|-------4---6---------7---------4---4---|-------2---2-----2---------6---|-------6---6---6----6---------4---|
A|-4--4--4---4---4--4--4---4--4--4---4---|-0--0--0---0-----0---------4---|-------4---4---4----4---2--2--2---|
E|---------------------------------------|---------------------0--2--2---|-2--2--2---2---2----2-------------|


E|-------2---2---2--------------------|-----------------------------------|------------------0----0---|
B|-------2---2---2--------------------|-----------------------9-----------|-----11----------------4---|
G|-------4---4---4----------------6---|-------4---6---6---9---9-------9---|-11--11--------------------|
D|-------4---4---4----------------6---|-------4---6---6---9---9-------9---|-11--11--------------------|
A|-2--2--2---2---2----4--4--4--4--4---|-4--4--4---4---4---7---7---7---7---|-9---9----4---2------------|
E|------------------------------------|-----------------------------------|---------------------------|


E|-----0----0------------0---|-0--------0---0-------------------|---------------------------------------|
B|-----4----4----------------|-0---0----0---0-------------------|---------------------------------------|
G|-----4----4----------------|------------------------------6---|-------4---6---------6---------4---4---|
D|----------4-------5----5---|-5---3----3---3---------------6---|-------4---6---------7---------4---4---|
A|------------------5----5---|-5---3----3---3---4--4--4--4--4---|-4--4--4---4---4--4--4---4--4--4---4---|
E|--------------0---3----3---|-3---1----1---1-------------------|---------------------------------------|


E|-------0---0-----0-------------|---------------------------2---|-------------2---------2---0-------------|
B|-------0---0-----0-------------|---------------------------2---|-------------2---------2---0-------------|
G|-------1---2-----2-------------|---------------------------4---|-------------4---------4---2-------------|
D|-------2---2-----2---------6---|-------6---6-----6---------4---|-------------4---------4---2---------6---|
A|-0--0--0---0-----0---------4---|-------4---4-----4---2--2--2---|-2--2--2--2--2---2--2--2---0---------4---|
E|---------------------0--2--2---|-2--2--2---2-----2-------------|-------------------------------0--2--2---|


E|------------------------------2---|-------2---2---2----0----0---|-----0----0----------------------------------|
B|------------------------------2---|-------2---2---2---------4---|-----4----4----------------------------------|
G|------------------------------4---|-------4---4---4-------------|-----4----4----------------------------------|
D|-------6---6---6----6---------4---|-------4---4---4-------------|----------4---1------------------------------|
A|-------4---4---4----4---2--2--2---|-2--2--2---2---2-------------|--------------1------------------------------|
E|-2--2--2---2---2----2-------------|-----------------------------|------------------12-11-10-0--8--9--10-9--8--|


E|------------------------------------------|-----------------|-----4-----------|-----------------|
B|------------------------------------------|-7---7-----7-----|-----7-----7-----|-----7-----7-----|
G|--------------------------------0---6-----|-6---6-----6-----|-----6-----9-----|-----9-----9-----|
D|----------------------------8---0---4-----|-4---4-----4-----|-----4-----9-----|-----9-----9-----|
A|----------------------------8-------4-----|-4---4-----4-----|-----4-----7-----|-----7-----7-----|
E|-0--6--7--6--7--6--0--0--0--6-------------|-----------------|-----------------|-----------------|


E|-----------------|------------------------|-------------------------------|---------------------------------|
B|-----7-----------|------------------------|-------------------------------|---------------------------------|
G|-----9-----7-----|-----7---7----9---11----|-----9----7--------------------|---------------------------------|
D|-----9-----0-----|-----0---0----0---0-----|-----0----0----------------4---|-----4---------------------------|
A|-----7-----0-----|-----0---0----0---0-----|-----0----0----------------4---|-----4-----------3---3-----------|
E|-----------------|------------------------|---------------2--2--3--3--2---|-----2---2---2-----------0---0---|


E|-----------------------------|
B|-----------------------------|
G|-----------------------------|
D|---------2---4--4------------|
A|-1---1---2---4--4------------|
E|---------0---2--2------------|





Track 3: John P 2

E|--------|--------|--------|--------|--------|--------|--------|--------|--------|
B|--------|--------|--------|--------|--------|--------|--------|--------|--------|
G|--------|--------|--------|--------|--------|--------|--------|--------|--------|
D|--------|--------|--------|--------|--------|--------|--------|--------|--------|
A|--------|--------|--------|--------|--------|--------|--------|--------|--------|
E|--------|--------|--------|--------|--------|--------|--------|--------|--------|


E|--------|--------|--------|--------|--------|--------|--------|-----------------|
B|--------|--------|--------|--------|--------|--------|--------|-----------------|
G|--------|--------|--------|--------|--------|--------|--------|-11----18--18----|
D|--------|--------|--------|--------|--------|--------|--------|-16----20--20----|
A|--------|--------|--------|--------|--------|--------|--------|-----------------|
E|--------|--------|--------|--------|--------|--------|--------|-----------------|


E|-------------|--------|-------------|--------|-------------|-----------------|--------|
B|-------------|--------|-------------|--------|-------------|-----------------|--------|
G|-18----20----|-16-----|-16----9-----|-11-----|-11----9-----|-11----11--11----|-11-----|
D|-20----21----|-18-----|-18----14----|-16-----|-16----14----|-11----11--11----|-11-----|
A|-------------|--------|-------------|--------|-------------|-----------------|--------|
E|-------------|--------|-------------|--------|-------------|-----------------|--------|


E|-------18--18----|-18----19----|--------|-------------|--------|-------------|-----------------|
B|-19--------------|-------------|-21-----|-21----17----|-19-----|-19----17----|-----------------|
G|-11----18--18----|-18----20----|-16-----|-16----11----|-14-----|-14----13----|-18----18--18----|
D|-----------------|-------------|--------|-------------|--------|-------------|-16----16--16----|
A|-----------------|-------------|--------|-------------|--------|-------------|-----------------|
E|-----------------|-------------|--------|-------------|--------|-------------|-----------------|


E|--------|--------|--------|--------|--------|--------|--------|--------|--------|
B|--------|--------|--------|--------|--------|--------|--------|--------|--------|
G|-18-----|--------|--------|--------|--------|--------|--------|--------|--------|
D|-16-----|--------|--------|--------|--------|--------|--------|--------|--------|
A|--------|--------|--------|--------|--------|--------|--------|--------|--------|
E|--------|--------|--------|--------|--------|--------|--------|--------|--------|


E|--------|--------|--------|--------|--------|--------|--------|--------|--------|
B|--------|--------|--------|--------|--------|--------|--------|--------|--------|
G|--------|--------|--------|--------|--------|--------|--------|--------|--------|
D|--------|--------|--------|--------|--------|--------|--------|--------|--------|
A|--------|--------|--------|--------|--------|--------|--------|--------|--------|
E|--------|--------|--------|--------|--------|--------|--------|--------|--------|


E|--------|--------|--------|--------|--------|--------|--------|--------|--------|
B|--------|--------|--------|--------|--------|--------|--------|--------|--------|
G|--------|--------|--------|--------|--------|--------|--------|--------|--------|
D|--------|--------|--------|--------|--------|--------|--------|--------|--------|
A|--------|--------|--------|--------|--------|--------|--------|--------|--------|
E|--------|--------|--------|--------|--------|--------|--------|--------|--------|


E|--------|--------|--------|--------|--------|--------|--------|--------|--------|
B|--------|--------|--------|--------|--------|--------|--------|--------|--------|
G|--------|--------|--------|--------|--------|--------|--------|--------|--------|
D|--------|--------|--------|--------|--------|--------|--------|--------|--------|
A|--------|--------|--------|--------|--------|--------|--------|--------|--------|
E|--------|--------|--------|--------|--------|--------|--------|--------|--------|


E|--------|--------|--------|--------|--------|--------|--------|--------|--------|
B|--------|--------|--------|--------|--------|--------|--------|--------|--------|
G|--------|--------|--------|--------|--------|--------|--------|--------|--------|
D|--------|--------|--------|--------|--------|--------|--------|--------|--------|
A|--------|--------|--------|--------|--------|--------|--------|--------|--------|
E|--------|--------|--------|--------|--------|--------|--------|--------|--------|


E|--------|--------|--------|--------|--------|--------|--------|--------|--------|
B|--------|--------|--------|--------|--------|--------|--------|--------|--------|
G|--------|--------|--------|--------|--------|--------|--------|--------|--------|
D|--------|--------|--------|--------|--------|--------|--------|--------|--------|
A|--------|--------|--------|--------|--------|--------|--------|--------|--------|
E|--------|--------|--------|--------|--------|--------|--------|--------|--------|


E|--------|--------|--------|--------|--------|--------|--------|--------|--------|
B|--------|--------|--------|--------|--------|--------|--------|--------|--------|
G|--------|--------|--------|--------|--------|--------|--------|--------|--------|
D|--------|--------|--------|--------|--------|--------|--------|--------|--------|
A|--------|--------|--------|--------|--------|--------|--------|--------|--------|
E|--------|--------|--------|--------|--------|--------|--------|--------|--------|


E|--------|--------|--------|--------|--------|--------|--------|--------|--------|
B|--------|--------|--------|--------|--------|--------|--------|--------|--------|
G|--------|--------|--------|--------|--------|--------|--------|--------|--------|
D|--------|--------|--------|--------|--------|--------|--------|--------|--------|
A|--------|--------|--------|--------|--------|--------|--------|--------|--------|
E|--------|--------|--------|--------|--------|--------|--------|--------|--------|


E|--------|--------|--------|--------|--------|--------|--------|--------|--------|
B|--------|--------|--------|--------|--------|--------|--------|--------|--------|
G|--------|--------|--------|--------|--------|--------|--------|--------|--------|
D|--------|--------|--------|--------|--------|--------|--------|--------|--------|
A|--------|--------|--------|--------|--------|--------|--------|--------|--------|
E|--------|--------|--------|--------|--------|--------|--------|--------|--------|


E|--------|--------|--------|--------|--------|--------|--------|--------|--------|
B|--------|--------|--------|--------|--------|--------|--------|--------|--------|
G|--------|--------|--------|--------|--------|--------|--------|--------|--------|
D|--------|--------|--------|--------|--------|--------|--------|--------|--------|
A|--------|--------|--------|--------|--------|--------|--------|--------|--------|
E|--------|--------|--------|--------|--------|--------|--------|--------|--------|


E|--------|--------|--------|--------|--------|--------|--------|--------|--------|
B|--------|--------|--------|--------|--------|--------|--------|--------|--------|
G|--------|--------|--------|--------|--------|--------|--------|--------|--------|
D|--------|--------|--------|--------|--------|--------|--------|--------|--------|
A|--------|--------|--------|--------|--------|--------|--------|--------|--------|
E|--------|--------|--------|--------|--------|--------|--------|--------|--------|


E|--------|--------|--------|--------|--------|--------|--------|--------|--------|
B|--------|--------|--------|--------|--------|--------|--------|--------|--------|
G|--------|--------|--------|--------|--------|--------|--------|--------|--------|
D|--------|--------|--------|--------|--------|--------|--------|--------|--------|
A|--------|--------|--------|--------|--------|--------|--------|--------|--------|
E|--------|--------|--------|--------|--------|--------|--------|--------|--------|


E|--------|--------|--------|--------|--------|--------|--------|--------|--------|
B|--------|--------|--------|--------|--------|--------|--------|--------|--------|
G|--------|--------|--------|--------|--------|--------|--------|--------|--------|
D|--------|--------|--------|--------|--------|--------|--------|--------|--------|
A|--------|--------|--------|--------|--------|--------|--------|--------|--------|
E|--------|--------|--------|--------|--------|--------|--------|--------|--------|


E|--------|--------|--------|--------|--------|--------|--------|--------|--------|
B|--------|--------|--------|--------|--------|--------|--------|--------|--------|
G|--------|--------|--------|--------|--------|--------|--------|--------|--------|
D|--------|--------|--------|--------|--------|--------|--------|--------|--------|
A|--------|--------|--------|--------|--------|--------|--------|--------|--------|
E|--------|--------|--------|--------|--------|--------|--------|--------|--------|


E|--------|--------|--------|--------|--------|--------|--------|--------|--------|
B|--------|--------|--------|--------|--------|--------|--------|--------|--------|
G|--------|--------|--------|--------|--------|--------|--------|--------|--------|
D|--------|--------|--------|--------|--------|--------|--------|--------|--------|
A|--------|--------|--------|--------|--------|--------|--------|--------|--------|
E|--------|--------|--------|--------|--------|--------|--------|--------|--------|


E|--------|--------|-----12----12----|-------------------------------------------------|
B|--------|--------|-----12----12----|-12-12-12-12-12-12-12-7--7--7--7--9--9--9--9--5--|
G|--------|--------|-----------------|-------------------------------------------------|
D|--------|--------|-----------------|-------------------------------------------------|
A|--------|--------|-----------------|-------------------------------------------------|
E|--------|--------|-----------------|-------------------------------------------------|


E|-----------------------------------------------|------------12-16-12-------------------------|
B|-5--5--4---5--4--------------------------------|--------16-----------16-12-------------------|
G|-----------------6--4--6--6--6--4--------------|---------------------------13-9--------------|
D|-----------------------------------6--4--------|---------------------------------13-9--------|
A|-----------------------------------------6--4--|-6---6---------------------------------11-7--|
E|-----------------------------------------------|---------------------------------------------|


E|-------------------------------|-------------------------------------|--------------------------------------------|
B|-------------------------------|-----5---7--5--0--7---9--7--0--12----|-12-9--11-11---11-11-11--9------------------|
G|-------------------------------|-------------------------------------|----------------------------11-9------------|
D|-------------------------------|-------------------------------------|----------------------------------11-9--8---|
A|-------------------------------|-------------------------------------|--------------------------------------------|
E|-11-7--0----5----4----4---3----|-------------------------------------|--------------------------------------------|


E|------------9--11-12-11-9--------------------------------------|------------------------------------12-12-|
B|---------12----------------12-10-9-----------------------------|------------------------------------11-11-|
G|------------------------------------11-9--8--------------------|------------------------------------------|
D|-----8---------------------------------------11-9--7-----------|----------------------11------------------|
A|------------------------------------------------------11-9--7--|--------------11--------------------------|
E|---------------------------------------------------------------|-11-9--7--9-------9-------9--0--9---------|


E|-12-12------------------------------------|-----------------------------------|-----9-------------------------------------|
B|-11-11-------------9----------------------|-------------------------------12--|--------12-9-----9-------------------------|
G|-------------------9----------------------|-----------------------------------|--------------12----12-11-9--11-9--11--9---|
D|------------------------11-9--------------|-----------------11----------------|-------------------------------------------|
A|-------0--0--10-11------------9--10-9--7--|---------11------------------------|-------------------------------------------|
E|------------------------------------------|-9---9-------9-------9--0--9-------|-------------------------------------------|


E|-----------------14--14--13-11-----|------------13-14-16-14-13-14-13----13-------|
B|---------12--------------------14--|-12------16----------------------16----16-14-|
G|-----11------11--------------------|---------------------------------------------|
D|-----------------------------------|---------------------------------------------|
A|-----------------------------------|---------------------------------------------|
E|-----------------------------------|---------------------------------------------|


E|-----19--14----------------------------|-----------------------------------------14-16-17-|
B|-16--------16--------------------------|--------------------------------14-16-17----------|
G|-------------16--------16--16----------|-16--------------------13-14-16-------------------|
D|---------------16------------------16--|--------------13-14-16----------------------------|
A|-----------------1614----------14------|-----12-14-16-------------------------------------|
E|---------------------------------------|--------------------------------------------------|


E|-16-14-19---19---19-------|-----19-------16-------19-------16-------19----|----14-----14-----------14--------------------14-|
B|----------------------12--|-17-----17-14----14-17----17-14----14-17----17-|-14----17-----17-14-17-----17-14-17-17-17--17----|
G|--------------------------|-----------------------------------------------|-------------------------------------------------|
D|--------------------------|-----------------------------------------------|-------------------------------------------------|
A|--------------------------|-----------------------------------------------|-------------------------------------------------|
E|--------------------------|-----------------------------------------------|-------------------------------------------------|


E|----14-------------------------------------------|-----------------------------|
B|-17----17-16-14----------------------------------|-----------------------------|
G|----------------17-16-15-14----------------------|-----------------------------|
D|----------------------------16-14-------------16-|---------------4----4---6----|
A|----------------------------------16-15-14-13----|-13-------2------------------|
E|-------------------------------------------------|-----0-----------------------|


E|-----------------------------12-12-12--|-5--7--5--0----0--0------------1212------------121416181514|
B|-----5--5--5---12-12-12--5-------------|---------------0--0---------14-----14--------14------------|
G|-4-------------------------------------|-------------------------16----------16----16--------------|
D|---------------------------------------|----------------------18---------------1818----------------|
A|---------------------------------------|-----------------------------------------------------------|
E|---------------------------------------|-----------------------------------------------------------|


E|-1212---------------12-14-16-18-211816141214161821181614121416182118161412|---12-----------------|
B|-----14----------14-------------------------------------------------------|-----14----14-----14--|
G|-------16-----16----------------------------------------------------------|-------16-------------|
D|---------1818-------------------------------------------------------------|---------18-----------|
A|--------------------------------------------------------------------------|----------------------|
E|--------------------------------------------------------------------------|----------------------|


E|---------------------------------------------|--------------------------11-12-11----14-11----|
B|-----11-12-14-11-11-14-11-11-14-11-11-14-11--|-----12-11----11-14-11-------------12-------12-|
G|---------------------------------------------|-----------13----------13----------------------|
D|---------------------------------------------|-----------------------------------------------|
A|---------------------------------------------|-----------------------------------------------|
E|---------------------------------------------|-----------------------------------------------|


E|-16-12----16-14----19-16----19-19----|----------------------------------|---------------------------------------|
B|-------14-------16-------17----------|-----19---19---16-----------------|---------------------------------------|
G|-------------------------------------|--------------------18---18-18-16-|----16-18--18--18-16----16-18-16---16--|
D|-------------------------------------|----------------------------------|-18------------------18----------------|
A|-------------------------------------|----------------------------------|---------------------------------------|
E|-------------------------------------|----------------------------------|---------------------------------------|


E|-----------------------------16-17-18-19-19-18-17-16------------|---------------------------------------------------------------------|
B|-----------------16-17-18-19-------------------------19-18-17-16|---------------------------------------------------------------------|
G|-----15-16-17-18------------------------------------------------|----18-17-16-15-18-17-16-15------------------------------------------|
D|----------------------------------------------------------------|----------------------------18-17-16-14------------------------------|
A|----------------------------------------------------------------|----------------------------------------18-17-16-14------------------|
E|----------------------------------------------------------------|----------------------------------------------------18-17-16-14-13-12|


E|----------4------|-4------4---|-----4---------------------|--------|--------|--------|
B|----------4------|-4------4---|-----4---------------------|--------|--------|--------|
G|----------6------|-6------6---|-----6--------4---4---4----|--------|--------|--------|
D|----------6------|-6------6---|-----6---------------------|--------|--------|--------|
A|----------4------|-4------4---|-----4---------------------|--------|--------|--------|
E|----11-11-4------|-4------4---|-----4---------------------|--------|--------|--------|


E|--------|--------|--------|--------|--------|--------|--------|--------|--------|
B|--------|--------|--------|--------|--------|--------|--------|--------|--------|
G|--------|--------|--------|--------|--------|--------|--------|--------|--------|
D|--------|--------|--------|--------|--------|--------|--------|--------|--------|
A|--------|--------|--------|--------|--------|--------|--------|--------|--------|
E|--------|--------|--------|--------|--------|--------|--------|--------|--------|


E|--------|--------|--------|--------|--------|--------|--------|--------|--------|
B|--------|--------|--------|--------|--------|--------|--------|--------|--------|
G|--------|--------|--------|--------|--------|--------|--------|--------|--------|
D|--------|--------|--------|--------|--------|--------|--------|--------|--------|
A|--------|--------|--------|--------|--------|--------|--------|--------|--------|
E|--------|--------|--------|--------|--------|--------|--------|--------|--------|


E|--------|--------|--------|--------|--------|--------|--------|--------|--------|
B|--------|--------|--------|--------|--------|--------|--------|--------|--------|
G|--------|--------|--------|--------|--------|--------|--------|--------|--------|
D|--------|--------|--------|--------|--------|--------|--------|--------|--------|
A|--------|--------|--------|--------|--------|--------|--------|--------|--------|
E|--------|--------|--------|--------|--------|--------|--------|--------|--------|


E|--------|--------|--------|--------|--------|--------|--------|--------|--------|
B|--------|--------|--------|--------|--------|--------|--------|--------|--------|
G|--------|--------|--------|--------|--------|--------|--------|--------|--------|
D|--------|--------|--------|--------|--------|--------|--------|--------|--------|
A|--------|--------|--------|--------|--------|--------|--------|--------|--------|
E|--------|--------|--------|--------|--------|--------|--------|--------|--------|


E|--------|--------|--------|--------|--------|--------|--------|--------|--------|
B|--------|--------|--------|--------|--------|--------|--------|--------|--------|
G|--------|--------|--------|--------|--------|--------|--------|--------|--------|
D|--------|--------|--------|--------|--------|--------|--------|--------|--------|
A|--------|--------|--------|--------|--------|--------|--------|--------|--------|
E|--------|--------|--------|--------|--------|--------|--------|--------|--------|


E|--------|--------|--------|--------|--------|--------|
B|--------|--------|--------|--------|--------|--------|
G|--------|--------|--------|--------|--------|--------|
D|--------|--------|--------|--------|--------|--------|
A|--------|--------|--------|--------|--------|--------|
E|--------|--------|--------|--------|--------|--------|





Track 4: Clean

E|--------|--------|--------|--------|--------|--------|--------|--------|--------|
B|--------|--------|--------|--------|--------|--------|--------|--------|--------|
G|--------|--------|--------|--------|--------|--------|--------|--------|--------|
D|--------|--------|--------|--------|--------|--------|--------|--------|--------|
A|--------|--------|--------|--------|--------|--------|--------|--------|--------|
E|--------|--------|--------|--------|--------|--------|--------|--------|--------|


E|--------|--------|--------|--------|--------|--------|--------|--------|--------|
B|--------|--------|--------|--------|--------|--------|--------|--------|--------|
G|--------|--------|--------|--------|--------|--------|--------|--------|--------|
D|--------|--------|--------|--------|--------|--------|--------|--------|--------|
A|--------|--------|--------|--------|--------|--------|--------|--------|--------|
E|--------|--------|--------|--------|--------|--------|--------|--------|--------|


E|--------|--------|--------|--------|--------|--------|--------|--------|--------|
B|--------|--------|--------|--------|--------|--------|--------|--------|--------|
G|--------|--------|--------|--------|--------|--------|--------|--------|--------|
D|--------|--------|--------|--------|--------|--------|--------|--------|--------|
A|--------|--------|--------|--------|--------|--------|--------|--------|--------|
E|--------|--------|--------|--------|--------|--------|--------|--------|--------|


E|--------|--------|--------|--------|--------|--------|--------|--------|--------|
B|--------|--------|--------|--------|--------|--------|--------|--------|--------|
G|--------|--------|--------|--------|--------|--------|--------|--------|--------|
D|--------|--------|--------|--------|--------|--------|--------|--------|--------|
A|--------|--------|--------|--------|--------|--------|--------|--------|--------|
E|--------|--------|--------|--------|--------|--------|--------|--------|--------|


E|--------|--------|--------|--------|--------|--------|--------|--------|--------|
B|--------|--------|--------|--------|--------|--------|--------|--------|--------|
G|--------|--------|--------|--------|--------|--------|--------|--------|--------|
D|--------|--------|--------|--------|--------|--------|--------|--------|--------|
A|--------|--------|--------|--------|--------|--------|--------|--------|--------|
E|--------|--------|--------|--------|--------|--------|--------|--------|--------|


E|--------|--------|--------|--------|--------|--------|--------|--------|--------|
B|--------|--------|--------|--------|--------|--------|--------|--------|--------|
G|--------|--------|--------|--------|--------|--------|--------|--------|--------|
D|--------|--------|--------|--------|--------|--------|--------|--------|--------|
A|--------|--------|--------|--------|--------|--------|--------|--------|--------|
E|--------|--------|--------|--------|--------|--------|--------|--------|--------|


E|--------|--------|--------|--------|--------|--------|--------|--------|--------|
B|--------|--------|--------|--------|--------|--------|--------|--------|--------|
G|--------|--------|--------|--------|--------|--------|--------|--------|--------|
D|--------|--------|--------|--------|--------|--------|--------|--------|--------|
A|--------|--------|--------|--------|--------|--------|--------|--------|--------|
E|--------|--------|--------|--------|--------|--------|--------|--------|--------|


E|--------|--------|--------|--------|--------|--------|--------|--------|--------|
B|--------|--------|--------|--------|--------|--------|--------|--------|--------|
G|--------|--------|--------|--------|--------|--------|--------|--------|--------|
D|--------|--------|--------|--------|--------|--------|--------|--------|--------|
A|--------|--------|--------|--------|--------|--------|--------|--------|--------|
E|--------|--------|--------|--------|--------|--------|--------|--------|--------|


E|--------|--------|--------|--------|--------|--------|--------|--------|--------|
B|--------|--------|--------|--------|--------|--------|--------|--------|--------|
G|--------|--------|--------|--------|--------|--------|--------|--------|--------|
D|--------|--------|--------|--------|--------|--------|--------|--------|--------|
A|--------|--------|--------|--------|--------|--------|--------|--------|--------|
E|--------|--------|--------|--------|--------|--------|--------|--------|--------|


E|--------|--------|--------|--------|--------|--------|--------|--------|--------|
B|--------|--------|--------|--------|--------|--------|--------|--------|--------|
G|--------|--------|--------|--------|--------|--------|--------|--------|--------|
D|--------|--------|--------|--------|--------|--------|--------|--------|--------|
A|--------|--------|--------|--------|--------|--------|--------|--------|--------|
E|--------|--------|--------|--------|--------|--------|--------|--------|--------|


E|--------|--------|--------|--------|--------|--------|--------|--------|--------|
B|--------|--------|--------|--------|--------|--------|--------|--------|--------|
G|--------|--------|--------|--------|--------|--------|--------|--------|--------|
D|--------|--------|--------|--------|--------|--------|--------|--------|--------|
A|--------|--------|--------|--------|--------|--------|--------|--------|--------|
E|--------|--------|--------|--------|--------|--------|--------|--------|--------|


E|--------|--------|--------|--------|--------|-----0------|-----0------|-----0------|
B|--------|--------|--------|--------|--------|-----0------|-----0------|-----0------|
G|--------|--------|--------|--------|--------|-----9------|-----9------|-----9------|
D|--------|--------|--------|--------|--------|-----7------|-----7------|-----7------|
A|--------|--------|--------|--------|--------|------------|------------|------------|
E|--------|--------|--------|--------|--------|------------|------------|------------|


E|-----0------|-----0------|-----0------|-----0------|-----0-----0---0-----|-----0------|
B|-----0------|-----0------|-----0------|-----0------|-----------0---0-----|-----0------|
G|-----9------|-----9------|-----9------|-----9------|---------------------|-----9------|
D|-----7------|-----9------|-----9------|-----9------|---------------------|-----7------|
A|------------|------------|------------|------------|---------------------|------------|
E|------------|------------|------------|------------|---------------------|------------|


E|-----0------|-----0------|-----0------|-----0------|-----0------|-----0------|-----0------|
B|-----0------|-----0------|-----0------|-----0------|-----0------|-----0------|-----0------|
G|-----9------|-----9------|-----9------|-----9------|-----9------|-----9------|-----9------|
D|-----7------|-----7------|-----7------|-----7------|-----7------|-----7------|-----7------|
A|------------|------------|------------|------------|------------|------------|------------|
E|------------|------------|------------|------------|------------|------------|------------|


E|--------|--------|--------|--------|--------|--------|--------|--------|--------|
B|--------|--------|--------|--------|--------|--------|--------|--------|--------|
G|--------|--------|--------|--------|--------|--------|--------|--------|--------|
D|--------|--------|--------|--------|--------|--------|--------|--------|--------|
A|--------|--------|--------|--------|--------|--------|--------|--------|--------|
E|--------|--------|--------|--------|--------|--------|--------|--------|--------|


E|--------|--------|--------|--------|--------|--------|--------|--------|--------|
B|--------|--------|--------|--------|--------|--------|--------|--------|--------|
G|--------|--------|--------|--------|--------|--------|--------|--------|--------|
D|--------|--------|--------|--------|--------|--------|--------|--------|--------|
A|--------|--------|--------|--------|--------|--------|--------|--------|--------|
E|--------|--------|--------|--------|--------|--------|--------|--------|--------|


E|--------|--------|--------|--------|--------|--------|--------|--------|--------|
B|--------|--------|--------|--------|--------|--------|--------|--------|--------|
G|--------|--------|--------|--------|--------|--------|--------|--------|--------|
D|--------|--------|--------|--------|--------|--------|--------|--------|--------|
A|--------|--------|--------|--------|--------|--------|--------|--------|--------|
E|--------|--------|--------|--------|--------|--------|--------|--------|--------|


E|--------|--------|--------|--------|--------|--------|--------|--------|--------|
B|--------|--------|--------|--------|--------|--------|--------|--------|--------|
G|--------|--------|--------|--------|--------|--------|--------|--------|--------|
D|--------|--------|--------|--------|--------|--------|--------|--------|--------|
A|--------|--------|--------|--------|--------|--------|--------|--------|--------|
E|--------|--------|--------|--------|--------|--------|--------|--------|--------|


E|--------|--------|--------|--------|--------|--------|--------|--------|--------|
B|--------|--------|--------|--------|--------|--------|--------|--------|--------|
G|--------|--------|--------|--------|--------|--------|--------|--------|--------|
D|--------|--------|--------|--------|--------|--------|--------|--------|--------|
A|--------|--------|--------|--------|--------|--------|--------|--------|--------|
E|--------|--------|--------|--------|--------|--------|--------|--------|--------|


E|--------|--------|--------|--------|--------|--------|--------|--------|--------|
B|--------|--------|--------|--------|--------|--------|--------|--------|--------|
G|--------|--------|--------|--------|--------|--------|--------|--------|--------|
D|--------|--------|--------|--------|--------|--------|--------|--------|--------|
A|--------|--------|--------|--------|--------|--------|--------|--------|--------|
E|--------|--------|--------|--------|--------|--------|--------|--------|--------|


E|--------|--------|--------|--------|--------|--------|--------|--------|--------|
B|--------|--------|--------|--------|--------|--------|--------|--------|--------|
G|--------|--------|--------|--------|--------|--------|--------|--------|--------|
D|--------|--------|--------|--------|--------|--------|--------|--------|--------|
A|--------|--------|--------|--------|--------|--------|--------|--------|--------|
E|--------|--------|--------|--------|--------|--------|--------|--------|--------|


E|--------|--------|--------|--------|--------|--------|--------|--------|--------|
B|--------|--------|--------|--------|--------|--------|--------|--------|--------|
G|--------|--------|--------|--------|--------|--------|--------|--------|--------|
D|--------|--------|--------|--------|--------|--------|--------|--------|--------|
A|--------|--------|--------|--------|--------|--------|--------|--------|--------|
E|--------|--------|--------|--------|--------|--------|--------|--------|--------|


E|--------|--------|--------|--------|--------|--------|--------|--------|--------|
B|--------|--------|--------|--------|--------|--------|--------|--------|--------|
G|--------|--------|--------|--------|--------|--------|--------|--------|--------|
D|--------|--------|--------|--------|--------|--------|--------|--------|--------|
A|--------|--------|--------|--------|--------|--------|--------|--------|--------|
E|--------|--------|--------|--------|--------|--------|--------|--------|--------|


E|--------|--------|--------|--------|--------|--------|--------|--------|--------|
B|--------|--------|--------|--------|--------|--------|--------|--------|--------|
G|--------|--------|--------|--------|--------|--------|--------|--------|--------|
D|--------|--------|--------|--------|--------|--------|--------|--------|--------|
A|--------|--------|--------|--------|--------|--------|--------|--------|--------|
E|--------|--------|--------|--------|--------|--------|--------|--------|--------|


E|--------|--------|--------|--------|--------|--------|--------|--------|--------|
B|--------|--------|--------|--------|--------|--------|--------|--------|--------|
G|--------|--------|--------|--------|--------|--------|--------|--------|--------|
D|--------|--------|--------|--------|--------|--------|--------|--------|--------|
A|--------|--------|--------|--------|--------|--------|--------|--------|--------|
E|--------|--------|--------|--------|--------|--------|--------|--------|--------|


E|--------|--------|--------|--------|--------|--------|--------|--------|--------|
B|--------|--------|--------|--------|--------|--------|--------|--------|--------|
G|--------|--------|--------|--------|--------|--------|--------|--------|--------|
D|--------|--------|--------|--------|--------|--------|--------|--------|--------|
A|--------|--------|--------|--------|--------|--------|--------|--------|--------|
E|--------|--------|--------|--------|--------|--------|--------|--------|--------|


E|--------|--------|--------|--------|--------|--------|--------|--------|--------|
B|--------|--------|--------|--------|--------|--------|--------|--------|--------|
G|--------|--------|--------|--------|--------|--------|--------|--------|--------|
D|--------|--------|--------|--------|--------|--------|--------|--------|--------|
A|--------|--------|--------|--------|--------|--------|--------|--------|--------|
E|--------|--------|--------|--------|--------|--------|--------|--------|--------|


E|--------|--------|--------|--------|--------|--------|--------|--------|--------|
B|--------|--------|--------|--------|--------|--------|--------|--------|--------|
G|--------|--------|--------|--------|--------|--------|--------|--------|--------|
D|--------|--------|--------|--------|--------|--------|--------|--------|--------|
A|--------|--------|--------|--------|--------|--------|--------|--------|--------|
E|--------|--------|--------|--------|--------|--------|--------|--------|--------|


E|--------|--------|--------|--------|--------|--------|--------|--------|--------|
B|--------|--------|--------|--------|--------|--------|--------|--------|--------|
G|--------|--------|--------|--------|--------|--------|--------|--------|--------|
D|--------|--------|--------|--------|--------|--------|--------|--------|--------|
A|--------|--------|--------|--------|--------|--------|--------|--------|--------|
E|--------|--------|--------|--------|--------|--------|--------|--------|--------|


E|--------|--------|
B|--------|--------|
G|--------|--------|
D|--------|--------|
A|--------|--------|
E|--------|--------|





Track 5: Jordan (Chords Solo)

E|--------|--------|--------|--------|--------|--------|--------|--------|--------|
B|--------|--------|--------|--------|--------|--------|--------|--------|--------|
G|--------|--------|--------|--------|--------|--------|--------|--------|--------|
D|--------|--------|--------|--------|--------|--------|--------|--------|--------|
A|--------|--------|--------|--------|--------|--------|--------|--------|--------|
E|--------|--------|--------|--------|--------|--------|--------|--------|--------|


E|--------|--------|--------|--------|--------|--------|--------|--------|--------|
B|--------|--------|--------|--------|--------|--------|--------|--------|--------|
G|--------|--------|--------|--------|--------|--------|--------|--------|--------|
D|--------|--------|--------|--------|--------|--------|--------|--------|--------|
A|--------|--------|--------|--------|--------|--------|--------|--------|--------|
E|--------|--------|--------|--------|--------|--------|--------|--------|--------|


E|--------|--------|--------|--------|--------|--------|--------|--------|--------|
B|--------|--------|--------|--------|--------|--------|--------|--------|--------|
G|--------|--------|--------|--------|--------|--------|--------|--------|--------|
D|--------|--------|--------|--------|--------|--------|--------|--------|--------|
A|--------|--------|--------|--------|--------|--------|--------|--------|--------|
E|--------|--------|--------|--------|--------|--------|--------|--------|--------|


E|--------|--------|--------|--------|--------|--------|--------|--------|--------|
B|--------|--------|--------|--------|--------|--------|--------|--------|--------|
G|--------|--------|--------|--------|--------|--------|--------|--------|--------|
D|--------|--------|--------|--------|--------|--------|--------|--------|--------|
A|--------|--------|--------|--------|--------|--------|--------|--------|--------|
E|--------|--------|--------|--------|--------|--------|--------|--------|--------|


E|--------|--------|--------|--------|--------|--------|--------|--------|--------|
B|--------|--------|--------|--------|--------|--------|--------|--------|--------|
G|--------|--------|--------|--------|--------|--------|--------|--------|--------|
D|--------|--------|--------|--------|--------|--------|--------|--------|--------|
A|--------|--------|--------|--------|--------|--------|--------|--------|--------|
E|--------|--------|--------|--------|--------|--------|--------|--------|--------|


E|--------|--------|--------|--------|--------|--------|--------|--------|--------|
B|--------|--------|--------|--------|--------|--------|--------|--------|--------|
G|--------|--------|--------|--------|--------|--------|--------|--------|--------|
D|--------|--------|--------|--------|--------|--------|--------|--------|--------|
A|--------|--------|--------|--------|--------|--------|--------|--------|--------|
E|--------|--------|--------|--------|--------|--------|--------|--------|--------|


E|--------|--------|--------|--------|--------|--------|--------|--------|--------|
B|--------|--------|--------|--------|--------|--------|--------|--------|--------|
G|--------|--------|--------|--------|--------|--------|--------|--------|--------|
D|--------|--------|--------|--------|--------|--------|--------|--------|--------|
A|--------|--------|--------|--------|--------|--------|--------|--------|--------|
E|--------|--------|--------|--------|--------|--------|--------|--------|--------|


E|--------|--------|--------|--------|--------|--------|--------|--------|--------|
B|--------|--------|--------|--------|--------|--------|--------|--------|--------|
G|--------|--------|--------|--------|--------|--------|--------|--------|--------|
D|--------|--------|--------|--------|--------|--------|--------|--------|--------|
A|--------|--------|--------|--------|--------|--------|--------|--------|--------|
E|--------|--------|--------|--------|--------|--------|--------|--------|--------|


E|--------|--------|--------|--------|--------|--------|--------|--------|--------|
B|--------|--------|--------|--------|--------|--------|--------|--------|--------|
G|--------|--------|--------|--------|--------|--------|--------|--------|--------|
D|--------|--------|--------|--------|--------|--------|--------|--------|--------|
A|--------|--------|--------|--------|--------|--------|--------|--------|--------|
E|--------|--------|--------|--------|--------|--------|--------|--------|--------|


E|--------|--------|--------|--------|--------|--------|--------|--------|--------|
B|--------|--------|--------|--------|--------|--------|--------|--------|--------|
G|--------|--------|--------|--------|--------|--------|--------|--------|--------|
D|--------|--------|--------|--------|--------|--------|--------|--------|--------|
A|--------|--------|--------|--------|--------|--------|--------|--------|--------|
E|--------|--------|--------|--------|--------|--------|--------|--------|--------|


E|--------|--------|--------|--------|--------|--------|--------|--------|--------|
B|--------|--------|--------|--------|--------|--------|--------|--------|--------|
G|--------|--------|--------|--------|--------|--------|--------|--------|--------|
D|--------|--------|--------|--------|--------|--------|--------|--------|--------|
A|--------|--------|--------|--------|--------|--------|--------|--------|--------|
E|--------|--------|--------|--------|--------|--------|--------|--------|--------|


E|--------|--------|--------|--------|--------|--------|--------|--------|--------|
B|--------|--------|--------|--------|--------|--------|--------|--------|--------|
G|--------|--------|--------|--------|--------|--------|--------|--------|--------|
D|--------|--------|--------|--------|--------|--------|--------|--------|--------|
A|--------|--------|--------|--------|--------|--------|--------|--------|--------|
E|--------|--------|--------|--------|--------|--------|--------|--------|--------|


E|--------|--------|--------|--------|--------|--------|--------|--------|--------|
B|--------|--------|--------|--------|--------|--------|--------|--------|--------|
G|--------|--------|--------|--------|--------|--------|--------|--------|--------|
D|--------|--------|--------|--------|--------|--------|--------|--------|--------|
A|--------|--------|--------|--------|--------|--------|--------|--------|--------|
E|--------|--------|--------|--------|--------|--------|--------|--------|--------|


E|--------|--------|--------|--------|--------|--------|--------|--------|--------|
B|--------|--------|--------|--------|--------|--------|--------|--------|--------|
G|--------|--------|--------|--------|--------|--------|--------|--------|--------|
D|--------|--------|--------|--------|--------|--------|--------|--------|--------|
A|--------|--------|--------|--------|--------|--------|--------|--------|--------|
E|--------|--------|--------|--------|--------|--------|--------|--------|--------|


E|--------|--------|--------|--------|--------|--------|--------|--------|--------|
B|--------|--------|--------|--------|--------|--------|--------|--------|--------|
G|--------|--------|--------|--------|--------|--------|--------|--------|--------|
D|--------|--------|--------|--------|--------|--------|--------|--------|--------|
A|--------|--------|--------|--------|--------|--------|--------|--------|--------|
E|--------|--------|--------|--------|--------|--------|--------|--------|--------|


E|--------|--------|--------|--------|--------|--------|--------|--------|--------|
B|--------|--------|--------|--------|--------|--------|--------|--------|--------|
G|--------|--------|--------|--------|--------|--------|--------|--------|--------|
D|--------|--------|--------|--------|--------|--------|--------|--------|--------|
A|--------|--------|--------|--------|--------|--------|--------|--------|--------|
E|--------|--------|--------|--------|--------|--------|--------|--------|--------|


E|--------|--------|--------|--------|--------|--------|--------|--------|--------|
B|--------|--------|--------|--------|--------|--------|--------|--------|--------|
G|--------|--------|--------|--------|--------|--------|--------|--------|--------|
D|--------|--------|--------|--------|--------|--------|--------|--------|--------|
A|--------|--------|--------|--------|--------|--------|--------|--------|--------|
E|--------|--------|--------|--------|--------|--------|--------|--------|--------|


E|--------|--------|--------|--------|--------|--------|--------|--------|--------|
B|--------|--------|--------|--------|--------|--------|--------|--------|--------|
G|--------|--------|--------|--------|--------|--------|--------|--------|--------|
D|--------|--------|--------|--------|--------|--------|--------|--------|--------|
A|--------|--------|--------|--------|--------|--------|--------|--------|--------|
E|--------|--------|--------|--------|--------|--------|--------|--------|--------|


E|--------|--------|--------|--------|--------|--------|--------|--------|--------|
B|--------|--------|--------|--------|--------|--------|--------|--------|--------|
G|--------|--------|--------|--------|--------|--------|--------|--------|--------|
D|--------|--------|--------|--------|--------|--------|--------|--------|--------|
A|--------|--------|--------|--------|--------|--------|--------|--------|--------|
E|--------|--------|--------|--------|--------|--------|--------|--------|--------|


E|--------|--------|--------|--------|--------|--------|--------|--------|--------|
B|--------|--------|--------|--------|--------|--------|--------|--------|--------|
G|--------|--------|--------|--------|--------|--------|--------|--------|--------|
D|--------|--------|--------|--------|--------|--------|--------|--------|--------|
A|--------|--------|--------|--------|--------|--------|--------|--------|--------|
E|--------|--------|--------|--------|--------|--------|--------|--------|--------|


E|--------|--------|--------|--------|--------|--------|--------|--------|--------|
B|--------|--------|--------|--------|--------|--------|--------|--------|--------|
G|--------|--------|--------|--------|--------|--------|--------|--------|--------|
D|--------|--------|--------|--------|--------|--------|--------|--------|--------|
A|--------|--------|--------|--------|--------|--------|--------|--------|--------|
E|--------|--------|--------|--------|--------|--------|--------|--------|--------|


E|--------|--------|--------|--------|--------|--------|--------|--------|--------|
B|--------|--------|--------|--------|--------|--------|--------|--------|--------|
G|--------|--------|--------|--------|--------|--------|--------|--------|--------|
D|--------|--------|--------|--------|--------|--------|--------|--------|--------|
A|--------|--------|--------|--------|--------|--------|--------|--------|--------|
E|--------|--------|--------|--------|--------|--------|--------|--------|--------|


E|--------|--------|--------|--------|--------|-----------------|-----------------|
B|--------|--------|--------|--------|--------|-----------------|-----------------|
G|--------|--------|--------|--------|--------|-----------6-----|-----6-----6-----|
D|--------|--------|--------|--------|--------|-----------6-----|-----6-----6-----|
A|--------|--------|--------|--------|--------|-----------4-----|-----4-----4-----|
E|--------|--------|--------|--------|--------|-----------------|-----------------|


E|-----------------|-----------------|-----------------|-----------------|------------------|
B|-----------------|-----------------|-----------------|-----------------|------------------|
G|-6-----8-----8---|------8-----8----|-----11----11----|-11----11----9---|-------9-----9----|
D|-6-----8-----8---|------8-----8----|-----11----11----|-11----11----9---|-------9-----9----|
A|-4-----6-----6---|------6-----6----|-----9-----9-----|-9-----9-----7---|-------7-----7----|
E|-----------------|-----------------|-----------------|-----------------|------------------|


E|------------------|-----------------|-----------------|-----------------|-----------------|
B|------------------|-----------------|-----------------|-----------------|-----------------|
G|------9-----6-----|-----6-----6-----|-6-----8-----8---|------8-----8----|-----11----11----|
D|------9-----6-----|-----6-----6-----|-6-----8-----8---|------8-----8----|-----11----11----|
A|------7-----4-----|-----4-----4-----|-4-----6-----6---|------6-----6----|-----9-----9-----|
E|------------------|-----------------|-----------------|-----------------|-----------------|


E|-----------------|------------------|------------------|-----------------|-----------------|
B|-----------------|------------------|------------------|-----------------|-----------------|
G|-11----11----9---|-------9-----9----|------9-----6-----|-----------6-----|-----------8-----|
D|-11----11----9---|-------9-----9----|------9-----6-----|-----------6-----|-----------8-----|
A|-9-----9-----7---|-------7-----7----|------7-----4-----|-----------4-----|-----------6-----|
E|-----------------|------------------|------------------|-----------------|-----------------|


E|-----------------|-----------------|-----------------|-----------------|-----------------|
B|-----------------|-----------------|-----------------|-----------------|-----------------|
G|-----------8-----|-----------11----|-----------11----|-----------9-----|-----------9-----|
D|-----------8-----|-----------11----|-----------11----|-----------9-----|-----------9-----|
A|-----------6-----|-----------9-----|-----------9-----|-----------7-----|-----------7-----|
E|-----------------|-----------------|-----------------|-----------------|-----------------|


E|---------------------------|-------------------------------------|-----------------------------------------|
B|---------------------------|-------------------------------------|-----------------------------------------|
G|-----------6--6--6--6--6---|---------6-------6---6--6--6--6--6---|-----6--6--6--6--8--8--8--8--8-----------|
D|-----------6--6--6--6--6---|---------6-------6---6--6--6--6--6---|-----6--6--6--6--8--8--8--8--8-----------|
A|-----------4--4--4--4--4---|---------4-------4---4--4--4--4--4---|-----4--4--4--4--6--6--6--6--6-----------|
E|---------------------------|-------------------------------------|-----------------------------------------|


E|-------------------------------------|----------------|--------|--------|--------|
B|-------------------------------------|----------------|--------|--------|--------|
G|-8-------8-------8---8--8------8--8--|----------------|--------|--------|--------|
D|-8-------8-------8---8--8------8--8--|----------------|--------|--------|--------|
A|-6-------6-------6---6--6------6--6--|----------------|--------|--------|--------|
E|-------------------------------------|----------------|--------|--------|--------|


E|--------|--------|--------|--------|--------|--------|--------|--------|--------|
B|--------|--------|--------|--------|--------|--------|--------|--------|--------|
G|--------|--------|--------|--------|--------|--------|--------|--------|--------|
D|--------|--------|--------|--------|--------|--------|--------|--------|--------|
A|--------|--------|--------|--------|--------|--------|--------|--------|--------|
E|--------|--------|--------|--------|--------|--------|--------|--------|--------|


E|--------|--------|--------|--------|--------|--------|--------|--------|--------|
B|--------|--------|--------|--------|--------|--------|--------|--------|--------|
G|--------|--------|--------|--------|--------|--------|--------|--------|--------|
D|--------|--------|--------|--------|--------|--------|--------|--------|--------|
A|--------|--------|--------|--------|--------|--------|--------|--------|--------|
E|--------|--------|--------|--------|--------|--------|--------|--------|--------|


E|--------|--------|--------|--------|--------|--------|
B|--------|--------|--------|--------|--------|--------|
G|--------|--------|--------|--------|--------|--------|
D|--------|--------|--------|--------|--------|--------|
A|--------|--------|--------|--------|--------|--------|
E|--------|--------|--------|--------|--------|--------|





Track 6: John M

G|-----------------|-------------|--------|-------------|--------|-------------|-----------------|
D|-------4---4-----|-4-----6-----|-2------|-2-----------|--------|-------------|-----------------|
A|-4---------------|-------------|--------|-------2-----|-5------|-5-----4-----|-2-----1---1-----|
E|-----------------|-------------|--------|-------------|--------|-------------|-----------------|


G|--------|-----------------|-------------|--------|-------------|--------|-------------|
D|--------|-------4---4-----|-4-----6-----|-2------|-2-----------|--------|-------------|
A|-1------|-4---------------|-------------|--------|-------2-----|-5------|-5-----4-----|
E|--------|-----------------|-------------|--------|-------------|--------|-------------|


G|---------------------|--------|-------------------------------------|---------------------------------------------|
D|---------------------|--------|-------------4-------------------4---|-------------4-------------------4--4--4--4--|
A|-2-----1---1---------|--------|-------------------------------------|---------------------------------------------|
E|----------------3----|-2------|-2--2--2--2--------------2-----------|-2--2--2--2----------2--2--2--2--------------|


G|-------------------------------------|---------------------------------------------|
D|-------------4-------------------4---|-------------4-------------------4--4--4--4--|
A|-------------------------------------|---------------------------------------------|
E|-2--2--2--2--------------2-----------|-2--2--2--2----------2--2--2--2--------------|


G|-------------------------------------|---------------------------------------------|
D|-------------4-------------------4---|-------------4-------------------4--4--4--4--|
A|-------------------------------------|---------------------------------------------|
E|-2--2--2--2--------------2-----------|-2--2--2--2----------2--2--2--2--------------|


G|-------------------------------------|---------------------------------------------|
D|-------------4-------------------4---|-------------4--4--4--4--------------4---4---|
A|-------------------------------------|---------------------------------------------|
E|-2--2--2--2--------------2-----------|-2--2--2--2--------------2--2--2--2----------|


G|-------------------------------------|---------------------------------------------|
D|-------------4-------------------4---|-------------4-------------------4--4--4--4--|
A|-------------------------------------|---------------------------------------------|
E|-2--2--2--2--------------2-----------|-2--2--2--2----------2--2--2--2--------------|


G|-------------------------------------|---------------------------------------------|
D|-------------4-------------------4---|-------------4-------------------4--4--4--4--|
A|-------------------------------------|---------------------------------------------|
E|-2--2--2--2--------------2-----------|-2--2--2--2----------2--2--2--2--------------|


G|-------------------------------------|---------------------------------------------|
D|-------------4-------------------4---|-------------4-------------------4--4--4--4--|
A|-------------------------------------|---------------------------------------------|
E|-2--2--2--2--------------2-----------|-2--2--2--2----------2--2--2--2--------------|


G|-------------------------------------|-------------------------------------------------|
D|-------------4-------------------4---|-------------4--4--4--4--------------4--4--4--4--|
A|-------------------------------------|-------------------------------------------------|
E|-2--2--2--2--------------2-----------|-2--2--2--2--------------2--2--2--2--------------|


G|-------------------------------------|---------------------------------------------|
D|-------------------------------------|---------------------------------------------|
A|-------------------------------------|---------------------------------------------|
E|-2--2--3--3--2-----------2-------3---|-2--2--3--3--2-------2--2--3--3--2--2--0--0--|


G|-------------------------------------|---------------------------------------------|
D|-------------------------------------|---------------------------------------------|
A|-------------------------------------|---------------------------------------------|
E|-2--2--3--3--2-----------2-------3---|-2--2--3--3--2-------5--3--2--0--3--2--0--0--|


G|-------------------------------------|---------------------------------------------|
D|-------------------------------------|---------------------------------------------|
A|-------------------------------------|---------------------------------------------|
E|-2--2--3--3--2-----------2-------3---|-2--2--3--3--2-------2--2--3--3--2--2--0--0--|


G|-------------------------------------------------|---------------------------------------------|
D|-------------------------------------------------|---------------------------------------------|
A|-4--2--4--2--------5--2--5--2--------4--2--4--2--|-------4--5--4--2----------------------------|
E|-------------3--2--------------3--2--------------|-3--2--------------3--2--0--0--3---0--0--3---|


G|-------------------------------------------------|-------------------------------------------------|
D|-------------------------------------------------|-------------------------------------------------|
A|-------------------------------------------------|-------------------------------------------------|
E|-2--2--2--2--2--2--2--2--2--2--2--2--2--2--2--2--|-2--2--2--2--2--2--2--2--3--3--3--3--3--3--3--3--|


G|-------------------------------------------------|-------------------------------------------------|
D|-------------------------------------------------|-------------------------------------------------|
A|-------------------------------------------------|-------------------------------------------------|
E|-2--2--2--2--2--2--2--2--2--2--2--2--2--2--2--2--|-2--2--2--2--2--2--2--2--5--5--6--6--7--7--8--8--|


G|-------------------------------------------------|-------------------------------------------------|
D|-------------------------------------------------|-------------------------------------------------|
A|-------------------------------------------------|-------------------------------------------------|
E|-2--2--2--2--2--2--2--2--2--2--2--2--2--2--2--2--|-2--2--2--2--2--2--2--2--0--0--0--0--0--0--0--0--|


G|-------------------------------------------------|-------------------------------------------|
D|-------------------------------------------------|-------------------3--4--5--5------4--4----|
A|-------------------------------------------------|-------2--3--5--6--------------------------|
E|-2--2--2--2--2--2--2--2--2--2--2--2--2--2--2--2--|-4--5--------------------------------------|


G|---------------------------|------------------------|---------------------------------|
D|---------------------------|------------------------|---------------------------------|
A|---------------------------|------------------------|---------------------------------|
E|-2----2----0---2-------2---|-----0---2----2----2----|-0---2-------2-------2-------0---|


G|------------------------|------------------------------|---------------------------------|
D|------------------------|------------------------------|---------------------------------|
A|------------------------|------------------------------|---------------------------------|
E|-2----2----2----0---2---|-----2-------0---2----0---2---|-----2-------0---2---0---2---0---|


G|---------------------------|------------------------|---------------------------------|
D|---------------------------|------------------------|---------------------------------|
A|---------------------------|------------------------|---------------------------------|
E|-2----2----0---2-------2---|-----0---2----2----2----|-0---2-------2-------2-------0---|


G|------------------------|------------------------------|---------------------------------|
D|------------------------|------------------------------|---------------------------------|
A|------------------------|------------------------------|---------------------------------|
E|-2----2----2----0---2---|-----2-------0---2----0---2---|-----2-------0---2---0---2---0---|


G|---------------------------|------------------------|---------------------------------|
D|---------------------------|------------------------|---------------------------------|
A|---------------------------|------------------------|---------------------------------|
E|-2----2----0---2-------2---|-----0---2----2----2----|-0---2-------2-------2-------0---|


G|------------------------|------------------------------|---------------------------------|
D|------------------------|------------------------------|---------------------------------|
A|------------------------|------------------------------|---------------------------------|
E|-2----2----2----0---2---|-----2-------0---2----0---2---|-----2-------0---2---0---2---0---|


G|---------------------------------|---------------------------------|---------------------------------|
D|---------------------------------|---------------------------------|---------------------------------|
A|---------------------------------|---------------------------------|---------------------------------|
E|-2---2---2---2---2---2---2---2---|-2---2---2---2---0---0---0---0---|-0---0---0---0---0---0---0---0---|


G|---------------------------------|-------------------------4-------|---------------------------------|
D|---------------------------------|---------------------4-----------|---------------------------------|
A|-5---5---5---5---5---5---5---5---|-5---5---4---4---2---------------|---------------------------------|
E|---------------------------------|-----------------------------2---|-----2-------0---2---0---2---0---|


G|---------------------------------|---------------------------------|---------------------------------|
D|---------------------------------|---------------------------------|---------------------------------|
A|---------------------------------|---------------------------------|---------------------------------|
E|-2---2---2---2---2---2---2---2---|-2---2---2---2---0---0---0---0---|-0---0---0---0---0---0---0---0---|


G|---------------------------------|-------------------------4-------|------------------------------|
D|---------------------------------|---------------------4-----------|------------------------------|
A|-5---5---5---5---5---5---5---5---|-5---5---4---4---2---------------|------------------------------|
E|---------------------------------|-----------------------------2---|-----2-------0---2---0---2----|


G|-------------------------------------------------|-------------------------------------------------|
D|-------------------------------------------------|-------------------------------------------------|
A|-4--4--4--4--4--4--4--4--4--4--4--4--4--4--4--4--|-4--4--4--4--4--4--4--4--------------------------|
E|-------------------------------------------------|-------------------------5--5--5--5--5--5--5--5--|


G|-------------------------------------------------|-----------------------------------|
D|-------------------------------------------------|-----------------------------------|
A|-------------------------------------------------|-3---4-------5----------------5----|
E|-5--5--5--5--2--2--2--2--2--2--2--2--2--2--2--2--|---------3-------0--0--0---0-------|


G|-------------------------------------------------|-------------------------------------------------|
D|-------------------------------------------------|-------------------------------------------------|
A|-4--4--4--4--4--4--4--4--4--4--4--4--4--4--4--4--|-------------------------------------------------|
E|-------------------------------------------------|-0--0--0--0--0--0--0--0--2--2--2--2--2--2--2--2--|


G|---------------------------------4-------|-------------------------------|-------------------------------------------------|
D|-----------------------------4-------4---|-------------------------------|-------------------------------------------------|
A|-2--2--2--2--2--2--2--2--2---------------|-------------------------------|-4--4--4--4--4--4--4--4--4--4--4--4--4--4--4--4--|
E|-----------------------------------------|-3---3---3----1--1--1--1--1----|-------------------------------------------------|


G|-------------------------------------------------|-------------------------------------------------|
D|-------------------------------------------------|-------------------------------------------------|
A|-4--4--4--4--4--4--4--4--------------------------|-------------------------------------------------|
E|-------------------------5--5--5--5--5--5--5--5--|-5--5--5--5--2--2--2--2--2--2--2--2--2--2--2--2--|


G|-----------------------------------|-------------------------------------------------|
D|-----------------------------------|-------------------------------------------------|
A|-3---4-------5----------------5----|-4--4--4--4--4--4--4--4--4--4--4--4--4--4--4--4--|
E|---------3-------0--0--0---0-------|-------------------------------------------------|


G|-------------------------------------------------|-----------------------------------------------|
D|-------------------------------------------------|-----------------------------------------------|
A|-------------------------------------------------|-2--2--2--2--2--2--2--2--2--2--2--2--2--2--2---|
E|-0--0--0--0--0--0--0--0--2--2--2--2--2--2--2--2--|-----------------------------------------------|


G|--------------------|-------------------------------------|---------------------------------------------|
D|--------------------|-------------------------------------|---------------------------------------------|
A|------------4-------|-------------------------------------|---------------------------------------------|
E|----------------3---|-2--2--3--3--2-----------2-------3---|-2--2--3--3--2-------2--2--3--3--2--2--0--0--|


G|-------------------------------------|------------------------------------|-------------------------------------|
D|-------------------------------------|------------------------------------|-------------------------------------|
A|-------------------------------------|---------------------6----3----2----|-------------------------------------|
E|-2--2--3--3--2-----------2-------3---|-2---0--0-----0--0------------------|-2--2--3--3--2-----------2-------3---|


G|---------------------------------------|-------------------------------------|------------------------------|
D|---------------------------------------|-------------------------------------|-------------------------2----|
A|---------------------------------------|-------------------------------------|---------3---4---3------------|
E|-----3---2--2--3--3--2--2--0-------0---|-----0---2--2--3--3--2-----------2---|-5---2---------------6--------|


G|--------------------------------|-------------------------------|-------------------------------------------|
D|-----2---1----------------------|-------------------------------|-----------------4---------------------4---|
A|-4------------2--0--------------|-------------------------------|-------------------------------------------|
E|----------------------------1---|------0--0-----0--0---2--------|-----2--2--2--2------2--2--2--2--2--2------|


G|---------------------------------------------|---------------------------------------------|
D|-------------------4---------------------4---|-------------------4---------------------4---|
A|---------------------------------------------|---------------------------------------------|
E|-2--2--2--2--2--2------2--2--2--2--2--2------|-2--2--2--2--2--2------2--2--2--2--2--2------|


G|-----------------------------------------|-------------------------------------------|
D|-------------------4---------2-----------|-----------------4---------------------4---|
A|---------------------------------4---0---|-2-----------------------------------------|
E|-2--2--2--2--2--2------2--2--------------|-----2--2--2--2------2--2--2--2--2--2------|


G|---------------------------------------------|---------------------------------------------|
D|-------------------4---------------------4---|-------------------4---------------------4---|
A|---------------------------------------------|---------------------------------------------|
E|-2--2--2--2--2--2------2--2--2--2--2--2------|-2--2--2--2--2--2------2--2--2--2--2--2------|


G|-------------------------------------------|-------------------------------------------|
D|-------------------4---------2--2----------|-2---------------4---------------------4---|
A|-----------------------------------4---2---|-------------------------------------------|
E|-2--2--2--2--2--2------2--2----------------|-----2--2--2--2------2--2--2--2--2--2------|


G|---------------------------------------------|-------------------------------------------|
D|-------------------4-------------------------|-----------------4---------------------4---|
A|---------------------------------------------|-------------------------------------------|
E|-2--2--2--2--2--2------2--2--2--2--2--2--2---|-0---2--2--2--2------2--2--2--2--2--2------|


G|-----------------------------------------|---------------------------------------------|
D|-------------------4---------2-------4---|-------------------4---------------------4---|
A|---------------------------------4-------|---------------------------------------------|
E|-2--2--2--2--2--2------2--2--------------|-2--2--2--2--2--2------2--2--2--2--2--2------|


G|---------------------------------------------|---------------------------------------------|
D|-------------------4---------------------4---|-------------------4---------------------4---|
A|---------------------------------------------|---------------------------------------------|
E|-2--2--2--2--2--2------2--2--2--2--2--2------|-2--2--2--2--2--2------2--2--2--2--2--2------|


G|-----------------------------------------|-----------------------------------------|
D|-------------------4---------2-----------|-----------------------------------------|
A|---------------------------------4---0---|-2---------------------------------------|
E|-2--2--2--2--2--2------2--2--------------|-----5---5--5--5---5--5--5--5--5--5--5---|


G|-------------------------------------------|-------------------------------------------|
D|-------------------------------------------|-------------------------------------------|
A|-------------------------------------------|-------2---2--2--2---2--2--2--2--2--2--2---|
E|-5--5--5---5--5--5---5--5--5--5--5--5--5---|-5--5--------------------------------------|


G|-----------------------------------------------|---------------------------------------------|
D|-----------------------------------------------|-------------------4---------------------4---|
A|-2--2--2--2--2--2--2--2--2--2--2--2--2--2--2---|-2--2----------------------------------------|
E|-----------------------------------------------|-------2--2--2--2------2--2--2--2--2--2------|


G|---------------------------------------------|-------------------------------------------|
D|-------------------4-------------------------|-----------------4---------------------4---|
A|---------------------------------------------|-------------------------------------------|
E|-2--2--2--2--2--2------2--2--2--2--2--2--2---|-0---2--2--2--2------2--2--2--2--2--2------|


G|-----------------------------------------------|-------------------------------------------------|
D|-------4---------------------------------------|-------------------------------------------------|
A|-----------------------------------------------|-------4--4--4--4--4--4--4--4--4--4--4--4--4--4--|
E|-2--2------2--2--2--2--2--2--2--2--2--2--2--2--|-2--2--------------------------------------------|


G|-------------------------------------------------|-------------------------------------------------|
D|-------------------------------------------------|-------------------------------------------------|
A|-4--4--4--4--4--4--4--4--4--4--------------------|-------------------------------------------------|
E|-------------------------------5--5--5--5--5--5--|-5--5--5--5--5--5--2--2--2--2--2--2--2--2--2--2--|


G|---------------------------------------|-----------------------------------------------|
D|---------------------------------------|-----------------------------------------------|
A|-------3---4-------5----------------5--|-----4--4--4--4--4--4--4--4--4--4--4--4--4--4--|
E|-2--2----------3-------0--0--0---0-----|-----------------------------------------------|


G|-------------------------------------------------|---------------------------------------4---|
D|-------------------------------------------------|-----------------------------------4-------|
A|-4--4--------------------------------------------|-------2--2--2--2--2--2--2--2--2-----------|
E|-------0--0--0--0--0--0--0--0--2--2--2--2--2--2--|-2--2--------------------------------------|


G|----------------------------------|-----------------------------------------------|
D|-4--------------------------------|-----------------------------------------------|
A|----------------------------------|-----4--4--4--4--4--4--4--4--4--4--4--4--4--4--|
E|-----3---3---3----1--1--1--1--1---|-----------------------------------------------|


G|-------------------------------------------------|-------------------------------------------------|
D|-------------------------------------------------|-------------------------------------------------|
A|-4--4--4--4--4--4--4--4--4--4--------------------|-------------------------------------------------|
E|-------------------------------5--5--5--5--5--5--|-5--5--5--5--5--5--2--2--2--2--2--2--2--2--2--2--|


G|---------------------------------------|-----------------------------------------------|
D|---------------------------------------|-----------------------------------------------|
A|-------3---4-------5----------------5--|-----4--4--4--4--4--4--4--4--4--4--4--4--4--4--|
E|-2--2----------3-------0--0--0---0-----|-----------------------------------------------|


G|-------------------------------------------------|-------------------------------------------------|
D|-------------------------------------------------|-------------------------------------------------|
A|-4--4--------------------------------------------|-------2--2--2--2--2--2--2--2--2--2--2--2--2--2--|
E|-------0--0--0--0--0--0--0--0--2--2--2--2--2--2--|-2--2--------------------------------------------|


G|--------------------|--------------------|---------------------------|---------------------------|
D|--------------------|--------------------|-----------------------4---|---------4-----------------|
A|-2--------------4---|----------------4---|-------------------4-------|------------------4--------|
E|--------------------|-3------------------|-3---2----2----------------|---------------------------|


G|--------------------------------|---------------------------|------------------------|
D|-----4----4----2--4--2----------|------------------4--------|-4------------------4---|
A|------------------------4-------|--------------4------------|----------4-------------|
E|----------------------------2---|-----2---------------------|------------------------|


G|--------------------------------|------------------------------|------------------------|
D|-----4----2--4--2---------------|-------------4--------4-------|---------------4----4---|
A|-------------------4------------|---------4--------------------|-----4------------------|
E|-----------------------2----2---|------------------------------|------------------------|


G|--------------------------------|---------------------------|-----------------------------|
D|-----2--4--2--------------------|-----4--------4------------|----------4----4----2--4--2--|
A|--------------4-----------------|-4---------------------4---|-----------------------------|
E|------------------2----2--------|---------------------------|-----------------------------|


G|---------------------------------|---------------------------------|---------------------------------|
D|---------1-------1---2-----------|-----1-----------2-----------1---|---------------------------------|
A|-4---4-------4-----------4-------|-4-----------4-----------4-------|-4-------2-------------------4---|
E|-----------------------------2---|---------2-----------2-----------|-----2-------2---5---0---0-------|


G|---------------------------------|---------------------------------|---------------------------------|
D|-1-------1---2---------------1---|---------2-----------1-----------|---------------------------------|
A|-----4-----------4-------4-------|-----4-----------4-------4-------|-2-------------------------------|
E|---------------------2-----------|-2-----------2---------------2---|-----2---5---0---0---2---4---2---|


G|---------------------------------|---------------------------------|------------------------------|
D|---------------------------------|---------------------------------|------------------------------|
A|---------------------2-------3---|-4-----------2-------------------|------------------------------|
E|-4---2---2---2---5-------5-------|-----2---2-------5-------2-------|-2---2----2---4---2---4---2---|


G|---------------------------------|---------------------------------|---------------------------------|
D|---------------------------------|---------------------------------|---------------------------------|
A|-------------2-------3---4-------|-----2---------------------------|---------2-----------------------|
E|-2---2---5-------5-----------2---|-2-------5-------2-------2-------|-2---5-------5---4---2---0---2---|


G|-------------------------------------------|---------------------------------------------|
D|-----------------4---------------------4---|-------------------4---------------------4---|
A|-------------------------------------------|---------------------------------------------|
E|-0---2--2--2--2------2--2--2--2--2--2------|-2--2--2--2--2--2------2--2--2--2--2--2------|


G|---------------------------------------------|-----------------------------------------------|
D|-------------------4---------------------4---|-------------------4---------------------------|
A|---------------------------------------------|-----------------------------------------2--2--|
E|-2--2--2--2--2--2------2--2--2--2--2--2------|-2--2--2--2--2--2------2--2--5--5--5--5--------|


G|-----------------------------------|------------------------------|---------------------------------|
D|-------------------4---4--2----2---|-----4---2--------2-------2---|-----------------4---4--2----2---|
A|-2--2-------2--2-------------------|-2-----------2--------2-------|----------2--2-------------------|
E|-------0---------------------------|------------------------------|-----0---------------------------|


G|---------------------------------|-----------------6---------------|-----6------------------|
D|-----4---2-------------------2---|----------6--6---------------6---|------------------------|
A|-2-----------2-----------2-------|-2---4-------------------4-------|-4----------------------|
E|-----------------0---0-----------|---------------------------------|------------------------|


G|-----------------6---------------|-----6------------------|---------------------------------|
D|----------6--6---------------6---|------------------------|-----------------9-----------9---|
A|-----4-------------------4-------|-4----------------------|---------------------------------|
E|---------------------------------|------------------------|-----7---7---7-----------7-------|


G|----------------------------------|---------------------------------|-----------------------------------------------|
D|-9-------------------7----7----7--|-----------------9-----------9---|-9---------------------------------------------|
A|----------------------------------|---------------------------------|-----------------------------------------------|
E|---------7---7---7----------------|-----7---7---7-----------7-------|-----19-18-17-16-15-14-13-12-11-10-9--8--7--6--|


G|---------------------------------------------|---------------------------------------------|
D|-------------------4---------------------4---|-------------------4---------------------4---|
A|---------------------------------------------|---------------------------------------------|
E|-5--4--2--2--2--2------2--2--2--2--2--2------|-2--2--2--2--2--2------2--2--2--2--2--2------|


G|---------------------------------------------|-----------------------------------------------|
D|-------------------4---------------------4---|-------------------4---------------------------|
A|---------------------------------------------|-----------------------------------------2--2--|
E|-2--2--2--2--2--2------2--2--2--2--2--2------|-2--2--2--2--2--2------2--2--5--5--5--5--------|


G|-----------------------------------|---------------------------------|---------------------------------|
D|-------------------4---4--2----2---|-----4---2-------------------2---|-----------------4---4--2----2---|
A|-2--2-------2--2-------------------|-2-----------2-----------2-------|-2--------2--2-------------------|
E|-------0---------------------------|-----------------0---0-----------|-----0---------------------------|


G|---------------------------------|-----------------6---------------|-----6------------------|
D|-----4---2-------------------2---|---------6-------------------6---|------------------------|
A|-2-----------2-----------2-------|-2---4-------4-----------4-------|-4----------------------|
E|-----------------0---0-----------|---------------------------------|------------------------|


G|-----------------6---------------|-----6-----------------4-----------|---------------------------------|
D|---------6-------------------6---|---------------------------8---6---|-----------------9-----------9---|
A|-----4-------4-----------4-------|-4---------------4--4--------------|-7-------------------------------|
E|---------------------------------|-----------------------------------|-----7---7---7-----------7-------|


G|----------------------------------|---------------------------------|---------------------4-----------|
D|-9-------------------7----7----7--|-----------------9-----------9---|-9---9---8---7---6---------------|
A|----------------------------------|---------------------------------|-------------------------6---4---|
E|---------7---7---7----------------|-----7---7---7-----------7-------|---------------------------------|


G|---------------6-------------------|---------------------------------|-------6---------------------------|
D|-----------------------------------|---------------------------------|-----------------------------------|
A|-2---4---4--4------4---4---4---4---|-4---4---4---4---4---4---4---4---|-4--4------4---4---4---4---4---4---|
E|-----------------------------------|---------------------------------|-----------------------------------|


G|---------------------------------|---------------------------------|---------------------------------|
D|---------------------------------|---------------------------------|---------------------------------|
A|-4---4---4---4---4---4---4---4---|-4---4---4---4---4---4---4---4---|-4---4---4---4---4---4---4---4---|
E|---------------------------------|---------------------------------|---------------------------------|


G|---------------------------------|---------------------------------|---------------------------------|
D|---------------------------------|---------------------------------|---------------------------------|
A|-4---4---4---4---4---4---4---4---|-4---4---4---4---4---4---4---4---|-4---4---4---4---4---4---4---4---|
E|---------------------------------|---------------------------------|---------------------------------|


G|---------------------------------|------------------------------------|---------------------------------|
D|---------------------------------|------------------------------------|---------------------------------|
A|-4---4---4---4---4---4---4---4---|-4----4--4--4--4--4--4--4---4---4---|-4---4---4---4---4---4---4---4---|
E|---------------------------------|------------------------------------|---------------------------------|


G|---------------------------------|---------------------------------|---------------------------------|
D|---------------------------------|---------------------------------|-----6---6---6---6---6---6---6---|
A|-4---4---4---4---4---4---4---4---|-4---4---4---4---4---4---4---4---|-4-------------------------------|
E|---------------------------------|---------------------------------|---------------------------------|


G|---------------------------------|---------------------------------|-----------------------------6---|
D|-6---6---6---6---6---6---6---6---|-6---6---6---6---6---6---6---6---|-6---6---6---6---6---------------|
A|---------------------------------|---------------------------------|---------------------4---4-------|
E|---------------------------------|---------------------------------|---------------------------------|


G|-------6-----------------6-------------|-----------------------------8---|---------------------------------|
D|---------------------------------------|---------------------------------|---------------------------------|
A|-4--4------4--4--4---4-------4--4--4---|-4---4---4---4---4---6---6-------|-6---6---6---6---6---6---6---6---|
E|---------------------------------------|---------------------------------|---------------------------------|


G|---------------------------------11--|-----------------------------------|---------------------------------|
D|-------------------------------------|-----------------------------------|---------------------------------|
A|-6---6---6---6---6---9--9--9--9------|-9---9---9---9---9---9--9--9---9---|-9---9---9---9---9---7---7---7---|
E|-------------------------------------|-----------------------------------|---------------------------------|


G|---------------------------------|----------------------------------|-------------------------------------|
D|---------------------6---6---6---|-6---8---8---9--------------------|-------------------------------------|
A|-7---9---9---9---9---------------|------------------4--4--4--4--4---|---------4-------4---4--4--4--4--4---|
E|---------------------------------|----------------------------------|-------------------------------------|


G|-----------------------------------------|-------------------------------------|
D|-----------------------------------------|-------------------------------------|
A|-----4--4--4--4--6--6--6--6--6-----------|-6-------6-------6---6--6------6--6--|
E|-----------------------------------------|-------------------------------------|


G|-----------------------------------------|----------------------------------|-------------------------------------|
D|-----------------------------------------|----------------------------------|-------------------------------------|
A|-----9--9--9--9--9-----------9--9--9--9--|-9------------9--9--9--9------9---|-----7--7--7--7--7-------7---7-------|
E|-----------------------------------------|----------------------------------|-------------------------------------|


G|------------------------------------|-------------------------------------------------|
D|------------------------------------|-------------------------------------------------|
A|-7-------7---7----4--4--4--4--4--4--|-4--4--4--4--4--4--4--4--4--4--4--4--4--4--4--4--|
E|------------------------------------|-------------------------------------------------|


G|-------------------------------------------------|-------------------------------------------------|
D|-------------------------------------------------|-------------------------------------------------|
A|-4--4--------------------------------------------|-------------------------------------------2--2--|
E|-------5--5--5--5--5--5--5--5--5--5--5--5--2--2--|-2--2--2--2--2--2--2--2--2--2--2--2--2--2--------|


G|-------------------------------------------------|-------------------------------------------------|
D|-------------------------------------------------|-------------------------------------------------|
A|-2--2--2--2--2--2--2--2--2--2--4--4--4--4--4--4--|-4--4--4--4--4--4--4--4--4--4--------------------|
E|-------------------------------------------------|-------------------------------0--0--0--0--0--0--|


G|-------------------------------9----8---|---------------------|-----------------------------|
D|----------------------------------------|-----9---------------|-----------------------------|
A|----------------------------------------|----------9----------|-----------4--4--4--4--4--4--|
E|-0--0--2--2--2--2--2--2--2--2-----------|---------------3-----|-----1-----------------------|


G|-------------------------------------------------|-------------------------------------------------|
D|-------------------------------------------------|-------------------------------------------------|
A|-4--4--4--4--4--4--4--4--4--4--4--4--4--4--4--4--|-4--4--------------------------------------------|
E|-------------------------------------------------|-------5--5--5--5--5--5--5--5--5--5--5--5--2--2--|


G|-------------------------------------------------|-------------------------------------------------|
D|-------------------------------------------------|-------------------------------------------------|
A|-------------------------------------------2--2--|-2--2--2--2--2--2--2--2--2--2--4--4--4--4--4--4--|
E|-2--2--2--2--2--2--2--2--2--2--2--2--2--2--------|-------------------------------------------------|


G|-------------------------------------------------|-------------------------------9----8---|
D|-------------------------------------------------|----------------------------------------|
A|-4--4--4--4--4--4--4--4--4--4--------------------|----------------------------------------|
E|-------------------------------0--0--0--0--0--0--|-0--0--2--2--2--2--2--2--2--2-----------|


G|---------------------|----------------------------------|-------------------------------------|
D|-----9---------------|------------------------------4---|-----------------4---------------4---|
A|----------9----------|----------4-----------------------|-------------------------------------|
E|---------------------|--------------3---2--2--2--2------|---------2-----------2--2--2--2------|


G|---------------------------------------------|-------------------------------------|
D|-----------------4--4--4--4--------------4---|-----------------4---------------4---|
A|---------------------------------------------|-------------------------------------|
E|-----2--2--2--2--------------2--2--2--2------|---------2-----------2--2--2--2------|


G|---------------------------------------------|-------------------------------------|
D|-----------------4--4--4--4--------------4---|-----------------4---------------4---|
A|---------------------------------------------|-------------------------------------|
E|-----2--2--2--2--------------2--2--2--2------|---------2-----------2--2--2--2------|


G|-----------------------------------------------|---------------------------|-----------------------------|
D|-----------------4--4--4--4--------------------|---------------------------|-----------------------------|
A|-----------------------------------------------|--------------3---3--------|-1---1-----------------------|
E|-----2--2--2--2--------------2--2--3--3--2--2--|---------2------------0----|---------0---2--2------------|