Menu:

 

Search:

 

dream theater - through her eyes:

 



Title: Through Her Eyes
Artist: 
Album: Metropolis pt.2: Scenes From A Memory
Author: Dream Theater


Track 1: Distortion Guitar

E|--------|--------|--------|--------------------|-----------------|--------|--------|
B|--------|--------|--------|--------------------|-------10--10----|--------|--------|
G|--------|--------|--------|----------------9---|-9-----9---9-----|--------|--------|
D|--------|--------|--------|--------------------|-----------------|--------|--------|
A|--------|--------|--------|--------------------|-----------------|--------|--------|
E|--------|--------|--------|--------------------|-----------------|--------|--------|


E|----------------------|--------|---------------------------|-----------------|------------9--9--7-----|
B|----------------------|--------|-15----15--15--14--14--12--|-12--------------|---------------------10-|
G|------------9--9--7---|-9------|---------------------------|-----------------|------------------------|
D|----------------------|--------|---------------------------|-----------------|------------------------|
A|----------------------|--------|---------------------------|-----------------|------------------------|
E|----------------------|--------|---------------------------|-----------------|------------------------|


E|-------------------------|--------|--------|--------|------17---17--15--14--------------14------|
B|-12--10------------------|--------|--------|--------|-----------------------15--17--17------15--|
G|---------11-9--7---------|--------|--------|--------|-------------------------------------------|
D|-------------------------|--------|--------|--------|-------------------------------------------|
A|-------------------------|--------|--------|--------|-------------------------------------------|
E|-------------------------|--------|--------|--------|-------------------------------------------|


E|-----------------|--------|--------|--------|--------|--------|--------|--------|
B|-17--------------|--------|--------|--------|--------|--------|--------|--------|
G|-----------------|--------|--------|--------|--------|--------|--------|--------|
D|-----------------|--------|--------|--------|--------|--------|--------|--------|
A|-----------------|--------|--------|--------|--------|--------|--------|--------|
E|-----------------|--------|--------|--------|--------|--------|--------|--------|


E|--------|--------|--------|--------|--------|--------|--------|--------|--------|
B|--------|--------|--------|--------|--------|--------|--------|--------|--------|
G|--------|--------|--------|--------|--------|--------|--------|--------|--------|
D|--------|--------|--------|--------|--------|--------|--------|--------|--------|
A|--------|--------|--------|--------|--------|--------|--------|--------|--------|
E|--------|--------|--------|--------|--------|--------|--------|--------|--------|


E|--------|--------|--------|--------|-------------------------|-------------------7---|
B|--------|--------|--------|--------|------10-10--------10-10-|-8-----8----10-10------|
G|--------|--------|--------|--------|-7-----------------------|-----------------------|
D|--------|--------|--------|--------|-------------------------|-----------------------|
A|--------|--------|--------|--------|-------------------------|-----------------------|
E|--------|--------|--------|--------|-------------------------|-----------------------|


E|-------------------------|--------------------------------|--------|--------|--------|
B|-5----------7--7--7------|--------------------------------|--------|--------|--------|
G|----------------------4--|-4--5----5----5----4--4--5---4--|--------|--------|--------|
D|-------------------------|--------------------------------|--------|--------|--------|
A|-------------------------|--------------------------------|--------|--------|--------|
E|-------------------------|--------------------------------|--------|--------|--------|


E|--------|--------|--------|--------|--------|--------|--------|--------|--------|
B|--------|--------|--------|--------|--------|--------|--------|--------|--------|
G|--------|--------|--------|--------|--------|--------|--------|--------|--------|
D|--------|--------|--------|--------|--------|--------|--------|--------|--------|
A|--------|--------|--------|--------|--------|--------|--------|--------|--------|
E|--------|--------|--------|--------|--------|--------|--------|--------|--------|


E|--------|--------|--------|--------|--------|--------|--------|--------|--------|
B|--------|--------|--------|--------|--------|--------|--------|--------|--------|
G|--------|--------|--------|--------|--------|--------|--------|--------|--------|
D|--------|--------|--------|--------|--------|--------|--------|--------|--------|
A|--------|--------|--------|--------|--------|--------|--------|--------|--------|
E|--------|--------|--------|--------|--------|--------|--------|--------|--------|


E|--------|--------|--------|--------|--------|--------|--------|--------|-------------------------|
B|--------|--------|--------|--------|--------|--------|--------|--------|------10-10--------10-10-|
G|--------|--------|--------|--------|--------|--------|--------|--------|-7-----------------------|
D|--------|--------|--------|--------|--------|--------|--------|--------|-------------------------|
A|--------|--------|--------|--------|--------|--------|--------|--------|-------------------------|
E|--------|--------|--------|--------|--------|--------|--------|--------|-------------------------|


E|-----------------------|-------------------------|--------------------------------|
B|-8-----8----10-10--12--|-5----------7--7--7------|--------------------------------|
G|-----------------------|----------------------4--|-4--5----5----5----4--4--5---7--|
D|-----------------------|-------------------------|--------------------------------|
A|-----------------------|-------------------------|--------------------------------|
E|-----------------------|-------------------------|--------------------------------|


E|----------------------------------|--------------10--8--7--7---------|--------------------------------|
B|------10-10---10---10-10-10-8--10-|-10---10--------------------10-10-|-10-8----8----8----10-10--12-7--|
G|-7--------------------------------|-----------7----------------------|--------------------------------|
D|----------------------------------|----------------------------------|--------------------------------|
A|----------------------------------|----------------------------------|--------------------------------|
E|----------------------------------|----------------------------------|--------------------------------|


E|--------------------------------|-------------------------|-----------------------|
B|-7--8---------------------------|------10-10--------10-10-|-8-----8----10-10--12--|
G|--------9--9----4----2--2-------|-7-----------------------|-----------------------|
D|----------------------------5---|-------------------------|-----------------------|
A|--------------------------------|-------------------------|-----------------------|
E|--------------------------------|-------------------------|-----------------------|


E|-------------------------|--------------------------------|----------------------------------|
B|-5----------7--7--7------|--------------------------------|------10-10---10---10-10-10-8--10-|
G|----------------------4--|-4--5----5----5----4--4--5---7--|-7--------------------------------|
D|-------------------------|--------------------------------|----------------------------------|
A|-------------------------|--------------------------------|----------------------------------|
E|-------------------------|--------------------------------|----------------------------------|


E|--------------10--8--7--7---------|--------------------------------|--------------------------------|
B|-10---10--------------------10-10-|-10-8----8----8----10-10--12-7--|-7--8---------------------------|
G|-----------7----------------------|--------------------------------|--------9--9----4----2--2-------|
D|----------------------------------|--------------------------------|----------------------------5---|
A|----------------------------------|--------------------------------|--------------------------------|
E|----------------------------------|--------------------------------|--------------------------------|





Track 2: Piano

E|--------|--------|--------|--------|--------|--------|--------|--------|--------|
B|--------|--------|--------|--------|--------|--------|--------|--------|--------|
G|--------|--------|--------|--------|--------|--------|--------|--------|--------|
D|--------|--------|--------|--------|--------|--------|--------|--------|--------|
A|--------|--------|--------|--------|--------|--------|--------|--------|--------|
E|--------|--------|--------|--------|--------|--------|--------|--------|--------|


E|--------|--------|--------|--------|--------|--------|--------|--------|--------|
B|--------|--------|--------|--------|--------|--------|--------|--------|--------|
G|--------|--------|--------|--------|--------|--------|--------|--------|--------|
D|--------|--------|--------|--------|--------|--------|--------|--------|--------|
A|--------|--------|--------|--------|--------|--------|--------|--------|--------|
E|--------|--------|--------|--------|--------|--------|--------|--------|--------|


E|--------|--------|--------3--3--2-------------3--3--2------|--------3--3--2-------------3--3--2------|
B|--------|--------|------------------3--3----------------3--|-3----------------3--3----------------3--|
G|--------|--------|-----0------------------0----------------|-----0------------------0----------------|
D|--------|--------|-0---------------------------------------|-----------------------------------------|
A|--------|--------|-----------------------------------------|-2---------------------------------------|
E|--------|--------|-3---------------------------------------|-----------------------------------------|


E|--------3--3--2-------------3--3--2------|--------3--3--2--------------------------|
B|-3----------------3--3----------------3--|------------------3--3--1---0--0--1---0--|
G|-----0------------------0----------------|-0---0------------------0---0--0--0---0--|
D|-----------------------------------------|-----------------------------------------|
A|-2---------------------------------------|-3---------------------------------------|
E|-0---------------------------------------|-----------------------------------------|


E|--------3--3--2-------------3--3--5---5--|-5---5--5--5--5---5---------10-10-12--7--|
B|-0----------------3--3-------------------|--------5--5--7---7---------7--7--8---8--|
G|-----0------------------0----------------|-7---7------------------7----------------|
D|-0---------------------------------------|-7----------------7--7-------------------|
A|-----------------------------------------|-5----------------5--5-------------------|
E|-3---------------------------------------|-----------------------------------------|


E|-7------3--3--2---0--0------------0----|-3------------------------------|--------|
B|-8-----------------------0--3--3-------|--------1--1----0---------------|--------|
G|-----0---------------------------------|-0---0---------------2--2---0---|--------|
D|---------------------------------------|--------------------------------|--------|
A|-2-------------------------------------|-3------------------------------|--------|
E|-0-------------------------------------|--------------------------------|--------|


E|--------|--------|--------|--------|--------|--------|--------|--------|--------|
B|--------|--------|--------|--------|--------|--------|--------|--------|--------|
G|--------|--------|--------|--------|--------|--------|--------|--------|--------|
D|--------|--------|--------|--------|--------|--------|--------|--------|--------|
A|--------|--------|--------|--------|--------|--------|--------|--------|--------|
E|--------|--------|--------|--------|--------|--------|--------|--------|--------|


E|--------|--------|--------|--------|--------|--------|--------|--------|--------|
B|--------|--------|--------|--------|--------|--------|--------|--------|--------|
G|--------|--------|--------|--------|--------|--------|--------|--------|--------|
D|--------|--------|--------|--------|--------|--------|--------|--------|--------|
A|--------|--------|--------|--------|--------|--------|--------|--------|--------|
E|--------|--------|--------|--------|--------|--------|--------|--------|--------|


E|--------|--------|--------|--------|--------|--------|--------|--------|--------|
B|--------|--------|--------|--------|--------|--------|--------|--------|--------|
G|--------|--------|--------|--------|--------|--------|--------|--------|--------|
D|--------|--------|--------|--------|--------|--------|--------|--------|--------|
A|--------|--------|--------|--------|--------|--------|--------|--------|--------|
E|--------|--------|--------|--------|--------|--------|--------|--------|--------|


E|--------|--------|--------|--------|--------|--------|--------|--------|--------|
B|--------|--------|--------|--------|--------|--------|--------|--------|--------|
G|--------|--------|--------|--------|--------|--------|--------|--------|--------|
D|--------|--------|--------|--------|--------|--------|--------|--------|--------|
A|--------|--------|--------|--------|--------|--------|--------|--------|--------|
E|--------|--------|--------|--------|--------|--------|--------|--------|--------|


E|--------|--------|--------|--------|--------|--------|--------|--------|--------|
B|--------|--------|--------|--------|--------|--------|--------|--------|--------|
G|--------|--------|--------|--------|--------|--------|--------|--------|--------|
D|--------|--------|--------|--------|--------|--------|--------|--------|--------|
A|--------|--------|--------|--------|--------|--------|--------|--------|--------|
E|--------|--------|--------|--------|--------|--------|--------|--------|--------|


E|--------|--------|--------|--------|--------|--------|--------|--------|--------|
B|--------|--------|--------|--------|--------|--------|--------|--------|--------|
G|--------|--------|--------|--------|--------|--------|--------|--------|--------|
D|--------|--------|--------|--------|--------|--------|--------|--------|--------|
A|--------|--------|--------|--------|--------|--------|--------|--------|--------|
E|--------|--------|--------|--------|--------|--------|--------|--------|--------|


E|--------|--------|--------|--------|
B|--------|--------|--------|--------|
G|--------|--------|--------|--------|
D|--------|--------|--------|--------|
A|--------|--------|--------|--------|
E|--------|--------|--------|--------|





Track 3: Untitled

G|--------|--------|--------|--------|--------|--------|--------|--------|--------|
D|--------|--------|--------|--------|--------|--------|--------|--------|--------|
A|--------|--------|--------|--------|--------|--------|--------|--------|--------|
E|--------|--------|--------|--------|--------|--------|--------|--------|--------|


G|--------|--------|--------|--------|--------|--------|--------|--------|--------|
D|--------|--------|--------|--------|--------|--------|--------|--------|--------|
A|--------|--------|--------|--------|--------|--------|--------|--------|--------|
E|--------|--------|--------|--------|--------|--------|--------|--------|--------|


G|--------|--------|--------|--------|--------|--------|--------|--------|--------|
D|--------|--------|--------|--------|--------|--------|--------|--------|--------|
A|--------|--------|--------|--------|--------|--------|--------|--------|--------|
E|--------|--------|--------|--------|--------|--------|--------|--------|--------|


G|--------|--------|--------|--------|--------|--------|--------|--------|--------|
D|--------|--------|--------|--------|--------|--------|--------|--------|--------|
A|--------|--------|--------|--------|--------|--------|--------|--------|--------|
E|--------|--------|--------|--------|--------|--------|--------|--------|--------|


G|--------|--------|--------|--------|--------|--------|--------|--------|--------|
D|--------|--------|--------|--------|--------|--------|--------|--------|--------|
A|--------|--------|--------|--------|--------|--------|--------|--------|--------|
E|--------|--------|--------|--------|--------|--------|--------|--------|--------|


G|--------|--------|--------|--------|--------|--------|--------|--------|--------|
D|--------|--------|--------|--------|--------|--------|--------|--------|--------|
A|--------|--------|--------|--------|--------|--------|--------|--------|--------|
E|--------|--------|--------|--------|--------|--------|--------|--------|--------|


G|--------|--------|--------|--------|--------|--------|--------|--------|--------|
D|--------|--------|--------|--------|--------|--------|--------|--------|--------|
A|--------|--------|--------|--------|--------|--------|--------|--------|--------|
E|--------|--------|--------|--------|--------|--------|--------|--------|--------|


G|--------|--------|--------|--------|--------|--------|--------|--------|--------|
D|--------|--------|--------|--------|--------|--------|--------|--------|--------|
A|--------|--------|--------|--------|--------|--------|--------|--------|--------|
E|--------|--------|--------|--------|--------|--------|--------|--------|--------|


G|--------|--------|--------|--------|--------|--------|--------|--------|--------|
D|--------|--------|--------|--------|--------|--------|--------|--------|--------|
A|--------|--------|--------|--------|--------|--------|--------|--------|--------|
E|--------|--------|--------|--------|--------|--------|--------|--------|--------|


G|--------|--------|--------|--------|--------|--------|
D|--------|--------|--------|--------|--------|--------|
A|--------|--------|--------|--------|--------|--------|
E|--------|--------|--------|--------|--------|--------|