Menu:

 

Search:

 

dream theater - this dying soul:

 



Title: This Dying Soul
Artist: 
Album: Train of Thought
Author: John Petrucci, John Myung, Mike Portnoy, Jordan Rudess


Track 1: Rhythm

E|------------------------|-------------|-------------|-------------|-------------|
B|------------------------|-------------|-------------|-------------|-------------|
G|------------------------|-------------|-------------|-------------|-------------|
D|------------------------|-------------|-------------|-------------|-------------|
A|-------------------2----|--------2----|--------2----|--------2----|--------2----|
E|-4--------4--------2----|--------2----|--------2----|--------2----|--------2----|
B|-----3--------2----0----|--------0----|--------0----|--------0----|--------0----|


E|-------------|-------------|-------------|--------------------|------------------------------------|
B|-------------|-------------|-------------|--------------------|------------------------------------|
G|-------------|-------------|-------------|--------------------|------------------------------------|
D|-------------|-------------|-------------|--------------------|------------------------------------|
A|--------2----|--------2----|--------2----|--------------------|------------------------------------|
E|--------2----|--------2----|--------2----|--------------------|------------------------------------|
B|--------0----|--------0----|--------0----|--------0--0--0--0--|-0---0--0---0--0--------0--0--0--0--|


E|------------------------------------|------------------------------------|------------------------------------|
B|------------------------------------|------------------------------------|------------------------------------|
G|------------------------------------|------------------------------------|-------------------5----------------|
D|------------------------------------|------------------------------------|-------------------4----------------|
A|------------------------------------|------------------------------------|------------------------------------|
E|------------------------------------|------------------------------------|------------------------------------|
B|-0---0--0---0--0--------0--0--0--0--|-0---0--0---0--0--------0--0--0--0--|-0---0--0---0--0--------0--0--0--0--|


E|------------------------------------|------------------------------------|------------------------------------|
B|------------------------------------|------------------------------------|------------------------------------|
G|------------------------------------|------------------------------------|------------------------------------|
D|------------------------------------|------------------------------------|------------------------------------|
A|------------------------------------|------------------------------------|------------------------------------|
E|------------------------------------|------------------------------------|------------------------------------|
B|-0---0--0---0--0--------0--0--0--0--|-0---0--0---0--0--------0--0--0--0--|-0---0--0---0--0--------0--0--0--0--|


E|------------------------------------|------------------------------------|------------------------------------|
B|------------------------------------|------------------------------------|------------------------------------|
G|-------------------5----------------|------------------------------------|-------------------5----------------|
D|-------------------4----------------|------------------------------------|-------------------4----------------|
A|------------------------------------|------------------------------------|------------------------------------|
E|------------------------------------|------------------------------------|------------------------------------|
B|-0---0--0---0--0--------0--0--0--0--|-0---0--0---0--0--------0--0--0--0--|-0---0--0---0--0--------0--0--0--0--|


E|------------------------------------|---------------------------------------------|
B|------------------------------------|---------------------------------------------|
G|------------------------------------|---------------------------------------------|
D|------------------------------------|---------------------------------------------|
A|------------------------------------|---------------------------------------------|
E|------------------------------------|---------------------------------------------|
B|-0---0--0---0--0--------0--0--0--0--|-0---0--0--3--2--0--3--2--0--0--0--0--0--0---|


E|------------------------------------|------------------------------------|------------------------------------|
B|------------------------------------|------------------------------------|------------------------------------|
G|------------------------------------|---------------5--------------------|------------------------------------|
D|------------------------------------|---------------4--------------------|------------------------------------|
A|------------------------------------|------------------------------------|------------------------------------|
E|------------------------------------|------------------------------------|------------------------------------|
B|-0--0---0--0--------0--0--0--0--0---|-0--0---0--0--------0--0--0--0--0---|-0--0---0--0--------0--0--0--0--0---|


E|--------------------------------------|---------------------------|----------------|
B|--------------------------------------|---------------------------|----------------|
G|--------------------------------------|---------------------------|----------------|
D|--------------------------------------|---------------------------|----------------|
A|----------------------------------2---|-4----4----4---5---4-------|-4----------2---|
E|-------3----4----5----------------2---|-4----4----4---5---4-------|-4----------2---|
B|-0--0--1----2----3----2---3---3---0---|-2----2----2---3---2-------|-2----------0---|


E|---------------------------|----------------|---------------------------|----------------|
B|---------------------------|----------------|---------------------------|----------------|
G|---------------------------|----------------|---------------------------|----------------|
D|---------------------------|----------------|---------------------------|----------------|
A|-4----4----4---5---4-------|-4----------2---|-4----4----4---5---4-------|-4----------2---|
E|-4----4----4---5---4-------|-4----------2---|-4----4----4---5---4-------|-4----------2---|
B|-2----2----2---3---2-------|-2----------0---|-2----2----2---3---2-------|-2----------0---|


E|---------------------------|----------------|--------------------------------------|
B|---------------------------|------------12--|-13-12----12--12--12------12--13--12--|
G|---------------------------|----------------|-------14-------------14--------------|
D|---------------------------|----------------|--------------------------------------|
A|-4----4----4---5---4-------|-4--------------|--------------------------------------|
E|-4----4----4---5---4-------|-4--------------|--------------------------------------|
B|-2----2----2---3---2-------|-2--------------|--------------------------------------|


E|-----------------------------------|---------------------------|--------------------------------------|
B|-----12--13-12----12--19--19---19--|-17--19--20--19----19--12--|-13-12----12--12--12------12--13--12--|
G|---------------14------------------|---------------------------|-------14-------------14--------------|
D|-----------------------------------|---------------------------|--------------------------------------|
A|-----------------------------------|---------------------------|--------------------------------------|
E|-----------------------------------|---------------------------|--------------------------------------|
B|-----------------------------------|---------------------------|--------------------------------------|


E|-----------------------|----------------------------|--------------------------------------------|
B|-----19--20--22----20--|-19-20-19---------------12--|-13-12----12--12--12--0---12-0--13-0--12-0--|
G|-----------------------|----------21----21--21------|-------14-----------------------------------|
D|-----------------------|----------------------------|--------------------------------------------|
A|-----------------------|----------------------------|--------------------------------------------|
E|-----------------------|----------------------------|--------------------------------------------|
B|-----------------------|----------------------------|--------------------------------------------|


E|--------------------------------------------|--------------------------------20-19-20-19-|
B|-10-0--12-0--13-0--12--13-12----12--19--19--|-----19--20-19----19---19-20-22-------------|
G|-----------------------------14-------------|-21------------21---------------------------|
D|--------------------------------------------|--------------------------------------------|
A|--------------------------------------------|--------------------------------------------|
E|--------------------------------------------|--------------------------------------------|
B|--------------------------------------------|--------------------------------------------|


E|----19----------------19-20-22----------------------|----------------------------------------------------|
B|-22----22-20-19-20-22----------19-20-19----19-------|----------19-20-22----------------------------------|
G|----------------------------------------21----21-19-|-17-19-21----------16-17-16----16----------------16-|
D|----------------------------------------------------|----------------------------19----19-17-16-17-19----|
A|----------------------------------------------------|----------------------------------------------------|
E|----------------------------------------------------|----------------------------------------------------|
B|----------------------------------------------------|----------------------------------------------------|


E|----------------17-19-20----19-20-19-20-22-24--|-------24--24--------|------------|
B|-------17-19-20----------22----------------24--|-------24--24--------|------------|
G|-17-19-----------------------------------------|---------------------|------------|
D|-----------------------------------------------|---------------------|------------|
A|-----------------------------------------------|---------------------|------------|
E|-----------------------------------------------|---------------------|------------|
B|-----------------------------------------------|---------------------|------------|


E|-----------------|------------------|--------------------|---------------0----0---|
B|-----------------|------------------|--------------------|---------------0----0---|
G|-----------------|------------------|--------------------|---------------4----4---|
D|-----------------|------------------|----------------2---|------2--------2----2---|
A|-----------------|------------------|----------------2---|------2----2------------|
E|-----------------|------------------|----------------0---|------0----0------------|
B|-----------------|------------------|--------------------|------------------------|


E|------------------------|---------------------|---------------------|-------------------------|
B|------------------------|---------------------|---------------------|-------------------------|
G|------------------------|---------------------|---------------2-----|-2-----2-----------------|
D|-----5-----5----5---5---|-----5---------------|---------------2-----|-2-----2-----------------|
A|-----4-----4----4---4---|-----4----3-----3----|-3---3----3----0-----|-0-----0----5----4----3--|
E|------------------------|----------3-----3----|-3---3----3----------|------------3----2----1--|
B|------------------------|----------1-----1----|-1---1----1----------|-------------------------|


E|--------------------0---|-----0---------------|---------------------|------------------------|
B|--------------------0---|-----0---------------|---------------------|------------------------|
G|--------------------4---|-----4---------------|---------------------|------------------------|
D|-----2-----2--------2---|-----2---------------|---------------------|------------------------|
A|-----2-----2----2-------|----------4-----4----|-----4----4----3-----|-3----3---3----3--------|
E|-----0-----0----0-------|----------4-----4----|-----4----4----3-----|-3----3---3----3----2---|
B|------------------------|----------2-----2----|-----2----2----1-----|-1----1---1----1--------|


E|------------------------|--------------------0---|-----0---------------|---------------------|
B|------------------------|--------------------0---|-----0---------------|---------------------|
G|------------------------|--------------------4---|-----4---------------|---------------------|
D|------------------------|-----2-----2--------2---|-----2----5-----5----|-5---5----5----------|
A|------------------------|-----2-----2----2-------|----------4-----4----|-4---4----4----3-----|
E|------2----0---2----3---|-----0-----0----0-------|---------------------|---------------3-----|
B|------------------------|------------------------|---------------------|---------------1-----|


E|------------------------|------------------------|------------------------------|
B|------------------------|------------------------|------------------------------|
G|--------------------2---|------2----2---2----2---|-----2------------------------|
D|--------------------2---|------2----2---2----2---|-----2------------------------|
A|-3----3---3----3----0---|------0----0---0----0---|-----0------------------------|
E|-3----3---3----3--------|------------------------|----------5---7-------7---7---|
B|-1----1---1----1--------|------------------------|------------------0-----------|


E|------------------------------|------------------------------|------------------------------|
B|------------------------------|------------------------------|------------------------------|
G|------------------------------|------------------------------|------------------------------|
D|------------------------------|------------------------------|------------------------------|
A|------------------------------|------------------------------|-10--9------------------------|
E|-----8---7-------7---7----5---|-7-------7---7----8---7-------|----------5---7-------7---7---|
B|-------------0----------------|-----0--------------------0---|------------------0-----------|


E|------------------------------|------------------------------|------------------------------|
B|------------------------------|------------------------------|------------------------------|
G|------------------------------|------------------------------|------------------------------|
D|------------------------------|------------------------------|------------------------------|
A|------------------------------|------------------------------|------------------------------|
E|-----8---7-------7---7----5---|-7-------7---7----8---7-------|----------5---7-------7---7---|
B|-------------0----------------|-----0--------------------0---|-8---7------------0-----------|


E|------------------------------|------------------------------|------------------------------|
B|------------------------------|------------------------------|------------------------------|
G|------------------------------|------------------------------|------------------------------|
D|------------------------------|------------------------------|------------------------------|
A|------------------------------|------------------------------|-10--9------------------------|
E|-----8---7-------7---7----5---|-7-------7---7----8---7-------|----------5---7-------7---7---|
B|-------------0----------------|-----0--------------------0---|------------------0-----------|


E|------------------------------|------------------------------|--------------------|
B|------------------------------|------------------------------|--------------------|
G|------------------------------|------------------------------|--------------------|
D|------------------------------|------------------------------|--------------------|
A|------------------------------|------------------------------|--------------------|
E|-----8---7-------7---7----5---|-7-------7---7----8---7-------|--------------------|
B|-------------0----------------|-----0--------------------0---|-8---7--------------|


E|--------|--------|--------|--------|--------|--------|--------|--------|--------|
B|--------|--------|--------|--------|--------|--------|--------|--------|--------|
G|--------|--------|--------|--------|--------|--------|--------|--------|--------|
D|--------|--------|--------|--------|--------|--------|--------|--------|--------|
A|--------|--------|--------|--------|--------|--------|--------|--------|--------|
E|--------|--------|--------|--------|--------|--------|--------|--------|--------|
B|--------|--------|--------|--------|--------|--------|--------|--------|--------|


E|--------|--------|--------|--------|--------|--------|--------|--------|---------------------------|
B|--------|--------|--------|--------|--------|--------|--------|--------|---------------------------|
G|--------|--------|--------|--------|--------|--------|--------|--------|---------------------------|
D|--------|--------|--------|--------|--------|--------|--------|--------|-------4---4-------4-------|
A|--------|--------|--------|--------|--------|--------|--------|--------|-------2---2-------2-------|
E|--------|--------|--------|--------|--------|--------|--------|--------|-------2---2-------2-------|
B|--------|--------|--------|--------|--------|--------|--------|--------|-------0---0-------0-------|


E|--------|--------|---------------------------|----------------|---------------------------------|
B|--------|--------|---------------------------|----------------|---------------------------------|
G|--------|--------|---------------------------|----------------|---------------------------------|
D|--------|--------|-------4---4-------4-------|------------4---|-4-------4-----------------------|
A|--------|--------|-------2---2-------2-------|------------2---|-2-------2-----------------------|
E|--------|--------|-------2---2-------2-------|------------2---|-2-------2-----------3---2-------|
B|--------|--------|-------0---0-------0-------|------------0---|-0-------0-------0---1---0---0---|


E|------------------------------|------------------------------|------------------------------|
B|------------------------------|------------------------------|------------------------------|
G|------------------------------|------------------------------|------------------------------|
D|------------------------------|------------------------------|------------------------------|
A|-5---4------------------------|------------------------------|------------------------------|
E|-3---2----5---7-------7---7---|-----8---7-------7---7----5---|-7-------7---7----8---7-------|
B|------------------0-----------|-------------0----------------|-----0--------------------0---|


E|------------------------------|------------------------------|------------------------------|
B|------------------------------|------------------------------|------------------------------|
G|------------------------------|------------------------------|------------------------------|
D|------------------------------|------------------------------|------------------------------|
A|-10--9------------------------|------------------------------|------------------------------|
E|----------5---7-------7---7---|-----8---7-------7---7----5---|-7-------7---7----8---7-------|
B|------------------0-----------|-------------0----------------|-----0--------------------0---|


E|------------------------------|------------------------------|------------------------------|
B|------------------------------|------------------------------|------------------------------|
G|------------------------------|------------------------------|------------------------------|
D|------------------------------|------------------------------|------------------------------|
A|------------------------------|------------------------------|------------------------------|
E|----------5---7-------7---7---|-----8---7-------7---7----5---|-7-------7---7----8---7-------|
B|-8---7------------0-----------|-------------0----------------|-----0--------------------0---|


E|------------------------------|------------------------------|------------------------------|
B|------------------------------|------------------------------|------------------------------|
G|------------------------------|------------------------------|------------------------------|
D|------------------------------|------------------------------|------------------------------|
A|-10--9------------------------|------------------------------|------------------------------|
E|----------5---7-------7---7---|-----8---7-------7---7----5---|-7-------7---7----8---7-------|
B|------------------0-----------|-------------0----------------|-----0--------------------0---|


E|------------------------------|---------------------------------|---------------------------------|
B|------------------------------|---------------------------------|---------------------------------|
G|----------------------4---4---|-4---5---4-------4---4---4-------|---------4---4---4---5---4-------|
D|------------------------------|---------------------------------|---------------------------------|
A|----------0---2---2-----------|-------------2---------------0---|-2---2-----------------------2---|
E|------------------------------|---------------------------------|---------------------------------|
B|-8---7------------------------|---------------------------------|---------------------------------|


E|---------------------------|---------------------------------|------------------------------|
B|---------------------------|---------------------------------|------------------------------|
G|-------------------4---4---|-4---5---4-------4---4---4-------|---------4---4---4------------|
D|-5---4---------------------|---------------------------------|------------------------------|
A|---------------------------|---------------------------------|---------------------0----0---|
E|----------0----0-----------|-------------0---------------3---|-----3------------------------|
B|---------------------------|---------------------------------|------------------------------|


E|---------------------------------|---------------------------------|------------------------------|
B|---------------------------------|---------------------------------|------------------------------|
G|-4---4---4---------------4---4---|-4---5---4-------4---4---4-------|---------4---4---4------------|
D|---------------------------------|---------------------------------|------------------------------|
A|-------------0---2---2-----------|-------------2---------------0---|-2---2------------------------|
E|---------------------------------|---------------------------------|---------------------3----3---|
B|---------------------------------|---------------------------------|------------------------------|


E|---------------------------------|---------------------------------|------------------------------|
B|---------------------------------|---------------------------------|------------------------------|
G|-4---4---4---------------4---4---|-4---5---4-------4---4---4-------|---------4---4---4------------|
D|---------------------------------|---------------------------------|------------------------------|
A|---------------------------------|---------------------------------|------------------------------|
E|-------------0---2---2-----------|-------------2---------------0---|-----0------------------------|
B|---------------------------------|---------------------------------|---------------------3----3---|


E|--------------------------------------|-----------------------------------|------------------------------|
B|-------------12--13-12----12--12--12--|-----12--13--12---12--13-12----12--|-19--19---19--17--19--20--19--|
G|-4---4---4-------------14-------------|-14-------------------------14-----|------------------------------|
D|--------------------------------------|-----------------------------------|------------------------------|
A|--------------------------------------|-----------------------------------|------------------------------|
E|--------------------------------------|-----------------------------------|------------------------------|
B|--------------------------------------|-----------------------------------|------------------------------|


E|-----------------------------------|------------------------------|--------------------------|
B|------19--12--13-12----12--12--12--|-----12--13--12---19--20--22--|-------20--19-20-19-------|
G|--------------------14-------------|-14---------------------------|--------------------21----|
D|-----------------------------------|------------------------------|--------------------------|
A|-----------------------------------|------------------------------|--------------------------|
E|-----------------------------------|------------------------------|--------------------------|
B|-----------------------------------|------------------------------|--------------------------|


E|--------------------------------------|---------------------------------------------|
B|-------------12--13-12----12--12--12--|-0---12-0--13-0--12-0--10-0--12-0--13-0--12--|
G|-----21--21------------14-------------|---------------------------------------------|
D|--------------------------------------|---------------------------------------------|
A|--------------------------------------|---------------------------------------------|
E|--------------------------------------|---------------------------------------------|
B|--------------------------------------|---------------------------------------------|


E|-------------------------------------------|--------------20-19--20-19----19---19--|
B|-13-12----12--19--19------19--20-19----19--|-----19-20-22--------------22----------|
G|-------14-------------21------------21-----|---------------------------------------|
D|-------------------------------------------|---------------------------------------|
A|-------------------------------------------|---------------------------------------|
E|-------------------------------------------|---------------------------------------|
B|-------------------------------------------|---------------------------------------|


E|-----19--20--19---20--22--22--|----22-20--19-20-19-----19--------|-------------------------------------------------------|
B|-22---------------------------|--------------------22------22----|-----22--22--------------------------------------------|
G|------------------------------|----------------------------------|-------------------------------------------------------|
D|------------------------------|----------------------------------|-------------5--4--2-----------4--2--0-----------------|
A|------------------------------|----------------------------------|----------------------5--4--2-----------4--2--0--------|
E|------------------------------|----------------------------------|-------------------------------------------------3--2--|
B|------------------------------|----------------------------------|-------------------------------------------------------|


E|---------------------------------|------------------------------------|------------------------------------|
B|---------------------------------|------------------------------------|------------------------------------|
G|---------------------------------|------------------------------------|-----5------------------------------|
D|---------------------------------|------------------------------------|-----4------------------------------|
A|---------------------------------|------------------------------------|------------------------------------|
E|---------------------------------|------------------------------------|------------------------------------|
B|-------0--0--0--0--0---0--0---0--|-0--------0--0--0--0--0---0--0---0--|-0--------0--0--0--0--0---0--0---0--|


E|------------------------------------|-------------------------------------------|
B|------------------------------------|-------------------------------------------|
G|------------------------------------|-------------------------------------------|
D|------------------------------------|-------------------------------------------|
A|------------------------------------|-------------------------------------------|
E|------------------------------------|-------------------------------------------|
B|-0--------0--0--0--0--0---0---3--2--|-0--3--2--0--0--0--0--0--0---0--0---0--0---|


E|------------------------------------|------------------------------------|-------------------------------------|
B|------------------------------------|------------------------------------|-------------------------------------|
G|------------------------------------|-5----------------------------------|-------------------------------------|
D|------------------------------------|-4----------------------------------|-------------------------------------|
A|------------------------------------|------------------------------------|-------------------------------------|
E|------------------------------------|------------------------------------|----------------------------3----4---|
B|------0--0--0--0--0---0--0---0--0---|------0--0--0--0--0---0--0---0--0---|------0--0--0--0--0---0--0--1----2---|


E|----------------------------------------|------------------------------------|------------------------------------|
B|----------------------------------------|------------------------------------|------------------------------------|
G|----------------------------------------|------------------------------------|-5----------------------------------|
D|----------------------------------------|------------------------------------|-4----------------------------------|
A|----------------------------------------|------------------------------------|------------------------------------|
E|-----5----------------------------------|------------------------------------|------------------------------------|
B|-----3----0--0--0--0--0---0--0---0--0---|------0--0--0--0--0---0--0---0--0---|------0--0--0--0--0---0--0---0--0---|


E|--------------------------------------|-----------------------------------------|
B|--------------------------------------|-----------------------------------------|
G|--------------------------------------|-----------------------------------------|
D|--------------------------------------|-----------------------------------------|
A|--------------------------------------|-----------------------------------------|
E|--------------------------------------|-----------------------------------------|
B|------0--0--0--0--0---0---3--2--0--3--|-2--0--0--0--0--0--0---0--0---0--0-------|


E|---------------------------------------|---------------------------------------|
B|---------------------------------------|---------------------------------------|
G|-----------------------------------5---|---------------------------------------|
D|-----------------------------------4---|---------------------------------------|
A|---------------------------------------|---------------------------------------|
E|---------------------------------------|---------------------------------------|
B|-----0--0--0--0--0---0--0---0--0-------|-----0--0--0--0--0---0--0---0--0-------|


E|----------------------------------------|-------------------------------|---------------------------|
B|----------------------------------------|-------------------------------|---------------------------|
G|----------------------------------------|-------------------------------|---------------------------|
D|----------------------------------------|-------------------------------|---------------------------|
A|----------------------------------------|-----------------2---4----4----|-4---5---4-------4---------|
E|---------------------------3----4----5--|-----------------2---4----4----|-4---5---4-------4---------|
B|-----0--0--0--0--0---0--0--1----2----3--|-----2---3---3---0---2----2----|-2---3---2-------2---------|


E|---------------------|------------------------------|------------------------|---------------------------|
B|---------------------|------------------------------|------------------------|---------------------------|
G|---------------------|------------------------------|------------------------|---------------------------|
D|---------------------|------------------------------|------------------------|---------------------------|
A|-------2---4----4----|-4---5---4-------4--------4---|-3---3----2---4----4----|-4---5---4-------4---------|
E|-------2---4----4----|-4---5---4-------4--------4---|-3---3----2---4----4----|-4---5---4-------4---------|
B|-------0---2----2----|-2---3---2-------2--------2---|-1---1----0---2----2----|-2---3---2-------2---------|


E|---------------------|------------------------------|---------------------------------|
B|---------------------|--------------------------5---|-5---5---5-----------------------|
G|---------------------|------------------------------|---------------------------------|
D|---------------------|------------------------------|---------------------------------|
A|-------2---4----4----|-4---5---4-------4------------|---------------------------------|
E|-------2---4----4----|-4---5---4-------4------------|-------------5---7-------7---7---|
B|-------0---2----2----|-2---3---2-------2------------|---------------------0-----------|


E|------------------------------|------------------------------|------------------------------|
B|------------------------------|------------------------------|------------------------------|
G|------------------------------|------------------------------|------------------------------|
D|------------------------------|------------------------------|------------------------------|
A|------------------------------|------------------------------|-10--9------------------------|
E|-----8---7-------7---7----5---|-7-------7---7----8---7-------|----------5---7-------7---7---|
B|-------------0----------------|-----0--------------------0---|------------------0-----------|


E|------------------------------|------------------------------|------------------------------------|
B|------------------------------|------------------------------|------------------------------------|
G|------------------------------|------------------------------|------------------------------------|
D|------------------------------|------------------------------|------------------------------------|
A|------------------------------|------------------------------|------------------------------------|
E|-----8---7-------7---7----5---|-7-------7---7----8---7-------|------------------------------------|
B|-------------0----------------|-----0--------------------0---|-8---7----2--2--2--2--2---2--2---2--|


E|------------------------------------|------------------------------------|------------------------------------|
B|------------------------------------|------------------------------------|------------------------------------|
G|------------------------------------|-----7------------------------------|------------------------------------|
D|------------------------------------|-----6------------------------------|------------------------------------|
A|------------------------------------|------------------------------------|------------------------------------|
E|------------------------------------|------------------------------------|------------------------------------|
B|-2--------2--2--2--2--2---2--2---2--|-2--------2--2--2--2--2---2--2---2--|-2--------2--2--2--2--2---2---5--4--|


E|-------------------------------------------|------------------------------------|
B|-------------------------------------------|------------------------------------|
G|-------------------------------------------|------------------------------------|
D|-------------------------------------------|------------------------------------|
A|-------------------------------------------|------------------------------------|
E|-------------------------------------------|------------------------------------|
B|-2--5--4--2--2--2--2--2--2---2--2---2--2---|------2--2--2--2--2---2--2---2--2---|


E|------------------------------------|-------------------------------------|-----------------------------------|
B|------------------------------------|-------------------------------------|-----------------------------------|
G|-7----------------------------------|-------------------------------------|-----------------------------------|
D|-6----------------------------------|-------------------------------------|-----------------------------------|
A|------------------------------------|-------------------------------------|----------------------4---6----6---|
E|------------------------------------|----------------------------5----6---|-----7----------------4---6----6---|
B|------2--2--2--2--2---2--2---2--2---|------2--2--2--2--2---2--2--3----4---|-----5----3---2---2---2---4----4---|


E|------------------------------|--------------------|---------------------------------|
B|------------------------------|--------------------|---------------------------------|
G|------------------------------|--------------------|---------------------------------|
D|------------------------------|--------------------|---------------------------------|
A|-----6---7---6-------6--------|-------4---6----6---|-----6---7---6-------6-----------|
E|-----6---7---6-------6--------|-------4---6----6---|-----6---7---6-------6-----------|
B|-----4---5---4-------4--------|-------2---4----4---|-----4---5---4-------4-------4---|


E|------------------------------|------------------------------|--------------------|
B|------------------------------|------------------------------|--------------------|
G|------------------------------|------------------------------|--------------------|
D|------------------------------|------------------------------|--------------------|
A|-4---6-----------4---6----6---|-----6---7---6-------6--------|-------4---6----6---|
E|---------7---6---4---6----6---|-----6---7---6-------6--------|-------4---6----6---|
B|-----------------2---4----4---|-----4---5---4-------4--------|-------2---4----4---|


E|------------------------------|---------------------------------|---------------------------|
B|------------------------------|---------------------------------|---------------------------|
G|------------------------------|---------------------------------|---------------------------|
D|------------------------------|---------------------------------|---------------------------|
A|-----6---7---6-------6--------|-4-------------------------------|---------------------------|
E|-----6---7---6-------6--------|---------7---6---5---7-------7---|-7----8---7-------7---7----|
B|-----4---5---4-------4--------|-----4-------------------0-------|--------------0------------|


E|------------------------------|------------------------------|---------------------------|
B|------------------------------|------------------------------|---------------------------|
G|------------------------------|------------------------------|---------------------------|
D|------------------------------|------------------------------|---------------------------|
A|------------------------------|-----10--9--------------------|---------------------------|
E|-5---7-------7---7----8---7---|--------------5---7-------7---|-7----8---7-------7---7----|
B|---------0--------------------|-0--------------------0-------|--------------0------------|


E|------------------------------|------------------------------|---------------------------------|
B|------------------------------|------------------------------|---------------------------------|
G|------------------------------|--------------------------4---|-4---4---5---4-------4---4---4---|
D|------------------------------|------------------------------|---------------------------------|
A|------------------------------|--------------0---2---2-------|-----------------2---------------|
E|-5---7-------7---7----8---7---|------------------------------|---------------------------------|
B|---------0--------------------|-0---8---7--------------------|---------------------------------|


E|---------------------------------|---------------------------|---------------------------------|
B|---------------------------------|---------------------------|---------------------------------|
G|-------------4---4---4---5---4---|-----------------------4---|-4---4---5---4-------4---4---4---|
D|---------------------------------|-----5---4-----------------|---------------------------------|
A|-0---2---2-----------------------|-2-------------------------|---------------------------------|
E|---------------------------------|--------------0----0-------|-----------------0---------------|
B|---------------------------------|---------------------------|---------------------------------|


E|---------------------------|---------------------------------|---------------------------------|
B|---------------------------|---------------------------------|---------------------------------|
G|----------4---4---4--------|-----4---4---4---------------4---|-4---4---5---4-------4---4---4---|
D|---------------------------|---------------------------------|---------------------------------|
A|----------------------0----|-0---------------0---2---2-------|-----------------2---------------|
E|-3----3--------------------|---------------------------------|---------------------------------|
B|---------------------------|---------------------------------|---------------------------------|


E|------------------------------|---------------------------------|---------------------------------|
B|------------------------------|---------------------------------|---------------------------------|
G|-------------4---4---4--------|-----4---4---4---------------4---|-4---4---5---4-------4---4---4---|
D|------------------------------|---------------------------------|---------------------------------|
A|-0---2---2--------------------|---------------------------------|---------------------------------|
E|-------------------------3----|-3---------------0---2---2-------|-----------------2---------------|
B|------------------------------|---------------------------------|---------------------------------|


E|---------------------------|--------------------------------------|-----------------------------------|
B|---------------------------|-----------------12--13-12----12--12--|-12------12--13--12---12--13-12----|
G|----------4---4---4--------|-----4---4---4-------------14---------|-----14-------------------------14-|
D|---------------------------|--------------------------------------|-----------------------------------|
A|---------------------------|--------------------------------------|-----------------------------------|
E|-0----0--------------------|--------------------------------------|-----------------------------------|
B|----------------------3----|-3------------------------------------|-----------------------------------|


E|------------------------------|--------------------------------|------------------------------|
B|-12--19--19---19--17--19--20--|-19----19--12--13-12----12--12--|-12------12--13--12---19--20--|
G|------------------------------|---------------------14---------|-----14-----------------------|
D|------------------------------|--------------------------------|------------------------------|
A|------------------------------|--------------------------------|------------------------------|
E|------------------------------|--------------------------------|------------------------------|
B|------------------------------|--------------------------------|------------------------------|


E|-------------------------|-----------------------------------|---------------------------------------------|
B|-22----20--19-20-19------|--------------12--13-12----12--12--|-12--0---12-0--13-0--12-0--10-0--12-0--13-0--|
G|--------------------21---|------21--21------------14---------|---------------------------------------------|
D|-------------------------|-----------------------------------|---------------------------------------------|
A|-------------------------|-----------------------------------|---------------------------------------------|
E|-------------------------|-----------------------------------|---------------------------------------------|
B|-------------------------|-----------------------------------|---------------------------------------------|


E|-------------------------------------------|---------------20-19-20-19----19-------------|
B|-12--13-12----12--19--19------19--20-19----|-19---19-20-22-------------22----22-20-19-20-|
G|-----------14-------------21------------21-|---------------------------------------------|
D|-------------------------------------------|---------------------------------------------|
A|-------------------------------------------|---------------------------------------------|
E|-------------------------------------------|---------------------------------------------|
B|-------------------------------------------|---------------------------------------------|


E|----19-20-22----------------------------------------|-------------------------------------------------17-|
B|-22----------19-20-19----19----------------19-20-22-|----------------------------------------17-19-20----|
G|----------------------21----21-19-17-19-21----------|-16-17-16----16----------------16-17-19-------------|
D|----------------------------------------------------|----------19----19-17-16-17-19----------------------|
A|----------------------------------------------------|----------------------------------------------------|
E|----------------------------------------------------|----------------------------------------------------|
B|----------------------------------------------------|----------------------------------------------------|


E|-19-20----19-20-19-20-22-24----|-24--24-------------|-------------|--------|-------------|
B|-------22----------------24----|-24--24-------------|-------------|--------|-------------|
G|-------------------------------|--------------------|-------------|--------|-------------|
D|-------------------------------|--------------------|-------------|--------|-------------|
A|-------------------------------|--------------------|-------------|--------|-------------|
E|-------------------------------|--------------------|-------------|--------|-------------|
B|-------------------------------|--------------------|-------------|--------|-------------|


E|-----------------|---------0----0---------|---------------------|---------------------|
B|-----------------|---------0----0---------|---------------------|---------------------|
G|-----------------|---------4----4---------|---------------------|---------------------|
D|-------2-----2---|---------2----2---------|---------------------|---------------------|
A|-------2-----2---|-----2-------------4----|-----4-----4----4----|-3-----3----3---3----|
E|-------0-----0---|-----0-------------4----|-----4-----4----4----|-3-----3----3---3----|
B|-----------------|-------------------2----|-----2-----2----2----|-1-----1----1---1----|


E|---------------------|--------------------------|----------------0----|-0----------------|
B|---------------------|--------------------------|----------------0----|-0----------------|
G|---------------------|--------------------------|----------------4----|-4----------------|
D|---------------------|--------------------------|-2-----2--------2----|-2----------------|
A|-3----3--------------|--------------------------|-2-----2----2--------|------4-----4-----|
E|-3----3----5-----3---|------2----3----2----3----|-0-----0----0--------|------4-----4-----|
B|-1----1--------------|--------------------------|---------------------|------2-----2-----|


E|---------------------|------------------------|------------------|----------------0----|
B|---------------------|------------------------|------------------|----------------0----|
G|---------------------|------------------------|------------------|----------------4----|
D|---------------------|------------------------|------------------|-2-----2--------2----|
A|-4----4----3-----3---|-----3---3----3----3----|-------------2----|-2-----2----2--------|
E|-4----4----3-----3---|-----3---3----3----3----|-2-----3----------|-0-----0----0--------|
B|-2----2----1-----1---|-----1---1----1----1----|------------------|---------------------|


E|-0----------------|---------------------|------------------------|------------------|
B|-0----------------|---------------------|------------------------|------------------|
G|-4----------------|---------------------|------------------------|------------------|
D|-2----------------|---------------------|------------------------|------------------|
A|------4-----4-----|-4----4----3-----3---|-----3---3----3----3----|------------------|
E|------4-----4-----|-4----4----3-----3---|-----3---3----3----3----|-5-----3-----2----|
B|------2-----2-----|-2----2----1-----1---|-----1---1----1----1----|------------------|


E|----------------0----|-0----------------|---------------------|------------------------|
B|----------------0----|-0----------------|---------------------|------------------------|
G|----------------4----|-4----------------|---------------------|------------------------|
D|-2-----2--------2----|-2----------------|---------------------|------------------------|
A|-2-----2----2--------|------4-----4-----|-4----4----3-----3---|-----3---3----3----3----|
E|-0-----0----0--------|------4-----4-----|-4----4----3-----3---|-----3---3----3----3----|
B|---------------------|------2-----2-----|-2----2----1-----1---|-----1---1----1----1----|


E|------------------|----------------0----|-0----------------|---------------------|
B|------------------|----------------0----|-0----------------|---------------------|
G|------------------|----------------4----|-4----------------|---------------------|
D|------------------|-2-----2--------2----|-2----------------|---------------------|
A|-------------2----|-2-----2----2--------|------4-----4-----|-4----4----3-----3---|
E|-2-----3----------|-0-----0----0--------|------4-----4-----|-4----4----3-----3---|
B|------------------|---------------------|------2-----2-----|-2----2----1-----1---|


E|------------------------|------------------|------------------------|---------------------------|
B|------------------------|------------------|------------------------|---------------------------|
G|------------------------|------------------|------------------------|---------------------------|
D|------------------------|------------------|------------------------|---------------------------|
A|-----3---3----3----3----|------------------|------------------------|---------------------------|
E|-----3---3----3----3----|-5-----3-----2----|-2---0---0--------------|---------2---2-------------|
B|-----1---1----1----1----|------------------|--------------3----2----|-1---0---0---0---------1---|


E|---------------------------------|---------------------------|---------------------------|
B|---------------------------------|---------------------------|---------------------------|
G|---------------------------------|---------------------------|---------------------------|
D|---------------------------------|---------------------------|---------------------------|
A|---------------------------------|---------------------------|---------------------------|
E|-----2---2---------------2---2---|---------------2---2-------|---------2---2-------------|
B|-0---0---0-------1---0---0---0---|-------1---0---0---0-------|-1---0---0---0---------1---|


E|---------------------------------|---------------------------|---------------------------------------------|
B|---------------------------------|---------------------------|---------------------------------------------|
G|---------------------------------|---------------------------|---------------------------------------------|
D|---------------------------------|---------------------------|---------------------------------------------|
A|---------------------------------|---------------------------|---------------------------------------------|
E|-----2---2---------------2---2---|---------------2---2-------|-------2--2-------------2--2-----------2--2--|
B|-0---0---0-------1---0---0---0---|-------1---0---0---0-------|-1--0--0--0-------1--0--0--0-----1--0--0--0--|


E|-----------------------------------------|---------------------------------------------|
B|-----------------------------------------|---------------------------------------------|
G|-----------------------------------------|---------------------------------------------|
D|-----------------------------------------|---------------------------------------------|
A|-----------------------------------------|---------------------------------------------|
E|------------2--2-----------2--2----------|----2--2-----------2--2-------------2--2-----|
B|------1--0--0--0-----1--0--0--0-------1--|-0--0--0-----1--0--0--0-------1--0--0--0-----|


E|-------------------------------------------------|-------------------------------------------------|
B|-------------------------------------------------|-------------------------------------------------|
G|-------------------------------------------------|-------------------------------------------------|
D|-------------------------------------------------|-------------------------------------------------|
A|-------------------------------------------------|-------------------------------------------------|
E|-------4--2-----5--2-----4--2--------------------|-------4--2-----5--2-----4--2--------------------|
B|-0--2--------3--------3--------3--2--0--2--3--2--|-0--2--------3--------3--------3--2--0--2--3--2--|


E|-------------------------------------------------|-------------------------------------------------|
B|-------------------------------------------------|-------------------------------------------------|
G|-------------------------------------------------|-------------------------------------------------|
D|-------------------------------------------------|-------------------------------------------------|
A|-------------------------------------------------|-------------------------4-----------------------|
E|-------4--2-----5--2-----4--2--------------------|-------4--2-----5--2--------4--5--2--4-----------|
B|-0--2--------3--------3--------3--2--0--2--3--2--|-0--2--------3--------3-----------------2--0--3--|


E|---------------------------|---------------------------------|---------------------------|
B|---------------------------|---------------------------------|---------------------------|
G|---------------------------|---------------------------------|---------------------------|
D|---------------------------|---------------------------------|---------------------------|
A|---------------------------|---------------------------------|---------------------------|
E|---------2---2-------------|-----2---2---------------2---2---|---------------2---2-------|
B|-1---0---0---0---------1---|-0---0---0-------1---0---0---0---|-------1---0---0---0-------|


E|-------------------------------------------------|-------------------------------------------------|
B|-------------------------------------------------|-------------------------------------------------|
G|-------------------------------------------------|-------------------------------------------------|
D|-------------------------------------------------|-------------------------------------------------|
A|-------------------------------------------------|-------------------------4-----------------------|
E|-------4--2-----5--2-----4--2--------------------|-------4--2-----5--2--------4--5--2--4-----------|
B|-0--2--------3--------3--------3--2--0--2--3--2--|-0--2--------3--------3-----------------2--0--3--|


E|-------------------------------------------------|-------------------------------------------------|
B|-------------------------------------------------|-------------------------------------------------|
G|-------------------------------------------------|-------------------------------------------------|
D|-------------------------------------------------|-------------------------------------------------|
A|-------4--2-----5--2-----4--2--------------------|-------4--2-----5--2-----4--2--------------------|
E|-0--2--------3--------3--------3--2--0--2--3--2--|-0--2--------3--------3--------3--2--0--2--3--2--|
B|-------------------------------------------------|-------------------------------------------------|


E|-------------------------------------------------|-------------------------------------------------|
B|-------------------------------------------------|-------------------------------------------------|
G|-------------------------------------------------|-------------------------------------------------|
D|-------------------------------------------------|-------------------------16----------------------|
A|-------16-14----17-14----16-14-------------------|-------16-14----17-14-------16-17-14-16-------14-|
E|-12-14-------15-------15-------15-14-12-14-15-14-|-12-14-------15-------15----------------14-12----|
B|-------------------------------------------------|-------------------------------------------------|


E|-----------------------------------|-----------------------------------|-------------------------------------|
B|-----------------------------------|-----------------------------------|-------------------------------------|
G|-----------------------------------|-----------------------------------|-------------------------------------|
D|-----------------------------------|-----------------------------------|-------------------------------------|
A|-----------------------------------|-----------------------------------|-------------------------------------|
E|-3---0---0---0---0---6--6--0---0---|-0---0---3---0---0---0---0---8--7--|-0---3--2--0---0---0---0---8--7--0---|
B|-----------------------------------|-----------------------------------|-------------------------------------|


E|-----------------------------------|-------------------------------------|-------------------------------------|
B|-----------------------------------|-------------------------------------|-------------------------------------|
G|-----------------------------------|-------------------------------------|-------------------------------------|
D|-----------------------------------|-------------------------------------|-------------------------------------|
A|-----------------------------------|-------------------------------------|-------------------------------------|
E|-0---0---0---3--2--0---0---0---0---|-5--5--0---3--3--0---3---0---0---0---|-0---6--6--0---0---0---0---3--3--0---|
B|-----------------------------------|-------------------------------------|-------------------------------------|


E|-----------------------------------|-----------------------------------|-------------------------------------|
B|-----------------------------------|-----------------------------------|-------------------------------------|
G|-----------------------------------|-----------------------------------|-------------------------------------|
D|-----------------------------------|-----------------------------------|-------------------------------------|
A|-----------------------------------|-----------------------------------|-------------------------------------|
E|-0---0---0---0---0---3--2--0---0---|-5---0---7---0---0---0---0---3--2--|-0---0---0---0---5--5--0---3--3--0---|
B|-----------------------------------|-----------------------------------|-------------------------------------|


E|------------------------------|---------------------------------|-----------------------------------|
B|------------------------------|---------------------------------|-----------------------------------|
G|------------------------------|---------------------------------|-----------------------------------|
D|------------------------------|---------------------------------|-----------------------------------|
A|-4---2-------5----2-------4---|-4---2---------------------------|-----------------------------------|
E|---------3------------3-------|---------3---2---0---2---3---2---|-3---0---0---0---0---6--6--0---0---|
B|------------------------------|---------------------------------|-----------------------------------|


E|-----------------------------------|-------------------------------------|-----------------------------------|
B|-----------------------------------|-------------------------------------|-----------------------------------|
G|-----------------------------------|-------------------------------------|-----------------------------------|
D|-----------------------------------|-------------------------------------|-----------------------------------|
A|-----------------------------------|-------------------------------------|-----------------------------------|
E|-0---0---3---0---0---0---0---8--7--|-0---3--2--0---0---0---0---8--7--0---|-0---0---0---3--2--0---0---0---0---|
B|-----------------------------------|-------------------------------------|-----------------------------------|


E|-------------------------------------|-------------------------------------|-----------------------------------|
B|-------------------------------------|-------------------------------------|-----------------------------------|
G|-------------------------------------|-------------------------------------|-----------------------------------|
D|-------------------------------------|-------------------------------------|-----------------------------------|
A|-------------------------------------|-------------------------------------|-----------------------------------|
E|-5--5--0---3--3--0---3---0---0---0---|-0---6--6--0---0---0---0---3--3--0---|-0---0---0---0---0---3--2--0---0---|
B|-------------------------------------|-------------------------------------|-----------------------------------|


E|-----------------------------------|-------------------------------------|------------------------------|
B|-----------------------------------|-------------------------------------|------------------------------|
G|-----------------------------------|-------------------------------------|------------------------------|
D|-----------------------------------|-------------------------------------|------------------------------|
A|-----------------------------------|-------------------------------------|-4---2-------5----2-------4---|
E|-5---0---7---0---0---0---0---3--2--|-0---0---0---0---5--5--0---3--3--0---|---------3------------3-------|
B|-----------------------------------|-------------------------------------|------------------------------|


E|---------------------------------|------------------------------|---------------------------------|
B|---------------------------------|------------------------------|---------------------------------|
G|---------------------------------|------------------------------|---------------------------------|
D|---------------------------------|------------------------------|---------------------------------|
A|-4---2---------------------------|-4---2-------5----2-------4---|-4---2---------------------------|
E|---------3---2---0---2---3---2---|---------3------------3-------|---------3---2---0---2---3---2---|
B|---------------------------------|------------------------------|---------------------------------|


E|---------------------------------|---------------------------------|---------------------------------|
B|---------------------------------|---------------------------------|---------------------------------|
G|---------------------------------|---------------------------------|---------------------------------|
D|---------------------------------|---------------------------------|---------------------------------|
A|-7---9-------9---7---9---9---10--|-----10--4---5---5---7---7---10--|-7---9-------9---7---9---9---10--|
E|-5---7-------7---5---7---7---8---|-----8---2---3---3---5---5---8---|-5---7-------7---5---7---7---8---|
B|---------------------------------|---------------------------------|---------------------------------|


E|---------------------------------|---------------------------------|---------------------------------|
B|---------------------------------|---------------------------------|---------------------------------|
G|---------------------------------|---------------------------------|---------------------------------|
D|---------------------------------|---------------------------------|---------------------------------|
A|-----10--4---5---5---7---5---4---|-7---9-------9---7---9---9---10--|-----10--4---5---5---7---7---10--|
E|-----8---2---3---3---5---3---2---|-5---7-------7---5---7---7---8---|-----8---2---3---3---5---5---8---|
B|---------------------------------|---------------------------------|---------------------------------|


E|---------------------------------|---------------------------------|-------------------------------------------------|
B|---------------------------------|---------------------------------|-------------------------------------------------|
G|---------------------------------|---------------------------------|-------------------------------------------------|
D|---------------------------------|---------------------------------|-------------------------------------------------|
A|-7---9-------9---7---9---9---10--|-----10--4---5---5---7---5---4---|-------4--2-----5--2-----4--2--------------------|
E|-5---7-------7---5---7---7---8---|-----8---2---3---3---5---3---2---|-0--2--------3--------3--------3--2--0--2--3--2--|
B|---------------------------------|---------------------------------|-------------------------------------------------|


E|-------------------------------------------------|-------------------------------------------------|
B|-------------------------------------------------|-------------------------------------------------|
G|-------------------------------------------------|-------------------------------------------------|
D|-------------------------------------------------|-------------------------------------------------|
A|-------4--2-----5--2-----4--2--------------------|-------16-14----17-14----16-14-------------------|
E|-0--2--------3--------3--------3--2--0--2--3--2--|-12-14-------15-------15-------15-14-12-14-15-14-|
B|-------------------------------------------------|-------------------------------------------------|


E|-------------------------------------------------|-------------------------------------|
B|-------------------------------------------------|-------------------------------------|
G|-------------------------------------------------|-------------------------------------|
D|-------------------------16----------------------|-------------------------------------|
A|-------16-14----17-14-------16-17-14-16-------14-|-------------------------------------|
E|-12-14-------15-------15----------------14-12----|-3--2--0---7---0---0---8--7--0---0---|
B|-------------------------------------------------|-------------------------------------|


E|-----------------------------------|-----------------------------------|-----------------------------------|
B|-----------------------------------|-----------------------------------|-----------------------------------|
G|-----------------------------------|-----------------------------------|-----------------------------------|
D|-----------------------------------|-----------------------------------|-----------------------------------|
A|-----------------------------------|-----------------------------------|-----------------------------------|
E|-0---0---3--2--0---0---0---0---8---|-0---3--2--0---0---5---0---8---0---|-0---0---0---3--2--0---0---0---0---|
B|-----------------------------------|-----------------------------------|-----------------------------------|


E|---------------------------------------|-------------------------------------|-----------------------------------|
B|---------------------------------------|-------------------------------------|-----------------------------------|
G|---------------------------------------|-------------------------------------|-----------------------------------|
D|---------------------------------------|-------------------------------------|-----------------------------------|
A|---------------------------------------|-------------------------------------|-----------------------------------|
E|-8--7--0---3--2--0---3--2--0---7---0---|-0---8--7--0---0---0---0---3--2--0---|-0---0---0---8---0---3--2--0---0---|
B|---------------------------------------|-------------------------------------|-----------------------------------|


E|-----------------------------------|-------------------------------------|------------------------------|
B|-----------------------------------|-------------------------------------|------------------------------|
G|-----------------------------------|-------------------------------------|------------------------------|
D|-----------------------------------|-------------------------------------|------------------------------|
A|-----------------------------------|-------------------------------------|-4---2-------5----2-------4---|
E|-5---0---8---0---0---0---0---3--2--|-0---0---0---0---8--7--0---3--2--0---|---------3------------3-------|
B|-----------------------------------|-------------------------------------|------------------------------|


E|---------------------------------|-7------|-8------|-8---12-----|-----12-----|-----12----7-----|
B|---------------------------------|-8------|-10-----|-10--13-----|-----12-----|-----12----8-----|
G|---------------------------------|-9------|-11-----|-11--14-----|-----12-----|-----12----9-----|
D|---------------------------------|-9------|-10-----|-10--14-----|-----14-----|-----14----9-----|
A|-4---2---------------------------|--------|--------|------------|------------|-----------------|
E|---------3---2---0---2---3---2---|--------|--------|------------|------------|-----------------|
B|---------------------------------|--------|--------|------------|------------|-----------------|


E|-------8-----|-------8---12----|-----------12----|-----------12----|------------------------------|
B|-------10----|-------10--13----|-----------12----|-----------12----|------------------------------|
G|-------11----|-------11--14----|-----------12----|-----------12----|------------------------------|
D|-------10----|-------10--14----|-----------14----|-----------14----|------------------------------|
A|-------------|-----------------|-----------------|-----------------|-4---2-------5----2-------4---|
E|-------------|-----------------|-----------------|-----------------|---------3------------3-------|
B|-------------|-----------------|-----------------|-----------------|------------------------------|


E|---------------------------------|------------------------------|---------------------------------|
B|---------------------------------|------------------------------|---------------------------------|
G|---------------------------------|------------------------------|---------------------------------|
D|---------------------------------|------------------------------|---------------------------------|
A|-4---2---------------------------|-4---2-------5----2-------4---|-4---2---------------------------|
E|---------3---2---0---2---3---2---|---------3------------3-------|---------3---2---0---2---3---2---|
B|---------------------------------|------------------------------|---------------------------------|


E|---------------------------------|---------------------------------|---------------------------------|
B|---------------------------------|---------------------------------|---------------------------------|
G|---------------------------------|---------------------------------|---------------------------------|
D|---------------------------------|---------------------------------|---------------------------------|
A|-7---9-------9---7---9---9---10--|-----10--4---5---5---7---7---10--|-7---9-------9---7---9---9---10--|
E|-5---7-------7---5---7---7---8---|-----8---2---3---3---5---5---8---|-5---7-------7---5---7---7---8---|
B|---------------------------------|---------------------------------|---------------------------------|


E|---------------------------------|---------------------------------|---------------------------------|
B|---------------------------------|---------------------------------|---------------------------------|
G|---------------------------------|---------------------------------|---------------------------------|
D|---------------------------------|---------------------------------|---------------------------------|
A|-----10--4---5---5---7---5---4---|-7---9-------9---7---9---9---10--|-----10--4---5---5---7---7---10--|
E|-----8---2---3---3---5---3---2---|-5---7-------7---5---7---7---8---|-----8---2---3---3---5---5---8---|
B|---------------------------------|---------------------------------|---------------------------------|


E|---------------------------------|---------------------------------|-------------------------------------------------|
B|---------------------------------|---------------------------------|-------------------------------------------------|
G|---------------------------------|---------------------------------|-------------------------------------------------|
D|---------------------------------|---------------------------------|-------------------------------------------------|
A|-7---9-------9---7---9---9---10--|-----10--4---5---5---7---5---4---|-------------------------------------------------|
E|-5---7-------7---5---7---7---8---|-----8---2---3---3---5---3---2---|-------4--2-----5--2-----4--2--------------------|
B|---------------------------------|---------------------------------|-0--2--------3--------3--------3--2--0--2--3--2--|


E|-------------------------------------------------------|-------------------------------------------------|
B|-------------------------------------------------------|-------------------------------------------------|
G|-------------------------------------------------------|-------------------------------------------------|
D|-------------------------------------------------------|-------------------------------------------------|
A|-------------------------------------------------------|-------------------------------------------------|
E|-------4--2-----5--2-----4--2--------------------------|-------4--2-----5--2-----4--2--------------------|
B|-0--2--------3--------3--------3--2--0--0--2--3--2--0--|-0--2--------3--------3--------3--2--0--2--3--2--|


E|-------------------------------------------------|---------------------------------------|
B|-------------------------------------------------|---------------------------------------|
G|-------------------------------------------------|---------------------------------------|
D|-------------------------------------------------|---------------------------------------|
A|-------------------------4-----------------------|-2--4---4---4--5--4---4---4--2--4---4--|
E|-------4--2-----5--2--------4--5--2--4-----------|-0--2---2---2--3--2---2---2--0--2---2--|
B|-0--2--------3--------3-----------------2--0--3--|---------------------------------------|


E|---------------------------------------|-------------------------------------|---------------------------------|
B|---------------------------------------|-------------------------------------|---------------------------------|
G|---------------------------------------|-------------------------------------|---------------------------------|
D|---------------------------------------|-------------------------------------|---------------------------------|
A|----4--8---8---2--4---4---4--5--4---4--|----4--2--4---4---4--10--10----------|---------------------------------|
E|----2--6---6---0--2---2---2--3--2---2--|----2--0--2---2---2--8---8---5---4---|-2---5---4---2---5---4---2---5---|
B|---------------------------------------|-------------------------------------|---------------------------------|


E|---------------------------------|-----------------------------------|---------------------------------------|
B|---------------------------------|-----------------------------------|---------------------------------------|
G|---------------------------------|-----------------------------------|---------------------------------------|
D|---------------------------------|-----------------------------------|---------------------------------------|
A|---------------------------------|-------------------------2--4---4--|----4--5--4---4---4--2--4---4---4--8---|
E|-4---2---5---4---2---5---4---2---|-5---4---2---5---4---2---0--2---2--|----2--3--2---2---2--0--2---2---2--6---|
B|---------------------------------|-----------------------------------|---------------------------------------|


E|---------------------------------------|-----------------------------------|---------------------------------|
B|---------------------------------------|-----------------------------------|---------------------------------|
G|---------------------------------------|-----------------------------------|---------------------------------|
D|---------------------------------------|-----------------------------------|---------------------------------|
A|-8---2--4---4---4--5--4---4---4--2--4--|----4---4--10--10------------------|---------------------------------|
E|-6---0--2---2---2--3--2---2---2--0--2--|----2---2--8---8---5---4---2---5---|-4---2---5---4---2---5---4---2---|
B|---------------------------------------|-----------------------------------|---------------------------------|


E|---------------------------------|---------------------------------|---------------------------------|
B|---------------------------------|---------------------------------|---------------------------------|
G|---------------------------------|---------------------------------|---------------------------------|
D|---------------------------------|---------------------------------|---------------------------------|
A|---------------------------------|---------------------------------|---------------------------------|
E|-5---4---2---5---4---2---5---4---|-2---5---4---2---5---4---2---5---|-4---2---5---4---2---5---4---2---|
B|---------------------------------|---------------------------------|---------------------------------|


E|---------------------------------|-------------------------------------|---------------------------------------|
B|---------------------------------|-------------------------------------|---------------------------------------|
G|---------------------------------|-------------------------------------|---------------------------------------|
D|---------------------------------|-------------------------------------|---------------------------------------|
A|---------------------------------|-----------------2--4---4---4--5--4--|----4---4--2--4---4---4--8---8---2--4--|
E|-5---4---2---5---4---2---5---4---|-2---5---4---2---0--2---2---2--3--2--|----2---2--0--2---2---2--6---6---0--2--|
B|---------------------------------|-------------------------------------|---------------------------------------|


E|---------------------------------------|---------------------------------|---------------------------------|
B|---------------------------------------|---------------------------------|---------------------------------|
G|---------------------------------------|---------------------------------|---------------------------------|
D|---------------------------------------|---------------------------------|---------------------------------|
A|----4---4--5--4---4---4--2--4---4---4--|-10--10--------------------------|-------------------------4---2---|
E|----2---2--3--2---2---2--0--2---2---2--|-8---8---5---4---2---5---4---2---|-5---4---2---5---4---2-----------|
B|---------------------------------------|---------------------------------|---------------------------------|


E|---------------------------------|-------------------------------------|-------------------------------------|
B|---------------------------------|-------------------------------------|-------------------------------------|
G|---------------------------------|-------------------------------------|-------------------------------------|
D|---------------------------------|-------------------------------------|-------------------------------------|
A|---------4---2-----------4---2---|---------2--4---4---4--5--4---4---4--|-2--4---4---4--8---8---2--4---4---4--|
E|-3---2-----------3---2-----------|-3---2---0--2---2---2--3--2---2---2--|-0--2---2---2--6---6---0--2---2---2--|
B|---------------------------------|-------------------------------------|-------------------------------------|


E|-------------------------------------|---------------------------------|---------------------------------|
B|-------------------------------------|---------------------------------|---------------------------------|
G|-------------------------------------|---------------------------------|---------------------------------|
D|-------------------------------------|---------------------------------|---------------------------------|
A|-5--4---4---4--2--4---4---4--10--10--|---------------------------------|-----------------4---2-----------|
E|-3--2---2---2--0--2---2---2--8---8---|-5---4---2---5---4---2---5---4---|-2---5---4---2-----------3---2---|
B|-------------------------------------|---------------------------------|---------------------------------|


E|---------------------------------|---------------------------------|---------------------------------|
B|---------------------------------|---------------------------------|---------------------------------|
G|---------------------------------|---------------------------------|---------------------------------|
D|---------------------------------|---------------------------------|---------------------------------|
A|-4---2-----------4---2-----------|---------------------------------|-----------------4---2-----------|
E|---------3---2-----------3---2---|-5---4---2---5---4---2---5---4---|-2---5---4---2-----------3---2---|
B|---------------------------------|---------------------------------|---------------------------------|


E|---------------------------------|---------------------------------------|---------------------------------------|
B|---------------------------------|---------------------------------------|---------------------------------------|
G|---------------------------------|---------------------------------------|---------------------------------------|
D|---------------------------------|---------------------------------------|---------------------------------------|
A|-4---2-----------4---2-----------|-2--4---4---4--5--4---4---4--2--4---4--|----4--8---8---2--4---4---4--5--4---4--|
E|---------3---2-----------3---2---|-0--2---2---2--3--2---2---2--0--2---2--|----2--6---6---0--2---2---2--3--2---2--|
B|---------------------------------|---------------------------------------|---------------------------------------|


E|---------------------------------------|---------------------------------------|
B|---------------------------------------|---------------------------------------|
G|---------------------------------------|---------------------------------------|
D|---------------------------------------|---------------------------------------|
A|----4--2--4---4---4--10--10--2--4---4--|----4--5--4---4---4--2--4---4---4--8---|
E|----2--0--2---2---2--8---8---0--2---2--|----2--3--2---2---2--0--2---2---2--6---|
B|---------------------------------------|---------------------------------------|


E|---------------------------------------|-----------------------------|---------------------|
B|---------------------------------------|-----------------------------|---------------------|
G|---------------------------------------|-----------------------------|---------------------|
D|---------------------------------------|-----------------------------|---------------------|
A|-8---2--4---4---4--5--4---4---4--2--4--|----4---4--10--10-------4----|-5-------------------|
E|-6---0--2---2---2--3--2---2---2--0--2--|----2---2--8---8-------------|----------------5----|
B|---------------------------------------|-------------------2---------|------3----2---------|


E|----------------------------|---------------------|----------------------------|
B|----------------------------|---------------------|----------------------------|
G|----------------------------|---------------------|----------------------------|
D|----------------------------|---------------------|----------------------------|
A|-----------------------4----|-5--------------4----|----------------------------|
E|-4---2----------------------|---------------------|-4---2------------5---------|
B|---------0---2----2---------|------3----2---------|---------0---2----3----2----|


E|---------------------|----------------------------|---------------------|----------------------------|
B|---------------------|----------------------------|---------------------|----------------------------|
G|---------------------|----------------------------|---------------------|----------------------------|
D|---------------------|----------------------------|---------------------|----------------------------|
A|-4----5--------------|----------------------------|-4----5--------------|-4--------------------------|
E|---------------------|-5----4---2-----------------|---------------------|------4---2------------5----|
B|-----------3----2----|--------------0---2----2----|-----------3----2----|--------------0---2----3----|


E|---------------------|----------------------------|---------------------|----------------------------|
B|---------------------|----------------------------|---------------------|----------------------------|
G|---------------------|----------------------------|---------------------|----------------------------|
D|---------------------|----------------------------|---------------------|----------------------------|
A|------4----5---------|----------------------------|------4----5---------|------4---------------------|
E|---------------------|------5----4---2------------|---------------------|-----------4---2------------|
B|-2--------------3----|-2-----------------0---2----|-2--------------3----|-2-----------------0---2----|


E|---------------------|----------------------------|---------------------|----------------------------|
B|---------------------|----------------------------|---------------------|----------------------------|
G|---------------------|----------------------------|---------------------|----------------------------|
D|---------------------|----------------------------|---------------------|----------------------------|
A|-----------4----5----|----------------------------|-----------4----5----|-----------4----------------|
E|-5-------------------|-----------5----4---2-------|---------------------|----------------4---2-------|
B|-3----2--------------|-3----2-----------------0---|-2----2--------------|-3----2-----------------0---|


E|-----------------------------------|-------------------------------------------------|
B|-----------------------------------|-------------------------------------------------|
G|-----------6--4-----------------6--|-4-----------------6--4-----------------6--4-----|
D|-----------------6--4--------------|----6--4-----------------6--4-----------------6--|
A|-----------------------7--5--4-----|----------7--5--4--------------7--5--4-----------|
E|------5----------------------------|-------------------------------------------------|
B|-2----3----------------------------|-------------------------------------------------|


E|---------------------------------|----------------------------|-----------------------------|
B|---------------------------------|----------------------------|-----------------------------|
G|---------------------------------|----------------------------|-----------------------------|
D|-4-------------------------------|----------------------------|-----------------------------|
A|----7--5--4----------------------|----------------------------|-----------------------------|
E|----------------------------4----|-3--------------------------|----------7----6-------------|
B|-------------4----5----4---------|------4----2----5---4----5--|-----4--------------4----2---|


E|-------------------------------|----------------------------|-----------------------------|
B|-------------------------------|----------------------------|-----------------------------|
G|-------------------------------|----------------------------|-----------------------------|
D|-------------------------------|----------------------------|-----------------------------|
A|---------7---6-----------------|----------------------------|-----------------------------|
E|-------------------------------|----4----3------------------|----------------7----6-------|
B|-----4-----------4----5----4---|--------------4----2----5---|-4----5----4--------------4--|


E|------------------------------|-----------------------------|-----------------------------|
B|------------------------------|-----------------------------|-----------------------------|
G|------------------------------|-----------------------------|-----------------------------|
D|------------------------------|-----------------------------|-----------------------------|
A|--------------7---6-----------|-----------------------------|-----------------------------|
E|------------------------------|----------4----3-------------|------------------------7----|
B|-----2----4-----------4----5--|-----4--------------4----2---|-----5---4----5----4---------|


E|----------------------------|-----------------------------|----------------------------|
B|----------------------------|-----------------------------|----------------------------|
G|----------------------------|-----------------------------|----------------------------|
D|----------------------------|-----------------------------|----------------------------|
A|--------------------7---6---|-----------------------------|----------------------------|
E|-6--------------------------|----------------4----3-------|----------------------------|
B|------4----2----4-----------|-4----5----4--------------4--|-----2----5---4----5----4---|


E|----------------------------|----------------|--------|--------------------|-------------------------------------------------|
B|----------------------------|----------------|--------|--------------------|-------------------------------------------------|
G|----------------------------|----------------|--------|--------------------|----------------------------------------------5--|
D|----------------------------|----------------|--------|--------------------|----------------------4--5--7--5--7--5--7--9-----|
A|----------------------------|-7---6----------|--------|-----------------2--|-3--5--3--2--3--5--7-----------------------------|
E|----7----6------------------|----------------|--------|--------2--3--5-----|-------------------------------------------------|
B|--------------4----2----4---|----------------|--------|--------------------|-------------------------------------------------|


E|-------------------------------------------------|-------------------------------------------------|
B|-------------------------------------------------|-------------------------------------------------|
G|-7--9--7--5--------------------------------------|-------------------------------------------------|
D|-------------9--7--5--9--7--5-----------------4--|-5--7--5--4--------------------------------------|
A|-------------------------------9--5--3--5--7-----|-------------7--5--3--7--5--3-----3-----------2--|
E|-------------------------------------------------|-------------------------------7-----2--3--5-----|
B|-------------------------------------------------|-------------------------------------------------|


E|-------------------------------------------------|-------------------------------------------------|
B|-------------------------------------------------|-------------------------------------------------|
G|-------------------------------------------------|----------------------------------------------5--|
D|-------------------------------------------------|----------------------4--5--7--5--7--5--7--9-----|
A|-3--5--3--2-----------------------------------2--|-3--5--3--2--3--5--7-----------------------------|
E|-------------5--3--2--5--3--2-----2--2--3--5-----|-------------------------------------------------|
B|-------------------------------5-----------------|-------------------------------------------------|


E|-------------------------------------------------|-------------------------------------------------|
B|----------------------8--10-12-10-8--------------|-------------------------------------------------|
G|-7--9--7--5--7--9--11----------------11-9--7--11-|-9--7-----7--------------------------------------|
D|-------------------------------------------------|-------10----10-9--7--5--7--9--7--5--4--7--5--4--|
A|-------------------------------------------------|-------------------------------------------------|
E|-------------------------------------------------|-------------------------------------------------|
B|-------------------------------------------------|-------------------------------------------------|


E|-------------------------------------------------|-------------------------------------------------|
B|-------------------------------------------------|-------------------------------------------------|
G|-------------------------------------------------|-------------------------------------------------|
D|-------------------------------------------------|-------------------------------------------------|
A|-7--5--3--7--5--3-----5--3--------------------2--|-3--5--3--2--------------------------------------|
E|-------------------7--------7--5--3--2--3--5-----|-------------5--3--2--5--3--2-----------5--7--8--|
B|-------------------------------------------------|-------------------------------5--7--8-----------|


E|-------------------------------------------------|-------------------------------------------------|
B|-------------------------------------------------|-------------------------------------------------|
G|-------------------------------------------------|-------------------------------------------------|
D|-------------------------------------------------|-------------------------------------------------|
A|-------------------------------------------------|-------------------------------------------------|
E|-7--5-----------------------------3--5--7--5--3--|----------------------------2--3--5--3--2--3--5--|
B|-------8--7--5--8--7--5--3--5--7-----------------|-7--5--3--7--5--3--1--3--5-----------------------|


E|-------------------------------------------------|-------------------------------------------------|
B|-------------------------------------------------|-------------------------------------------------|
G|-------------------------------------------------|-------------------------------------------------|
D|----------------------------5--7--9--7--5--9--10-|-9--7--------------------------7--9--10-12-10-9--|
A|----3--5--7--5--3--5--7--9-----------------------|-------10-9--7--9--10-7--9--10-------------------|
E|-7-----------------------------------------------|-------------------------------------------------|
B|-------------------------------------------------|-------------------------------------------------|


E|-------------------------------------------------|-------------------------------------------------|
B|-------------------------------------------------|-------------------------------------------------|
G|-------------------------------------------------|-------------------------------------------------|
D|-------------------------9--10-12-14-12-10-------|-------------------10-12-16-17-16-14-------------|
A|-12-10-9--12-10-9--10-12-------------------14-12-|-10-14-12-10-12-14-------------------17-15-14-17-|
E|-------------------------------------------------|-------------------------------------------------|
B|-------------------------------------------------|-------------------------------------------------|


E|------------------------------------------|-------------------------------------------------|
B|------------------------------------------|-------------------------------------------------|
G|------------------------------------------|-------------------------------------------------|
D|---------------------------------------10-|-12-10----------------------------------------10-|
A|-15-14------------14-12-10----10-12-14----|-------14-12-10----10-12-14-12-10----10-12-14----|
E|-------17-15-14------------14-------------|----------------14----------------14-------------|
B|------------------------------------------|-------------------------------------------------|


E|-------------------------------------------------|-------------------------------------------------|
B|-------------------------------------------------|-------------------------------------------------|
G|-------------------------------------------------|-------------------------------------------------|
D|-12-10-------------------------------------------|----------------------------------10-12-10-------|
A|-------14-12-10----10-12-14-12-10----10-12-14-12-|-10----10-12-14-12-10----10-12-14----------14-12-|
E|----------------14----------------14-------------|----14----------------14-------------------------|
B|-------------------------------------------------|-------------------------------------------------|


E|------------------------------------------|-------------------------------------------------|
B|------------------------------------12-13-|-15-13-12----------------------------------12-13-|
G|------------------16-14-12----12-14-------|----------14-12-11-12-14-16-14-12----12-14-------|
D|---------------------------16-------------|----------------------------------16-------------|
A|-10----10-12-14---------------------------|-------------------------------------------------|
E|----14------------------------------------|-------------------------------------------------|
B|------------------------------------------|-------------------------------------------------|


E|-------------------------------------------------|-------------------------------------------------|
B|-15-13-12----------------------------------------|-------------------------------12-13-15-13-12----|
G|----------14-12-11-12-14-16-14-12----12-14-16-14-|-12----12-14-16-14-12----12-14----------------14-|
D|----------------------------------16-------------|----16----------------16-------------------------|
A|-------------------------------------------------|-------------------------------------------------|
E|-------------------------------------------------|-------------------------------------------------|
B|-------------------------------------------------|-------------------------------------------------|


E|------------------------------------------|-------------------------------------------------|
B|------------------------------------------|----------------------------------12-13-15-13-12-|
G|-12----12-14-16---------------------------|----------9--11-12-11-9--11-12-14----------------|
D|----16---------------------7--9--10-9--7--|-9--10-12----------------------------------------|
A|------------------7--9--10----------------|-------------------------------------------------|
E|------------------------------------------|-------------------------------------------------|
B|------------------------------------------|-------------------------------------------------|


E|----------14-15-17-15-17----------20-22-24-22-20-|-------------------------------------15-17-15-14-|
B|-13-15-17----------------20-22-24----------------|-24-22-20-24-22-20-19-22-20-19----19-------------|
G|-------------------------------------------------|-------------------------------21----------------|
D|-------------------------------------------------|-------------------------------------------------|
A|-------------------------------------------------|-------------------------------------------------|
E|-------------------------------------------------|-------------------------------------------------|
B|-------------------------------------------------|-------------------------------------------------|


E|-------------------------------------------------|-------------------------------------------------|
B|-17-15-13-17-15-13-12-15-13-12----12-13-15-13-12-|-------------------------------------------------|
G|-------------------------------14----------------|-14-12-11-14-12-11----12-11----------11-12-11-9--|
D|-------------------------------------------------|-------------------14-------14-12-14-------------|
A|-------------------------------------------------|-------------------------------------------------|
E|-------------------------------------------------|-------------------------------------------------|
B|-------------------------------------------------|-------------------------------------------------|


E|-------------------------------------------------|-------------------------------------------------|
B|-------------------------------------------------|----------------------------------------------12-|
G|-------------------------------------------------|----------------------9--11-12-11-9--11-12-14----|
D|-12-10-9--12-10-9-----10-9--------------------7--|-9--10-9--7--9--10-12----------------------------|
A|-------------------12-------12-10-9--7--9--10----|-------------------------------------------------|
E|-------------------------------------------------|-------------------------------------------------|
B|-------------------------------------------------|-------------------------------------------------|


E|----------------------14-15-17-15-17----------20-|-22-24-22-20----------------------------19-20-22-|
B|-13-15-13-12-13-15-17----------------20-22-24----|-------------24-22-20-24-22-20-19-20-22----------|
G|-------------------------------------------------|-------------------------------------------------|
D|-------------------------------------------------|-------------------------------------------------|
A|-------------------------------------------------|-------------------------------------------------|
E|-------------------------------------------------|-------------------------------------------------|
B|-------------------------------------------------|-------------------------------------------------|


E|-20-19-------------------------------19-20-19-17-|-------------------------------17-19-17-15-------|
B|-------22-20-19-22-20-19----19-20-22-------------|-20-19-17-20-19-17----17-19-20-------------19-17-|
G|-------------------------21----------------------|-------------------19----------------------------|
D|-------------------------------------------------|-------------------------------------------------|
A|-------------------------------------------------|-------------------------------------------------|
E|-------------------------------------------------|-------------------------------------------------|
B|-------------------------------------------------|-------------------------------------------------|


E|-------------------------15-17-15-14-------------|-------------------14-15-14-12-------------------|
B|-15-19-17-15----15-17-19-------------17-15-13-17-|-15-13----13-15-17-------------15-13-12-15-13-12-|
G|-------------17----------------------------------|-------16----------------------------------------|
D|-------------------------------------------------|-------------------------------------------------|
A|-------------------------------------------------|-------------------------------------------------|
E|-------------------------------------------------|-------------------------------------------------|
B|-------------------------------------------------|-------------------------------------------------|


E|-------------------------------------------------|-------------------------------------------------|
B|----13-12----------12-13-12-10-------------------|-------------------------------------------------|
G|-14-------14-12-14-------------12-11-9--12-11-9--|----11-9-----------9--11-9--7--------------------|
D|-------------------------------------------------|-12-------12-10-12-------------10-9--7--10-9--7--|
A|-------------------------------------------------|-------------------------------------------------|
E|-------------------------------------------------|-------------------------------------------------|
B|-------------------------------------------------|-------------------------------------------------|


E|-------------------------------------------------|-------------------------------------------------|
B|-------------------------------------------------|-------------------------------------------------|
G|-------------------------------------------------|-------------------------------------------------|
D|----9--7-----------7--9--7--5--------------------|-------------------------------------------------|
A|-10-------10-9--10-------------9--7--5--9--7--5--|----7--5-----------------------------------------|
E|-------------------------------------------------|-8--------8--5--7--7--8--7--5--------------------|
B|-------------------------------------------------|-------------------------------8--7--5--8--7--5--|


E|-------------------------------------------------|---------------------------------------------|
B|-------------------------------------------------|---------------------------------------------|
G|-------------------------------------------------|---------------------------------------------|
D|-------------------------------------------------|---------------------------------------------|
A|-------------------------------------------------|---------------------------------------------|
E|----2--------------2--3--2-----------------2--3--|-2-------------------------------------------|
B|-3-----5--3--1--3-----------5--3--1--3--5--------|----5--3--1--0--1--0--0--0--0--0---0--0---0--|


E|------------------------------------|-----------------|
B|------------------------------------|-----------------|
G|------------------------------------|-----------------|
D|------------------------------------|-----10----------|
A|------------------------------------|-----9-----------|
E|------------------------------------|-----8-----------|
B|-0--------0--0--0--0--0---0--0---0--|-0---------------|





Track 2: Solo

E|--------|--------|--------|--------|--------|--------|--------|--------|--------|
B|--------|--------|--------|--------|--------|--------|--------|--------|--------|
G|--------|--------|--------|--------|--------|--------|--------|--------|--------|
D|--------|--------|--------|--------|--------|--------|--------|--------|--------|
A|--------|--------|--------|--------|--------|--------|--------|--------|--------|
E|--------|--------|--------|--------|--------|--------|--------|--------|--------|
B|--------|--------|--------|--------|--------|--------|--------|--------|--------|


E|--------|--------|--------|--------|--------|--------|--------|--------|--------|
B|--------|--------|--------|--------|--------|--------|--------|--------|--------|
G|--------|--------|--------|--------|--------|--------|--------|--------|--------|
D|--------|--------|--------|--------|--------|--------|--------|--------|--------|
A|--------|--------|--------|--------|--------|--------|--------|--------|--------|
E|--------|--------|--------|--------|--------|--------|--------|--------|--------|
B|--------|--------|--------|--------|--------|--------|--------|--------|--------|


E|--------|--------|--------|--------|--------|--------|----------------|-----------------|
B|--------|--------|--------|--------|--------|--------|------------12--|-------12----12--|
G|--------|--------|--------|--------|--------|--------|----------------|-----------------|
D|--------|--------|--------|--------|--------|--------|----------------|-----------------|
A|--------|--------|--------|--------|--------|--------|----------------|-----------------|
E|--------|--------|--------|--------|--------|--------|----------------|-----------------|
B|--------|--------|--------|--------|--------|--------|----------------|-----------------|


E|-----------------------|------------------------------13-|----------13------16-17-|
B|-----12----------------|---------12----------------------|------------------------|
G|---------13--13--------|-13--14------14---13---11--11----|------------------------|
D|-----------------------|---------------------------------|------------------------|
A|-----------------------|---------------------------------|------------------------|
E|-----------------------|---------------------------------|------------------------|
B|-----------------------|---------------------------------|------------------------|


E|-19-21-19-17-16-17-19-22-19-22-19-17-16-17-19-21-19-17-16-17-19-22-19-22-|-19-17-16-16-13-14-16-17-16-14-13-14-16-17-16-17-16-14-13-16-17-16-|
B|-------------------------------------------------------------------------|-------------------------------------------------------------------|
G|-------------------------------------------------------------------------|-------------------------------------------------------------------|
D|-------------------------------------------------------------------------|-------------------------------------------------------------------|
A|-------------------------------------------------------------------------|-------------------------------------------------------------------|
E|-------------------------------------------------------------------------|-------------------------------------------------------------------|
B|-------------------------------------------------------------------------|-------------------------------------------------------------------|


E|-14-13-14-16-17-16-17-16-14-13-10--9--10-13-16-13-16-13-10-9--10-13-17-|-13-17-13-10-9--10-13-19-13-19-13-10-9--10-13-21-13-21-13-10-9------|
B|-----------------------------------------------------------------------|--------------------------------------------------------------------|
G|-----------------------------------------------------------------------|----------------------------------------------------------------4---|
D|-----------------------------------------------------------------------|--------------------------------------------------------------------|
A|-----------------------------------------------------------------------|--------------------------------------------------------------------|
E|-----------------------------------------------------------------------|--------------------------------------------------------------------|
B|-----------------------------------------------------------------------|--------------------------------------------------------------------|


E|--------------------------------------|-----------------------------------|---------------------------|
B|--------------------------------------|-----------------------------------|---------------------------|
G|-5--4-----4---4---4-------4---5---4---|-----4---5--4-----4---11--11---11--|-9---11--12--11----11--4---|
D|-------7--------------7---------------|---------------7-------------------|---------------------------|
A|--------------------------------------|-----------------------------------|---------------------------|
E|--------------------------------------|-----------------------------------|---------------------------|
B|--------------------------------------|-----------------------------------|---------------------------|


E|--------------------------------------|-----------------------|----------------------------|
B|--------------------------------------|-----15--17--19----17--|-15-17-15-------------------|
G|-5--4-----4---4---4-------4---5---4---|-----------------------|------------------------4---|
D|-------7--------------7---------------|-----------------------|----------19----19--19------|
A|--------------------------------------|-----------------------|----------------------------|
E|--------------------------------------|-----------------------|----------------------------|
B|--------------------------------------|-----------------------|----------------------------|


E|--------------------------------------------|--------------------------------------------|
B|----------------------0---7--0--8--0--7--0--|-5--0--7--0--8--0--7---8--7-----7---12--12--|
G|-5--4-----4---4---4-------------------------|-----------------------------9--------------|
D|-------7------------------------------------|--------------------------------------------|
A|--------------------------------------------|--------------------------------------------|
E|--------------------------------------------|--------------------------------------------|
B|--------------------------------------------|--------------------------------------------|


E|--------------------------------14-12-14-12-|----12----------------12-14-15----------------------|
B|-----12--13-12----12---12-13-15-------------|-15----15-13-12-13-15----------12-13-12----12-------|
G|-14------------14---------------------------|----------------------------------------14----14-12-|
D|--------------------------------------------|----------------------------------------------------|
A|--------------------------------------------|----------------------------------------------------|
E|--------------------------------------------|----------------------------------------------------|
B|--------------------------------------------|----------------------------------------------------|


E|----------------------------------------------------|----------------------------------------17-----|
B|----------12-13-15----------------------------------|----------------17-19-20-17-19-20-19-20--------|
G|-11-12-14-------------------------------------------|-------16-17-19--------------------------------|
D|-------------------16-17-16----16----------------16-|-17-19-----------------------------------------|
A|----------------------------19----19-17-15-17-19----|-----------------------------------------------|
E|----------------------------------------------------|-----------------------------------------------|
B|----------------------------------------------------|-----------------------------------------------|


E|--------|--------|--------|--------|--------|--------|--------|--------|--------|
B|--------|--------|--------|--------|--------|--------|--------|--------|--------|
G|--------|--------|--------|--------|--------|--------|--------|--------|--------|
D|--------|--------|--------|--------|--------|--------|--------|--------|--------|
A|--------|--------|--------|--------|--------|--------|--------|--------|--------|
E|--------|--------|--------|--------|--------|--------|--------|--------|--------|
B|--------|--------|--------|--------|--------|--------|--------|--------|--------|


E|--------|--------|--------|--------|--------|--------|--------|--------|--------|
B|--------|--------|--------|--------|--------|--------|--------|--------|--------|
G|--------|--------|--------|--------|--------|--------|--------|--------|--------|
D|--------|--------|--------|--------|--------|--------|--------|--------|--------|
A|--------|--------|--------|--------|--------|--------|--------|--------|--------|
E|--------|--------|--------|--------|--------|--------|--------|--------|--------|
B|--------|--------|--------|--------|--------|--------|--------|--------|--------|


E|--------|--------|--------|--------|--------|--------|--------|--------|--------|
B|--------|--------|--------|--------|--------|--------|--------|--------|--------|
G|--------|--------|--------|--------|--------|--------|--------|--------|--------|
D|--------|--------|--------|--------|--------|--------|--------|--------|--------|
A|--------|--------|--------|--------|--------|--------|--------|--------|--------|
E|--------|--------|--------|--------|--------|--------|--------|--------|--------|
B|--------|--------|--------|--------|--------|--------|--------|--------|--------|


E|--------|--------|--------|--------|--------|--------|--------|--------|--------|
B|--------|--------|--------|--------|--------|--------|--------|--------|--------|
G|--------|--------|--------|--------|--------|--------|--------|--------|--------|
D|--------|--------|--------|--------|--------|--------|--------|--------|--------|
A|--------|--------|--------|--------|--------|--------|--------|--------|--------|
E|--------|--------|--------|--------|--------|--------|--------|--------|--------|
B|--------|--------|--------|--------|--------|--------|--------|--------|--------|


E|--------|--------|--------|--------|--------|--------|--------|--------|--------|
B|--------|--------|--------|--------|--------|--------|--------|--------|--------|
G|--------|--------|--------|--------|--------|--------|--------|--------|--------|
D|--------|--------|--------|--------|--------|--------|--------|--------|--------|
A|--------|--------|--------|--------|--------|--------|--------|--------|--------|
E|--------|--------|--------|--------|--------|--------|--------|--------|--------|
B|--------|--------|--------|--------|--------|--------|--------|--------|--------|


E|--------|--------|--------|--------|--------|--------|--------|--------|--------|
B|--------|--------|--------|--------|--------|--------|--------|--------|--------|
G|--------|--------|--------|--------|--------|--------|--------|--------|--------|
D|--------|--------|--------|--------|--------|--------|--------|--------|--------|
A|--------|--------|--------|--------|--------|--------|--------|--------|--------|
E|--------|--------|--------|--------|--------|--------|--------|--------|--------|
B|--------|--------|--------|--------|--------|--------|--------|--------|--------|


E|--------|--------|--------|--------|--------|--------|--------|--------|--------|
B|--------|--------|--------|--------|--------|--------|--------|--------|--------|
G|--------|--------|--------|--------|--------|--------|--------|--------|--------|
D|--------|--------|--------|--------|--------|--------|--------|--------|--------|
A|--------|--------|--------|--------|--------|--------|--------|--------|--------|
E|--------|--------|--------|--------|--------|--------|--------|--------|--------|
B|--------|--------|--------|--------|--------|--------|--------|--------|--------|


E|--------|--------|--------|--------|--------|--------|--------|--------|--------|
B|--------|--------|--------|--------|--------|--------|--------|--------|--------|
G|--------|--------|--------|--------|--------|--------|--------|--------|--------|
D|--------|--------|--------|--------|--------|--------|--------|--------|--------|
A|--------|--------|--------|--------|--------|--------|--------|--------|--------|
E|--------|--------|--------|--------|--------|--------|--------|--------|--------|
B|--------|--------|--------|--------|--------|--------|--------|--------|--------|


E|--------|--------|--------|--------|--------|--------|--------|--------|--------------------------------|
B|--------|--------|--------|--------|--------|--------|--------|--------|--------------------------------|
G|--------|--------|--------|--------|--------|--------|--------|--------|-------4---5--4-----4---4---4---|
D|--------|--------|--------|--------|--------|--------|--------|--------|-----------------7--------------|
A|--------|--------|--------|--------|--------|--------|--------|--------|--------------------------------|
E|--------|--------|--------|--------|--------|--------|--------|--------|--------------------------------|
B|--------|--------|--------|--------|--------|--------|--------|--------|--------------------------------|


E|-----------------------------------|------------------------------|-----------------------------------|
B|-----------------------------------|------------------------------|-----------------------------------|
G|-----4---5---4----4---5--4-----4---|-11--11---11--9---11--12--11--|------11--4---5--4-----4---4---4---|
D|-7--------------------------7------|------------------------------|--------------------7--------------|
A|-----------------------------------|------------------------------|-----------------------------------|
E|-----------------------------------|------------------------------|-----------------------------------|
B|-----------------------------------|------------------------------|-----------------------------------|


E|------------------------------|--------------------------|--------------------------------------|
B|------------------15--17--19--|-------17--15-17-15-------|--------------------------------------|
G|-----4---5---4----------------|--------------------------|-------------4---5--4-----4---4---4---|
D|-7----------------------------|--------------------19----|-----19--19------------7--------------|
A|------------------------------|--------------------------|--------------------------------------|
E|------------------------------|--------------------------|--------------------------------------|
B|------------------------------|--------------------------|--------------------------------------|


E|---------------------------------------------|-------------------------------------------|
B|-0---7--0--8--0--7--0--5--0--7--0--8--0--7---|-8--7-----7---12--12------12--13-12----12--|
G|---------------------------------------------|-------9--------------14------------14-----|
D|---------------------------------------------|-------------------------------------------|
A|---------------------------------------------|-------------------------------------------|
E|---------------------------------------------|-------------------------------------------|
B|---------------------------------------------|-------------------------------------------|


E|--------------17-15--17-15----15---15--|-----15--17--15---17--19--19--|----19-17--15-17-15-14--15--14----|
B|---------------------------19----------|-19---------------------------|----------------------------------|
G|-----16-17-19--------------------------|------------------------------|----------------------------------|
D|---------------------------------------|------------------------------|----------------------------------|
A|---------------------------------------|------------------------------|----------------------------------|
E|---------------------------------------|------------------------------|----------------------------------|
B|---------------------------------------|------------------------------|----------------------------------|


E|-----14--14------------|--------|--------|--------|--------|--------|--------|--------|
B|-----------------------|--------|--------|--------|--------|--------|--------|--------|
G|-----------------------|--------|--------|--------|--------|--------|--------|--------|
D|-----------------------|--------|--------|--------|--------|--------|--------|--------|
A|-----------------------|--------|--------|--------|--------|--------|--------|--------|
E|-----------------------|--------|--------|--------|--------|--------|--------|--------|
B|-----------------------|--------|--------|--------|--------|--------|--------|--------|


E|--------|--------|--------|--------|--------|--------|--------|--------|--------|
B|--------|--------|--------|--------|--------|--------|--------|--------|--------|
G|--------|--------|--------|--------|--------|--------|--------|--------|--------|
D|--------|--------|--------|--------|--------|--------|--------|--------|--------|
A|--------|--------|--------|--------|--------|--------|--------|--------|--------|
E|--------|--------|--------|--------|--------|--------|--------|--------|--------|
B|--------|--------|--------|--------|--------|--------|--------|--------|--------|


E|--------|--------|--------|--------|--------|--------|--------|--------|--------|
B|--------|--------|--------|--------|--------|--------|--------|--------|--------|
G|--------|--------|--------|--------|--------|--------|--------|--------|--------|
D|--------|--------|--------|--------|--------|--------|--------|--------|--------|
A|--------|--------|--------|--------|--------|--------|--------|--------|--------|
E|--------|--------|--------|--------|--------|--------|--------|--------|--------|
B|--------|--------|--------|--------|--------|--------|--------|--------|--------|


E|--------|--------|--------|--------|--------|--------|--------|--------|--------|
B|--------|--------|--------|--------|--------|--------|--------|--------|--------|
G|--------|--------|--------|--------|--------|--------|--------|--------|--------|
D|--------|--------|--------|--------|--------|--------|--------|--------|--------|
A|--------|--------|--------|--------|--------|--------|--------|--------|--------|
E|--------|--------|--------|--------|--------|--------|--------|--------|--------|
B|--------|--------|--------|--------|--------|--------|--------|--------|--------|


E|--------|--------|--------|--------|--------|--------|--------|--------|--------|
B|--------|--------|--------|--------|--------|--------|--------|--------|--------|
G|--------|--------|--------|--------|--------|--------|--------|--------|--------|
D|--------|--------|--------|--------|--------|--------|--------|--------|--------|
A|--------|--------|--------|--------|--------|--------|--------|--------|--------|
E|--------|--------|--------|--------|--------|--------|--------|--------|--------|
B|--------|--------|--------|--------|--------|--------|--------|--------|--------|


E|--------|--------|--------|--------|--------|--------|--------|--------|--------|
B|--------|--------|--------|--------|--------|--------|--------|--------|--------|
G|--------|--------|--------|--------|--------|--------|--------|--------|--------|
D|--------|--------|--------|--------|--------|--------|--------|--------|--------|
A|--------|--------|--------|--------|--------|--------|--------|--------|--------|
E|--------|--------|--------|--------|--------|--------|--------|--------|--------|
B|--------|--------|--------|--------|--------|--------|--------|--------|--------|


E|--------|--------|--------|--------|--------|--------|--------|--------|--------|
B|--------|--------|--------|--------|--------|--------|--------|--------|--------|
G|--------|--------|--------|--------|--------|--------|--------|--------|--------|
D|--------|--------|--------|--------|--------|--------|--------|--------|--------|
A|--------|--------|--------|--------|--------|--------|--------|--------|--------|
E|--------|--------|--------|--------|--------|--------|--------|--------|--------|
B|--------|--------|--------|--------|--------|--------|--------|--------|--------|


E|--------|--------|--------|----------------------------|-----------------------------------|
B|--------|--------|--------|----------------------------|-----------------------------------|
G|--------|--------|--------|-------4---5--4-----4---4---|-4-------4---5---4----4---5--4-----|
D|--------|--------|--------|-----------------7----------|-----7--------------------------7--|
A|--------|--------|--------|----------------------------|-----------------------------------|
E|--------|--------|--------|----------------------------|-----------------------------------|
B|--------|--------|--------|----------------------------|-----------------------------------|


E|------------------------------|--------------------------------|------------------------------|
B|------------------------------|--------------------------------|----------------------15--17--|
G|-4---11--11---11--9---11--12--|-11----11--4---5--4-----4---4---|-4-------4---5---4------------|
D|------------------------------|---------------------7----------|-----7------------------------|
A|------------------------------|--------------------------------|------------------------------|
E|------------------------------|--------------------------------|------------------------------|
B|------------------------------|--------------------------------|------------------------------|


E|-------------------------|-----------------------------------|---------------------------------------------|
B|-19----17--15-17-15------|-----------------------------------|-----0---7--0--8--0--7--0--5--0--7--0--8--0--|
G|-------------------------|--------------4---5--4-----4---4---|-4-------------------------------------------|
D|--------------------19---|------19--19------------7----------|---------------------------------------------|
A|-------------------------|-----------------------------------|---------------------------------------------|
E|-------------------------|-----------------------------------|---------------------------------------------|
B|-------------------------|-----------------------------------|---------------------------------------------|


E|-------------------------------------------|---------------14-12-14-12----12-------------|
B|-7---8--7-----7---12--12------12--13-12----|-12---12-13-15-------------15----15-13-12-13-|
G|-----------9--------------14------------14-|---------------------------------------------|
D|-------------------------------------------|---------------------------------------------|
A|-------------------------------------------|---------------------------------------------|
E|-------------------------------------------|---------------------------------------------|
B|-------------------------------------------|---------------------------------------------|


E|----12-14-15----------------------------------------|----------------------------------------------------|
B|-15----------12-13-12----12----------------12-13-15-|-------------------------------------------------17-|
G|----------------------14----14-12-11-12-14----------|----------------------------------------16-17-19----|
D|----------------------------------------------------|-16-17-16----16----------------16-17-19-------------|
A|----------------------------------------------------|----------19----19-17-15-17-19----------------------|
E|----------------------------------------------------|----------------------------------------------------|
B|----------------------------------------------------|----------------------------------------------------|


E|----------------------17-------|--------|--------|--------|--------|--------|--------|
B|-19-20-17-19-20-19-20----------|--------|--------|--------|--------|--------|--------|
G|-------------------------------|--------|--------|--------|--------|--------|--------|
D|-------------------------------|--------|--------|--------|--------|--------|--------|
A|-------------------------------|--------|--------|--------|--------|--------|--------|
E|-------------------------------|--------|--------|--------|--------|--------|--------|
B|-------------------------------|--------|--------|--------|--------|--------|--------|


E|--------|--------|--------|--------|--------|--------|--------|--------|--------|
B|--------|--------|--------|--------|--------|--------|--------|--------|--------|
G|--------|--------|--------|--------|--------|--------|--------|--------|--------|
D|--------|--------|--------|--------|--------|--------|--------|--------|--------|
A|--------|--------|--------|--------|--------|--------|--------|--------|--------|
E|--------|--------|--------|--------|--------|--------|--------|--------|--------|
B|--------|--------|--------|--------|--------|--------|--------|--------|--------|


E|--------|--------|--------|--------|--------|--------|--------|--------|--------|
B|--------|--------|--------|--------|--------|--------|--------|--------|--------|
G|--------|--------|--------|--------|--------|--------|--------|--------|--------|
D|--------|--------|--------|--------|--------|--------|--------|--------|--------|
A|--------|--------|--------|--------|--------|--------|--------|--------|--------|
E|--------|--------|--------|--------|--------|--------|--------|--------|--------|
B|--------|--------|--------|--------|--------|--------|--------|--------|--------|


E|--------|--------|--------|--------|--------|--------|--------|--------|--------|
B|--------|--------|--------|--------|--------|--------|--------|--------|--------|
G|--------|--------|--------|--------|--------|--------|--------|--------|--------|
D|--------|--------|--------|--------|--------|--------|--------|--------|--------|
A|--------|--------|--------|--------|--------|--------|--------|--------|--------|
E|--------|--------|--------|--------|--------|--------|--------|--------|--------|
B|--------|--------|--------|--------|--------|--------|--------|--------|--------|


E|--------|--------|--------|--------|--------|--------|--------|--------|--------|
B|--------|--------|--------|--------|--------|--------|--------|--------|--------|
G|--------|--------|--------|--------|--------|--------|--------|--------|--------|
D|--------|--------|--------|--------|--------|--------|--------|--------|--------|
A|--------|--------|--------|--------|--------|--------|--------|--------|--------|
E|--------|--------|--------|--------|--------|--------|--------|--------|--------|
B|--------|--------|--------|--------|--------|--------|--------|--------|--------|


E|--------|--------|--------|--------|--------|--------|--------|--------|--------|
B|--------|--------|--------|--------|--------|--------|--------|--------|--------|
G|--------|--------|--------|--------|--------|--------|--------|--------|--------|
D|--------|--------|--------|--------|--------|--------|--------|--------|--------|
A|--------|--------|--------|--------|--------|--------|--------|--------|--------|
E|--------|--------|--------|--------|--------|--------|--------|--------|--------|
B|--------|--------|--------|--------|--------|--------|--------|--------|--------|


E|--------|--------|--------|--------|--------|--------|--------|--------|--------|
B|--------|--------|--------|--------|--------|--------|--------|--------|--------|
G|--------|--------|--------|--------|--------|--------|--------|--------|--------|
D|--------|--------|--------|--------|--------|--------|--------|--------|--------|
A|--------|--------|--------|--------|--------|--------|--------|--------|--------|
E|--------|--------|--------|--------|--------|--------|--------|--------|--------|
B|--------|--------|--------|--------|--------|--------|--------|--------|--------|


E|--------|--------|--------|--------|--------|--------|--------|--------|--------|
B|--------|--------|--------|--------|--------|--------|--------|--------|--------|
G|--------|--------|--------|--------|--------|--------|--------|--------|--------|
D|--------|--------|--------|--------|--------|--------|--------|--------|--------|
A|--------|--------|--------|--------|--------|--------|--------|--------|--------|
E|--------|--------|--------|--------|--------|--------|--------|--------|--------|
B|--------|--------|--------|--------|--------|--------|--------|--------|--------|


E|--------|--------|--------|--------|--------|--------|--------|--------|--------|
B|--------|--------|--------|--------|--------|--------|--------|--------|--------|
G|--------|--------|--------|--------|--------|--------|--------|--------|--------|
D|--------|--------|--------|--------|--------|--------|--------|--------|--------|
A|--------|--------|--------|--------|--------|--------|--------|--------|--------|
E|--------|--------|--------|--------|--------|--------|--------|--------|--------|
B|--------|--------|--------|--------|--------|--------|--------|--------|--------|


E|--------|--------|--------|--------|--------|--------|--------|--------|--------|
B|--------|--------|--------|--------|--------|--------|--------|--------|--------|
G|--------|--------|--------|--------|--------|--------|--------|--------|--------|
D|--------|--------|--------|--------|--------|--------|--------|--------|--------|
A|--------|--------|--------|--------|--------|--------|--------|--------|--------|
E|--------|--------|--------|--------|--------|--------|--------|--------|--------|
B|--------|--------|--------|--------|--------|--------|--------|--------|--------|


E|--------|--------|--------|--------|--------|--------|--------|--------|--------|
B|--------|--------|--------|--------|--------|--------|--------|--------|--------|
G|--------|--------|--------|--------|--------|--------|--------|--------|--------|
D|--------|--------|--------|--------|--------|--------|--------|--------|--------|
A|--------|--------|--------|--------|--------|--------|--------|--------|--------|
E|--------|--------|--------|--------|--------|--------|--------|--------|--------|
B|--------|--------|--------|--------|--------|--------|--------|--------|--------|


E|--------|--------|--------|--------|--------|--------|--------|--------|--------|
B|--------|--------|--------|--------|--------|--------|--------|--------|--------|
G|--------|--------|--------|--------|--------|--------|--------|--------|--------|
D|--------|--------|--------|--------|--------|--------|--------|--------|--------|
A|--------|--------|--------|--------|--------|--------|--------|--------|--------|
E|--------|--------|--------|--------|--------|--------|--------|--------|--------|
B|--------|--------|--------|--------|--------|--------|--------|--------|--------|


E|--------|--------|--------|--------|--------|--------|--------|--------|--------|
B|--------|--------|--------|--------|--------|--------|--------|--------|--------|
G|--------|--------|--------|--------|--------|--------|--------|--------|--------|
D|--------|--------|--------|--------|--------|--------|--------|--------|--------|
A|--------|--------|--------|--------|--------|--------|--------|--------|--------|
E|--------|--------|--------|--------|--------|--------|--------|--------|--------|
B|--------|--------|--------|--------|--------|--------|--------|--------|--------|


E|--------|--------|--------|--------|--------|--------|--------|--------|--------|
B|--------|--------|--------|--------|--------|--------|--------|--------|--------|
G|--------|--------|--------|--------|--------|--------|--------|--------|--------|
D|--------|--------|--------|--------|--------|--------|--------|--------|--------|
A|--------|--------|--------|--------|--------|--------|--------|--------|--------|
E|--------|--------|--------|--------|--------|--------|--------|--------|--------|
B|--------|--------|--------|--------|--------|--------|--------|--------|--------|


E|--------|--------|--------|--------|--------|--------|--------|--------|--------|
B|--------|--------|--------|--------|--------|--------|--------|--------|--------|
G|--------|--------|--------|--------|--------|--------|--------|--------|--------|
D|--------|--------|--------|--------|--------|--------|--------|--------|--------|
A|--------|--------|--------|--------|--------|--------|--------|--------|--------|
E|--------|--------|--------|--------|--------|--------|--------|--------|--------|
B|--------|--------|--------|--------|--------|--------|--------|--------|--------|


E|--------|--------|--------|--------|--------|--------|--------|--------|--------|
B|--------|--------|--------|--------|--------|--------|--------|--------|--------|
G|--------|--------|--------|--------|--------|--------|--------|--------|--------|
D|--------|--------|--------|--------|--------|--------|--------|--------|--------|
A|--------|--------|--------|--------|--------|--------|--------|--------|--------|
E|--------|--------|--------|--------|--------|--------|--------|--------|--------|
B|--------|--------|--------|--------|--------|--------|--------|--------|--------|


E|--------|--------|--------|--------|--------|--------|--------|--------|--------|
B|--------|--------|--------|--------|--------|--------|--------|--------|--------|
G|--------|--------|--------|--------|--------|--------|--------|--------|--------|
D|--------|--------|--------|--------|--------|--------|--------|--------|--------|
A|--------|--------|--------|--------|--------|--------|--------|--------|--------|
E|--------|--------|--------|--------|--------|--------|--------|--------|--------|
B|--------|--------|--------|--------|--------|--------|--------|--------|--------|


E|--------|--------|--------|--------|--------|--------|--------|--------|--------|
B|--------|--------|--------|--------|--------|--------|--------|--------|--------|
G|--------|--------|--------|--------|--------|--------|--------|--------|--------|
D|--------|--------|--------|--------|--------|--------|--------|--------|--------|
A|--------|--------|--------|--------|--------|--------|--------|--------|--------|
E|--------|--------|--------|--------|--------|--------|--------|--------|--------|
B|--------|--------|--------|--------|--------|--------|--------|--------|--------|


E|--------|--------|--------|--------|--------|--------|--------|--------|--------|
B|--------|--------|--------|--------|--------|--------|--------|--------|--------|
G|--------|--------|--------|--------|--------|--------|--------|--------|--------|
D|--------|--------|--------|--------|--------|--------|--------|--------|--------|
A|--------|--------|--------|--------|--------|--------|--------|--------|--------|
E|--------|--------|--------|--------|--------|--------|--------|--------|--------|
B|--------|--------|--------|--------|--------|--------|--------|--------|--------|


E|--------|--------|--------|--------|--------|--------|--------|--------|--------|
B|--------|--------|--------|--------|--------|--------|--------|--------|--------|
G|--------|--------|--------|--------|--------|--------|--------|--------|--------|
D|--------|--------|--------|--------|--------|--------|--------|--------|--------|
A|--------|--------|--------|--------|--------|--------|--------|--------|--------|
E|--------|--------|--------|--------|--------|--------|--------|--------|--------|
B|--------|--------|--------|--------|--------|--------|--------|--------|--------|


E|--------|------------------------------------------------------------|-------------------------------------------------------------------------|
B|--------|------8--9--11-8--9--11-8--9--11-8--9--11-8--9--11-8--9--11-|-8--9--11-8--9--11-8--9--11-8--9--11-8--9--11-8--9--11-9--11-12-14-16-14-|
G|--------|------------------------------------------------------------|-------------------------------------------------------------------------|
D|--------|------------------------------------------------------------|-------------------------------------------------------------------------|
A|--------|------------------------------------------------------------|-------------------------------------------------------------------------|
E|--------|------------------------------------------------------------|-------------------------------------------------------------------------|
B|--------|------------------------------------------------------------|-------------------------------------------------------------------------|


E|-------------------------------------------------------------------------|---------------------------------------------------------------------------------|
B|-12-11-9--11-12-14-16-14-12-11-9--11-12-14-16-14-12-11-9--11-12-14-16-14-|-12-11-9--11-12-14-161412119-1112141616-14-12-1614161412-11-9--8--9--11-9--8-----|
G|-------------------------------------------------------------------------|------------------------------------------------------------------------------11-|
D|-------------------------------------------------------------------------|---------------------------------------------------------------------------------|
A|-------------------------------------------------------------------------|---------------------------------------------------------------------------------|
E|-------------------------------------------------------------------------|---------------------------------------------------------------------------------|
B|-------------------------------------------------------------------------|---------------------------------------------------------------------------------|


E|----------------------------------------------------------------------------------|
B|----------------------------------------------------------------------------------|
G|-9--8--9--11-9--8-----------------------------------------------------------------|
D|-------------------11-9--8--9--11-9--8--9--8--6--8--9--8--6--8--6--5--6--8--6--5--|
A|----------------------------------------------------------------------------------|
E|----------------------------------------------------------------------------------|
B|----------------------------------------------------------------------------------|


E|-------------------------------------------------------------------------|------------------------------------------------------------|
B|-------------------------------------------------------------------------|------------------------------------------------------------|
G|-------------------------------------------------------------------------|------------------------------------------------------------|
D|-------------------------------------------------------------------------|------------------------------------------------------------|
A|-6--4--2--4--6--4--6--4--2-----------------------------------------------|-------------------6--6--6--6--6--6--6--6--6--6--6--6--6----|
E|----------------------------6--4--3--4--6--4--6--4--3--------------------|------------------------------------------------------------|
B|-------------------------------------------------------5--4--2--4--5--4--|-5--4--2--4--4--4-------------------------------------------|


E|------------------------|-----11------11-----11-12-111211----11-12-|-15-11-12----11---------------------------|
B|---------------14--14---|---------14-----14---------------14-------|----------14----12-14-11-12----11---------|
G|-------------14---------|------------------------------------------|----------------------------13----13-12---|
D|-----------14-----------|------------------------------------------|------------------------------------------|
A|---------14-------------|------------------------------------------|------------------------------------------|
E|-------14---------------|------------------------------------------|------------------------------------------|
B|------------------------|------------------------------------------|------------------------------------------|


E|-------------------------------------------------------11-12-11----11-12-|-11-----------------------------11-12-15-16-15-12-15-16-15-12-------------|
B|-16-14-12-14-16-14-12-------------------------11-12-14----------14-------|----14-12-11----1112---11-12-14-------------------------------16-14-12-14-|
G|----------------------15-13-12-13-15-13-12-13----------------------------|-------------13-----13----------------------------------------------------|
D|-------------------------------------------------------------------------|--------------------------------------------------------------------------|
A|-------------------------------------------------------------------------|--------------------------------------------------------------------------|
E|-------------------------------------------------------------------------|--------------------------------------------------------------------------|
B|-------------------------------------------------------------------------|--------------------------------------------------------------------------|


E|-------------12-15-18-16-15-16-18-16-15----15-16-18-16-15-15-15-18-19-21-|-21---------------------------------------|
B|-16-14-12-16----------------------------17-------------------------------|------------------------------------------|
G|-------------------------------------------------------------------------|------8--6-----------------8--6-----------|
D|-------------------------------------------------------------------------|------------8--6-----------------8--6-----|
A|-------------------------------------------------------------------------|------------------9--7--6--------------9--|
E|-------------------------------------------------------------------------|------------------------------------------|
B|-------------------------------------------------------------------------|------------------------------------------|


E|-------------------------------------------------|-------------------------------|
B|-------------------------------------------------|-------------------------------|
G|-------8--6-----------------8--6-----------------|-------------------------------|
D|-------------8--6-----------------8--6-----------|-------6--8--------------------|
A|-7--6--------------9--7--6--------------9--7--6--|-7--9--------6-----------------|
E|-------------------------------------------------|-------------------------------|
B|-------------------------------------------------|-------------------------------|


E|--------|--------|--------|--------|--------|--------|--------|--------|--------|
B|--------|--------|--------|--------|--------|--------|--------|--------|--------|
G|--------|--------|--------|--------|--------|--------|--------|--------|--------|
D|--------|--------|--------|--------|--------|--------|--------|--------|--------|
A|--------|--------|--------|--------|--------|--------|--------|--------|--------|
E|--------|--------|--------|--------|--------|--------|--------|--------|--------|
B|--------|--------|--------|--------|--------|--------|--------|--------|--------|


E|--------|--------|--------|--------|--------|--------|--------|--------|--------|
B|--------|--------|--------|--------|--------|--------|--------|--------|--------|
G|--------|--------|--------|--------|--------|--------|--------|--------|--------|
D|--------|--------|--------|--------|--------|--------|--------|--------|--------|
A|--------|--------|--------|--------|--------|--------|--------|--------|--------|
E|--------|--------|--------|--------|--------|--------|--------|--------|--------|
B|--------|--------|--------|--------|--------|--------|--------|--------|--------|


E|--------|--------|--------|--------|--------|--------|--------|--------|--------|
B|--------|--------|--------|--------|--------|--------|--------|--------|--------|
G|--------|--------|--------|--------|--------|--------|--------|--------|--------|
D|--------|--------|--------|--------|--------|--------|--------|--------|--------|
A|--------|--------|--------|--------|--------|--------|--------|--------|--------|
E|--------|--------|--------|--------|--------|--------|--------|--------|--------|
B|--------|--------|--------|--------|--------|--------|--------|--------|--------|


E|--------|--------|--------|--------|--------|--------|--------|--------|--------|
B|--------|--------|--------|--------|--------|--------|--------|--------|--------|
G|--------|--------|--------|--------|--------|--------|--------|--------|--------|
D|--------|--------|--------|--------|--------|--------|--------|--------|--------|
A|--------|--------|--------|--------|--------|--------|--------|--------|--------|
E|--------|--------|--------|--------|--------|--------|--------|--------|--------|
B|--------|--------|--------|--------|--------|--------|--------|--------|--------|


E|--------|--------|--------|--------|--------|--------|--------|--------|--------|
B|--------|--------|--------|--------|--------|--------|--------|--------|--------|
G|--------|--------|--------|--------|--------|--------|--------|--------|--------|
D|--------|--------|--------|--------|--------|--------|--------|--------|--------|
A|--------|--------|--------|--------|--------|--------|--------|--------|--------|
E|--------|--------|--------|--------|--------|--------|--------|--------|--------|
B|--------|--------|--------|--------|--------|--------|--------|--------|--------|





Track 3: Rhythm 2

E|--------|--------|--------|--------|--------|--------|--------|--------|--------|
B|--------|--------|--------|--------|--------|--------|--------|--------|--------|
G|--------|--------|--------|--------|--------|--------|--------|--------|--------|
D|--------|--------|--------|--------|--------|--------|--------|--------|--------|
A|--------|--------|--------|--------|--------|--------|--------|--------|--------|
E|--------|--------|--------|--------|--------|--------|--------|--------|--------|
B|--------|--------|--------|--------|--------|--------|--------|--------|--------|


E|--------|--------|--------|--------|--------|--------|--------|--------|--------|
B|--------|--------|--------|--------|--------|--------|--------|--------|--------|
G|--------|--------|--------|--------|--------|--------|--------|--------|--------|
D|--------|--------|--------|--------|--------|--------|--------|--------|--------|
A|--------|--------|--------|--------|--------|--------|--------|--------|--------|
E|--------|--------|--------|--------|--------|--------|--------|--------|--------|
B|--------|--------|--------|--------|--------|--------|--------|--------|--------|


E|--------|--------|--------|--------|--------|--------|--------|--------|--------|
B|--------|--------|--------|--------|--------|--------|--------|--------|--------|
G|--------|--------|--------|--------|--------|--------|--------|--------|--------|
D|--------|--------|--------|--------|--------|--------|--------|--------|--------|
A|--------|--------|--------|--------|--------|--------|--------|--------|--------|
E|--------|--------|--------|--------|--------|--------|--------|--------|--------|
B|--------|--------|--------|--------|--------|--------|--------|--------|--------|


E|--------|--------|--------|--------|--------|----------------|---------------------------------|
B|--------|--------|--------|--------|--------|----------------|---------------------------------|
G|--------|--------|--------|--------|--------|----------------|---------4---4---4---5---4-------|
D|--------|--------|--------|--------|--------|----------------|---------------------------------|
A|--------|--------|--------|--------|--------|------------0---|-2---2-----------------------2---|
E|--------|--------|--------|--------|--------|----------------|---------------------------------|
B|--------|--------|--------|--------|--------|----------------|---------------------------------|


E|---------------------------------|------------------------------|---------------------------------|
B|---------------------------------|------------------------------|---------------------------------|
G|-4---4---4---------------4---4---|-4---5---4--------------------|---------4---4---4---5---4-------|
D|---------------------------------|-----------------5---4--------|---------------------------------|
A|-------------0---2---2-----------|-------------2----------------|---------------------------------|
E|---------------------------------|--------------------------0---|-----0-----------------------0---|
B|---------------------------------|------------------------------|---------------------------------|


E|------------------------------|------------------------------|---------------------------------|
B|------------------------------|------------------------------|---------------------------------|
G|-4---4---4------------4---4---|-4------------4---4---4-------|---------4---4---4---5---4-------|
D|------------------------------|------------------------------|---------------------------------|
A|------------------------------|-----0----0---------------0---|-2---2-----------------------2---|
E|-------------3----3-----------|------------------------------|---------------------------------|
B|------------------------------|------------------------------|---------------------------------|


E|---------------------------------|------------------------|---------------------------------|
B|---------------------------------|------------------------|---------------------------------|
G|-4---4---4---------------4---4---|-4----------------------|---------4---4---4---5---4-------|
D|---------------------------------|-----5----5----5--------|---------------------------------|
A|-------------0---2---2-----------|------------------------|---------------------------------|
E|---------------------------------|--------------------2---|-----2-----------------------2---|
B|---------------------------------|------------------------|---------------------------------|


E|------------------------------|------------------------|---------------0----0---|
B|------------------------------|------------------------|---------------0----0---|
G|-4---4---4------------4---4---|-4----------------------|---------------4----4---|
D|------------------------------|--------------------2---|------2--------2----2---|
A|------------------------------|--------------------2---|------2----2------------|
E|-------------0----0-----------|--------------------0---|------0----0------------|
B|------------------------------|-----3----1----0--------|------------------------|


E|---------------------|---------------------|---------------------|------------------------|
B|---------------------|---------------------|---------------------|------------------------|
G|---------------------|---------------------|---------------------|------------------------|
D|---------------------|---------------------|---------------------|------------------------|
A|-----4-----4-----4---|-----4----3-----3----|-3---3----3----------|------------------------|
E|-----4-----4-----4---|-----4----3-----3----|-3---3----3----2-----|-2----0---2----3--------|
B|-----2-----2-----2---|-----2----1-----1----|-1---1----1----------|------------------------|


E|--------|--------|--------|--------|--------|--------|--------|--------|--------|
B|--------|--------|--------|--------|--------|--------|--------|--------|--------|
G|--------|--------|--------|--------|--------|--------|--------|--------|--------|
D|--------|--------|--------|--------|--------|--------|--------|--------|--------|
A|--------|--------|--------|--------|--------|--------|--------|--------|--------|
E|--------|--------|--------|--------|--------|--------|--------|--------|--------|
B|--------|--------|--------|--------|--------|--------|--------|--------|--------|


E|--------|--------|--------|--------|--------|--------|--------|--------|--------|
B|--------|--------|--------|--------|--------|--------|--------|--------|--------|
G|--------|--------|--------|--------|--------|--------|--------|--------|--------|
D|--------|--------|--------|--------|--------|--------|--------|--------|--------|
A|--------|--------|--------|--------|--------|--------|--------|--------|--------|
E|--------|--------|--------|--------|--------|--------|--------|--------|--------|
B|--------|--------|--------|--------|--------|--------|--------|--------|--------|


E|--------|--------|--------|--------|--------|--------|--------|--------|--------|
B|--------|--------|--------|--------|--------|--------|--------|--------|--------|
G|--------|--------|--------|--------|--------|--------|--------|--------|--------|
D|--------|--------|--------|--------|--------|--------|--------|--------|--------|
A|--------|--------|--------|--------|--------|--------|--------|--------|--------|
E|--------|--------|--------|--------|--------|--------|--------|--------|--------|
B|--------|--------|--------|--------|--------|--------|--------|--------|--------|


E|--------|--------|--------|--------|--------|--------|--------|--------|--------|
B|--------|--------|--------|--------|--------|--------|--------|--------|--------|
G|--------|--------|--------|--------|--------|--------|--------|--------|--------|
D|--------|--------|--------|--------|--------|--------|--------|--------|--------|
A|--------|--------|--------|--------|--------|--------|--------|--------|--------|
E|--------|--------|--------|--------|--------|--------|--------|--------|--------|
B|--------|--------|--------|--------|--------|--------|--------|--------|--------|


E|--------|--------|--------|--------|--------|--------|--------|--------|--------|
B|--------|--------|--------|--------|--------|--------|--------|--------|--------|
G|--------|--------|--------|--------|--------|--------|--------|--------|--------|
D|--------|--------|--------|--------|--------|--------|--------|--------|--------|
A|--------|--------|--------|--------|--------|--------|--------|--------|--------|
E|--------|--------|--------|--------|--------|--------|--------|--------|--------|
B|--------|--------|--------|--------|--------|--------|--------|--------|--------|


E|--------|--------|--------|--------|--------|--------|--------|--------|--------|
B|--------|--------|--------|--------|--------|--------|--------|--------|--------|
G|--------|--------|--------|--------|--------|--------|--------|--------|--------|
D|--------|--------|--------|--------|--------|--------|--------|--------|--------|
A|--------|--------|--------|--------|--------|--------|--------|--------|--------|
E|--------|--------|--------|--------|--------|--------|--------|--------|--------|
B|--------|--------|--------|--------|--------|--------|--------|--------|--------|


E|--------|--------|--------|--------|--------|--------|--------|--------|--------|
B|--------|--------|--------|--------|--------|--------|--------|--------|--------|
G|--------|--------|--------|--------|--------|--------|--------|--------|--------|
D|--------|--------|--------|--------|--------|--------|--------|--------|--------|
A|--------|--------|--------|--------|--------|--------|--------|--------|--------|
E|--------|--------|--------|--------|--------|--------|--------|--------|--------|
B|--------|--------|--------|--------|--------|--------|--------|--------|--------|


E|--------|--------|--------|--------|--------|--------|--------|--------|--------|
B|--------|--------|--------|--------|--------|--------|--------|--------|--------|
G|--------|--------|--------|--------|--------|--------|--------|--------|--------|
D|--------|--------|--------|--------|--------|--------|--------|--------|--------|
A|--------|--------|--------|--------|--------|--------|--------|--------|--------|
E|--------|--------|--------|--------|--------|--------|--------|--------|--------|
B|--------|--------|--------|--------|--------|--------|--------|--------|--------|


E|--------|--------|--------|---------------------------|---------------------------------|
B|--------|--------|--------|---------------------------|---------------------------------|
G|--------|--------|--------|-------------------4---4---|-4---5---4-------4---4---4-------|
D|--------|--------|--------|---------------------------|---------------------------------|
A|--------|--------|--------|-------0---2---2-----------|-------------2---------------0---|
E|--------|--------|--------|---------------------------|---------------------------------|
B|--------|--------|--------|---------------------------|---------------------------------|


E|---------------------------------|---------------------------|---------------------------------|
B|---------------------------------|---------------------------|---------------------------------|
G|---------4---4---4---5---4-------|-------------------4---4---|-4---5---4-------4---4---4-------|
D|---------------------------------|-5---4---------------------|---------------------------------|
A|-2---2-----------------------2---|---------------------------|---------------------------------|
E|---------------------------------|----------0----0-----------|-------------0---------------3---|
B|---------------------------------|---------------------------|---------------------------------|


E|------------------------------|---------------------------------|---------------------------------|
B|------------------------------|---------------------------------|---------------------------------|
G|---------4---4---4------------|-4---4---4---------------4---4---|-4---5---4-------4---4---4-------|
D|------------------------------|---------------------------------|---------------------------------|
A|---------------------0----0---|-------------0---2---2-----------|-------------2---------------0---|
E|-----3------------------------|---------------------------------|---------------------------------|
B|------------------------------|---------------------------------|---------------------------------|


E|------------------------------|------------------------------|---------------------------------|
B|------------------------------|------------------------------|---------------------------------|
G|---------4---4---4------------|-4---4---4------------4---4---|-4---5---4-------4---4---4-------|
D|------------------------------|------------------------------|---------------------------------|
A|-2---2------------------------|------------------------------|---------------------------------|
E|---------------------3----3---|-------------2----2-----------|-------------2---------------0---|
B|------------------------------|------------------------------|---------------------------------|


E|------------------------------|-----------------------|--------|--------|--------|
B|------------------------------|-----------------------|--------|--------|--------|
G|---------4---4---4------------|-4---4---4-------------|--------|--------|--------|
D|------------------------------|-----------------------|--------|--------|--------|
A|------------------------------|-----------------------|--------|--------|--------|
E|-----0------------------------|-----------------------|--------|--------|--------|
B|---------------------3----3---|-----------------------|--------|--------|--------|


E|--------|--------|--------|--------|--------|--------|--------|--------|--------|
B|--------|--------|--------|--------|--------|--------|--------|--------|--------|
G|--------|--------|--------|--------|--------|--------|--------|--------|--------|
D|--------|--------|--------|--------|--------|--------|--------|--------|--------|
A|--------|--------|--------|--------|--------|--------|--------|--------|--------|
E|--------|--------|--------|--------|--------|--------|--------|--------|--------|
B|--------|--------|--------|--------|--------|--------|--------|--------|--------|


E|--------|--------|--------|--------|--------|--------|--------|--------|--------|
B|--------|--------|--------|--------|--------|--------|--------|--------|--------|
G|--------|--------|--------|--------|--------|--------|--------|--------|--------|
D|--------|--------|--------|--------|--------|--------|--------|--------|--------|
A|--------|--------|--------|--------|--------|--------|--------|--------|--------|
E|--------|--------|--------|--------|--------|--------|--------|--------|--------|
B|--------|--------|--------|--------|--------|--------|--------|--------|--------|


E|--------|--------|--------|--------|--------|--------|--------|--------|--------|
B|--------|--------|--------|--------|--------|--------|--------|--------|--------|
G|--------|--------|--------|--------|--------|--------|--------|--------|--------|
D|--------|--------|--------|--------|--------|--------|--------|--------|--------|
A|--------|--------|--------|--------|--------|--------|--------|--------|--------|
E|--------|--------|--------|--------|--------|--------|--------|--------|--------|
B|--------|--------|--------|--------|--------|--------|--------|--------|--------|


E|--------|--------|--------|--------|--------|--------|--------|--------|--------|
B|--------|--------|--------|--------|--------|--------|--------|--------|--------|
G|--------|--------|--------|--------|--------|--------|--------|--------|--------|
D|--------|--------|--------|--------|--------|--------|--------|--------|--------|
A|--------|--------|--------|--------|--------|--------|--------|--------|--------|
E|--------|--------|--------|--------|--------|--------|--------|--------|--------|
B|--------|--------|--------|--------|--------|--------|--------|--------|--------|


E|--------|--------|--------|--------|--------|--------|--------|--------|--------|
B|--------|--------|--------|--------|--------|--------|--------|--------|--------|
G|--------|--------|--------|--------|--------|--------|--------|--------|--------|
D|--------|--------|--------|--------|--------|--------|--------|--------|--------|
A|--------|--------|--------|--------|--------|--------|--------|--------|--------|
E|--------|--------|--------|--------|--------|--------|--------|--------|--------|
B|--------|--------|--------|--------|--------|--------|--------|--------|--------|


E|--------|--------|--------|--------|--------|--------|--------|--------|--------|
B|--------|--------|--------|--------|--------|--------|--------|--------|--------|
G|--------|--------|--------|--------|--------|--------|--------|--------|--------|
D|--------|--------|--------|--------|--------|--------|--------|--------|--------|
A|--------|--------|--------|--------|--------|--------|--------|--------|--------|
E|--------|--------|--------|--------|--------|--------|--------|--------|--------|
B|--------|--------|--------|--------|--------|--------|--------|--------|--------|


E|--------|--------|--------|--------|--------|--------|--------|-----------------------|
B|--------|--------|--------|--------|--------|--------|--------|-----------------------|
G|--------|--------|--------|--------|--------|--------|--------|-------------------4---|
D|--------|--------|--------|--------|--------|--------|--------|-----------------------|
A|--------|--------|--------|--------|--------|--------|--------|-------0---2---2-------|
E|--------|--------|--------|--------|--------|--------|--------|-----------------------|
B|--------|--------|--------|--------|--------|--------|--------|-----------------------|


E|---------------------------------|---------------------------------|---------------------------|
B|---------------------------------|---------------------------------|---------------------------|
G|-4---4---5---4-------4---4---4---|-------------4---4---4---5---4---|-----------------------4---|
D|---------------------------------|---------------------------------|-----5---4-----------------|
A|-----------------2---------------|-0---2---2-----------------------|-2-------------------------|
E|---------------------------------|---------------------------------|--------------0----0-------|
B|---------------------------------|---------------------------------|---------------------------|


E|---------------------------------|---------------------------|---------------------------------|
B|---------------------------------|---------------------------|---------------------------------|
G|-4---4---5---4-------4---4---4---|----------4---4---4--------|-----4---4---4---------------4---|
D|---------------------------------|---------------------------|---------------------------------|
A|---------------------------------|----------------------0----|-0---------------0---2---2-------|
E|-----------------0---------------|-3----3--------------------|---------------------------------|
B|---------------------------------|---------------------------|---------------------------------|


E|---------------------------------|------------------------------|------------------------|
B|---------------------------------|------------------------------|------------------------|
G|-4---4---5---4-------4---4---4---|-------------4---4---4--------|--------------------4---|
D|---------------------------------|-------------------------5----|-5----5-----------------|
A|-----------------2---------------|-0---2---2--------------------|------------------------|
E|---------------------------------|------------------------------|-----------2----2-------|
B|---------------------------------|------------------------------|------------------------|


E|---------------------------------|---------------------------|---------------------|
B|---------------------------------|---------------------------|---------------------|
G|-4---4---5---4-------4---4---4---|----------4---4---4--------|---------------------|
D|---------------------------------|---------------------------|-----------2-----2---|
A|---------------------------------|---------------------------|-----------2-----2---|
E|-----------------2---------------|-0----0--------------------|-----------0-----0---|
B|---------------------------------|----------------------3----|-1----0--------------|


E|---------0----0---------|---------------------|---------------------|---------------------|
B|---------0----0---------|---------------------|---------------------|---------------------|
G|---------4----4---------|---------------------|---------------------|---------------------|
D|---------2----2---------|---------------------|---------------------|---------------------|
A|-----2-------------4----|-----4-----4----4----|-3-----3----3---3----|-3----3--------------|
E|-----0-------------4----|-----4-----4----4----|-3-----3----3---3----|-3----3----2-----3---|
B|-------------------2----|-----2-----2----2----|-1-----1----1---1----|-1----1--------------|


E|--------------------|--------|--------|--------|--------|--------|--------|--------|
B|--------------------|--------|--------|--------|--------|--------|--------|--------|
G|--------------------|--------|--------|--------|--------|--------|--------|--------|
D|------4---4---------|--------|--------|--------|--------|--------|--------|--------|
A|------2---2---------|--------|--------|--------|--------|--------|--------|--------|
E|--------------------|--------|--------|--------|--------|--------|--------|--------|
B|--------------------|--------|--------|--------|--------|--------|--------|--------|


E|--------|--------|--------|--------|--------|--------|--------|--------|--------|
B|--------|--------|--------|--------|--------|--------|--------|--------|--------|
G|--------|--------|--------|--------|--------|--------|--------|--------|--------|
D|--------|--------|--------|--------|--------|--------|--------|--------|--------|
A|--------|--------|--------|--------|--------|--------|--------|--------|--------|
E|--------|--------|--------|--------|--------|--------|--------|--------|--------|
B|--------|--------|--------|--------|--------|--------|--------|--------|--------|


E|--------|--------|--------|--------|--------|--------|--------|--------|--------|
B|--------|--------|--------|--------|--------|--------|--------|--------|--------|
G|--------|--------|--------|--------|--------|--------|--------|--------|--------|
D|--------|--------|--------|--------|--------|--------|--------|--------|--------|
A|--------|--------|--------|--------|--------|--------|--------|--------|--------|
E|--------|--------|--------|--------|--------|--------|--------|--------|--------|
B|--------|--------|--------|--------|--------|--------|--------|--------|--------|


E|--------|--------|--------|--------|--------|--------|--------|--------|--------|
B|--------|--------|--------|--------|--------|--------|--------|--------|--------|
G|--------|--------|--------|--------|--------|--------|--------|--------|--------|
D|--------|--------|--------|--------|--------|--------|--------|--------|--------|
A|--------|--------|--------|--------|--------|--------|--------|--------|--------|
E|--------|--------|--------|--------|--------|--------|--------|--------|--------|
B|--------|--------|--------|--------|--------|--------|--------|--------|--------|


E|--------|--------|--------|--------|--------|--------|--------|--------|--------|
B|--------|--------|--------|--------|--------|--------|--------|--------|--------|
G|--------|--------|--------|--------|--------|--------|--------|--------|--------|
D|--------|--------|--------|--------|--------|--------|--------|--------|--------|
A|--------|--------|--------|--------|--------|--------|--------|--------|--------|
E|--------|--------|--------|--------|--------|--------|--------|--------|--------|
B|--------|--------|--------|--------|--------|--------|--------|--------|--------|


E|--------|--------|--------|--------|--------|--------|--------|--------|--------|
B|--------|--------|--------|--------|--------|--------|--------|--------|--------|
G|--------|--------|--------|--------|--------|--------|--------|--------|--------|
D|--------|--------|--------|--------|--------|--------|--------|--------|--------|
A|--------|--------|--------|--------|--------|--------|--------|--------|--------|
E|--------|--------|--------|--------|--------|--------|--------|--------|--------|
B|--------|--------|--------|--------|--------|--------|--------|--------|--------|


E|--------|--------|--------|--------|--------|--------|--------|--------|--------|
B|--------|--------|--------|--------|--------|--------|--------|--------|--------|
G|--------|--------|--------|--------|--------|--------|--------|--------|--------|
D|--------|--------|--------|--------|--------|--------|--------|--------|--------|
A|--------|--------|--------|--------|--------|--------|--------|--------|--------|
E|--------|--------|--------|--------|--------|--------|--------|--------|--------|
B|--------|--------|--------|--------|--------|--------|--------|--------|--------|


E|--------|--------|--------|--------|--------|--------|--------|--------|--------|
B|--------|--------|--------|--------|--------|--------|--------|--------|--------|
G|--------|--------|--------|--------|--------|--------|--------|--------|--------|
D|--------|--------|--------|--------|--------|--------|--------|--------|--------|
A|--------|--------|--------|--------|--------|--------|--------|--------|--------|
E|--------|--------|--------|--------|--------|--------|--------|--------|--------|
B|--------|--------|--------|--------|--------|--------|--------|--------|--------|


E|--------|--------|--------|--------|--------|--------|--------|--------|--------|
B|--------|--------|--------|--------|--------|--------|--------|--------|--------|
G|--------|--------|--------|--------|--------|--------|--------|--------|--------|
D|--------|--------|--------|--------|--------|--------|--------|--------|--------|
A|--------|--------|--------|--------|--------|--------|--------|--------|--------|
E|--------|--------|--------|--------|--------|--------|--------|--------|--------|
B|--------|--------|--------|--------|--------|--------|--------|--------|--------|


E|--------|--------|--------|--------|--------|--------|--------|--------|--------|
B|--------|--------|--------|--------|--------|--------|--------|--------|--------|
G|--------|--------|--------|--------|--------|--------|--------|--------|--------|
D|--------|--------|--------|--------|--------|--------|--------|--------|--------|
A|--------|--------|--------|--------|--------|--------|--------|--------|--------|
E|--------|--------|--------|--------|--------|--------|--------|--------|--------|
B|--------|--------|--------|--------|--------|--------|--------|--------|--------|


E|--------|--------|--------|--------|--------|--------|--------|--------|--------|
B|--------|--------|--------|--------|--------|--------|--------|--------|--------|
G|--------|--------|--------|--------|--------|--------|--------|--------|--------|
D|--------|--------|--------|--------|--------|--------|--------|--------|--------|
A|--------|--------|--------|--------|--------|--------|--------|--------|--------|
E|--------|--------|--------|--------|--------|--------|--------|--------|--------|
B|--------|--------|--------|--------|--------|--------|--------|--------|--------|


E|--------|--------|--------|--------|--------|--------|--------|--------|--------|
B|--------|--------|--------|--------|--------|--------|--------|--------|--------|
G|--------|--------|--------|--------|--------|--------|--------|--------|--------|
D|--------|--------|--------|--------|--------|--------|--------|--------|--------|
A|--------|--------|--------|--------|--------|--------|--------|--------|--------|
E|--------|--------|--------|--------|--------|--------|--------|--------|--------|
B|--------|--------|--------|--------|--------|--------|--------|--------|--------|


E|--------|--------|--------|--------|--------|--------|--------|--------|--------|
B|--------|--------|--------|--------|--------|--------|--------|--------|--------|
G|--------|--------|--------|--------|--------|--------|--------|--------|--------|
D|--------|--------|--------|--------|--------|--------|--------|--------|--------|
A|--------|--------|--------|--------|--------|--------|--------|--------|--------|
E|--------|--------|--------|--------|--------|--------|--------|--------|--------|
B|--------|--------|--------|--------|--------|--------|--------|--------|--------|


E|--------|--------|--------|--------|--------|--------|--------|--------|--------|
B|--------|--------|--------|--------|--------|--------|--------|--------|--------|
G|--------|--------|--------|--------|--------|--------|--------|--------|--------|
D|--------|--------|--------|--------|--------|--------|--------|--------|--------|
A|--------|--------|--------|--------|--------|--------|--------|--------|--------|
E|--------|--------|--------|--------|--------|--------|--------|--------|--------|
B|--------|--------|--------|--------|--------|--------|--------|--------|--------|


E|--------|--------|--------|--------|--------|--------|--------|--------|--------|
B|--------|--------|--------|--------|--------|--------|--------|--------|--------|
G|--------|--------|--------|--------|--------|--------|--------|--------|--------|
D|--------|--------|--------|--------|--------|--------|--------|--------|--------|
A|--------|--------|--------|--------|--------|--------|--------|--------|--------|
E|--------|--------|--------|--------|--------|--------|--------|--------|--------|
B|--------|--------|--------|--------|--------|--------|--------|--------|--------|


E|--------|--------|--------|--------|--------|--------|--------|--------|--------|
B|--------|--------|--------|--------|--------|--------|--------|--------|--------|
G|--------|--------|--------|--------|--------|--------|--------|--------|--------|
D|--------|--------|--------|--------|--------|--------|--------|--------|--------|
A|--------|--------|--------|--------|--------|--------|--------|--------|--------|
E|--------|--------|--------|--------|--------|--------|--------|--------|--------|
B|--------|--------|--------|--------|--------|--------|--------|--------|--------|


E|--------|--------|--------|--------|--------|--------|--------|--------|--------|
B|--------|--------|--------|--------|--------|--------|--------|--------|--------|
G|--------|--------|--------|--------|--------|--------|--------|--------|--------|
D|--------|--------|--------|--------|--------|--------|--------|--------|--------|
A|--------|--------|--------|--------|--------|--------|--------|--------|--------|
E|--------|--------|--------|--------|--------|--------|--------|--------|--------|
B|--------|--------|--------|--------|--------|--------|--------|--------|--------|


E|--------|--------|--------|--------|--------|--------|--------|--------|--------|
B|--------|--------|--------|--------|--------|--------|--------|--------|--------|
G|--------|--------|--------|--------|--------|--------|--------|--------|--------|
D|--------|--------|--------|--------|--------|--------|--------|--------|--------|
A|--------|--------|--------|--------|--------|--------|--------|--------|--------|
E|--------|--------|--------|--------|--------|--------|--------|--------|--------|
B|--------|--------|--------|--------|--------|--------|--------|--------|--------|


E|--------|--------|--------|--------|--------|--------|--------|--------|--------|
B|--------|--------|--------|--------|--------|--------|--------|--------|--------|
G|--------|--------|--------|--------|--------|--------|--------|--------|--------|
D|--------|--------|--------|--------|--------|--------|--------|--------|--------|
A|--------|--------|--------|--------|--------|--------|--------|--------|--------|
E|--------|--------|--------|--------|--------|--------|--------|--------|--------|
B|--------|--------|--------|--------|--------|--------|--------|--------|--------|


E|--------|--------|--------|--------|--------|--------|--------|--------|--------|
B|--------|--------|--------|--------|--------|--------|--------|--------|--------|
G|--------|--------|--------|--------|--------|--------|--------|--------|--------|
D|--------|--------|--------|--------|--------|--------|--------|--------|--------|
A|--------|--------|--------|--------|--------|--------|--------|--------|--------|
E|--------|--------|--------|--------|--------|--------|--------|--------|--------|
B|--------|--------|--------|--------|--------|--------|--------|--------|--------|


E|--------|--------|--------|--------|--------|--------|--------|--------|--------|
B|--------|--------|--------|--------|--------|--------|--------|--------|--------|
G|--------|--------|--------|--------|--------|--------|--------|--------|--------|
D|--------|--------|--------|--------|--------|--------|--------|--------|--------|
A|--------|--------|--------|--------|--------|--------|--------|--------|--------|
E|--------|--------|--------|--------|--------|--------|--------|--------|--------|
B|--------|--------|--------|--------|--------|--------|--------|--------|--------|


E|--------|--------|--------|--------|--------|--------|--------|--------|--------|
B|--------|--------|--------|--------|--------|--------|--------|--------|--------|
G|--------|--------|--------|--------|--------|--------|--------|--------|--------|
D|--------|--------|--------|--------|--------|--------|--------|--------|--------|
A|--------|--------|--------|--------|--------|--------|--------|--------|--------|
E|--------|--------|--------|--------|--------|--------|--------|--------|--------|
B|--------|--------|--------|--------|--------|--------|--------|--------|--------|


E|--------|--------|--------|--------|--------|--------|--------|--------|--------|
B|--------|--------|--------|--------|--------|--------|--------|--------|--------|
G|--------|--------|--------|--------|--------|--------|--------|--------|--------|
D|--------|--------|--------|--------|--------|--------|--------|--------|--------|
A|--------|--------|--------|--------|--------|--------|--------|--------|--------|
E|--------|--------|--------|--------|--------|--------|--------|--------|--------|
B|--------|--------|--------|--------|--------|--------|--------|--------|--------|


E|--------|--------|--------|--------|--------|--------|--------|--------|--------|
B|--------|--------|--------|--------|--------|--------|--------|--------|--------|
G|--------|--------|--------|--------|--------|--------|--------|--------|--------|
D|--------|--------|--------|--------|--------|--------|--------|--------|--------|
A|--------|--------|--------|--------|--------|--------|--------|--------|--------|
E|--------|--------|--------|--------|--------|--------|--------|--------|--------|
B|--------|--------|--------|--------|--------|--------|--------|--------|--------|


E|--------|--------|--------|--------|--------|--------|--------|--------|--------|
B|--------|--------|--------|--------|--------|--------|--------|--------|--------|
G|--------|--------|--------|--------|--------|--------|--------|--------|--------|
D|--------|--------|--------|--------|--------|--------|--------|--------|--------|
A|--------|--------|--------|--------|--------|--------|--------|--------|--------|
E|--------|--------|--------|--------|--------|--------|--------|--------|--------|
B|--------|--------|--------|--------|--------|--------|--------|--------|--------|


E|--------|--------|--------|--------|--------|--------|--------|--------|--------|
B|--------|--------|--------|--------|--------|--------|--------|--------|--------|
G|--------|--------|--------|--------|--------|--------|--------|--------|--------|
D|--------|--------|--------|--------|--------|--------|--------|--------|--------|
A|--------|--------|--------|--------|--------|--------|--------|--------|--------|
E|--------|--------|--------|--------|--------|--------|--------|--------|--------|
B|--------|--------|--------|--------|--------|--------|--------|--------|--------|


E|--------|--------|
B|--------|--------|
G|--------|--------|
D|--------|--------|
A|--------|--------|
E|--------|--------|
B|--------|--------|





Track 4: Keyboard

E|--------|--------|--------|--------|--------|--------|--------|--------|--------|
B|--------|--------|--------|--------|--------|--------|--------|--------|--------|
G|--------|--------|--------|--------|--------|--------|--------|--------|--------|
D|--------|--------|--------|--------|--------|--------|--------|--------|--------|
A|--------|--------|--------|--------|--------|--------|--------|--------|--------|
E|--------|--------|--------|--------|--------|--------|--------|--------|--------|
B|--------|--------|--------|--------|--------|--------|--------|--------|--------|


E|--------|--------|--------|--------|--------|--------|--------|--------|--------|
B|--------|--------|--------|--------|--------|--------|--------|--------|--------|
G|--------|--------|--------|--------|--------|--------|--------|--------|--------|
D|--------|--------|--------|--------|--------|--------|--------|--------|--------|
A|--------|--------|--------|--------|--------|--------|--------|--------|--------|
E|--------|--------|--------|--------|--------|--------|--------|--------|--------|
B|--------|--------|--------|--------|--------|--------|--------|--------|--------|


E|--------|--------|--------|--------|--------|--------|--------|--------|--------|
B|--------|--------|--------|--------|--------|--------|--------|--------|--------|
G|--------|--------|--------|--------|--------|--------|--------|--------|--------|
D|--------|--------|--------|--------|--------|--------|--------|--------|--------|
A|--------|--------|--------|--------|--------|--------|--------|--------|--------|
E|--------|--------|--------|--------|--------|--------|--------|--------|--------|
B|--------|--------|--------|--------|--------|--------|--------|--------|--------|


E|--------|--------|--------|--------|--------|--------|--------|--------|--------|
B|--------|--------|--------|--------|--------|--------|--------|--------|--------|
G|--------|--------|--------|--------|--------|--------|--------|--------|--------|
D|--------|--------|--------|--------|--------|--------|--------|--------|--------|
A|--------|--------|--------|--------|--------|--------|--------|--------|--------|
E|--------|--------|--------|--------|--------|--------|--------|--------|--------|
B|--------|--------|--------|--------|--------|--------|--------|--------|--------|


E|--------|--------|--------|--------|--------|--------|--------|--------|----------------|
B|--------|--------|--------|--------|--------|--------|--------|--------|----------------|
G|--------|--------|--------|--------|--------|--------|--------|--------|------------9---|
D|--------|--------|--------|--------|--------|--------|--------|--------|----------------|
A|--------|--------|--------|--------|--------|--------|--------|--------|----------------|
E|--------|--------|--------|--------|--------|--------|--------|--------|----------------|
B|--------|--------|--------|--------|--------|--------|--------|--------|----------------|


E|------------------------|---------------------|-----------------|-----------------------|
B|------12----10--10------|-----------------10--|-----12----------|-----------------------|
G|--------------------12--|-----11----12--------|----------9------|-------9---7-----9-----|
D|------------------------|---------------------|-----------------|--------------9--------|
A|------------------------|---------------------|-----------------|-----------------------|
E|------------------------|---------------------|-----------------|-----------------------|
B|------------------------|---------------------|-----------------|-----------------------|


E|-----------------------------------|------------------------|-----------------14--|
B|-------5--3------------------------|------------------------|---------------------|
G|-9-----------4--2--4--3--2--0------|------4-----2---2---0---|-----11----12--------|
D|-------------------------------2---|------------------------|---------------------|
A|-----------------------------------|------------------------|---------------------|
E|-----------------------------------|------------------------|---------------------|
B|-----------------------------------|------------------------|---------------------|


E|----17---15-------------|-------------------------------------15-17-15----|----------------------|
B|--------------17----17--|-15----17---17--15----17-15----15-17----------17-|-15-------17----------|
G|------------------------|----16-------------16-------16-------------------|----16-14-------------|
D|------------------------|-------------------------------------------------|----------------14----|
A|------------------------|-------------------------------------------------|----------------------|
E|------------------------|-------------------------------------------------|----------------------|
B|------------------------|-------------------------------------------------|----------------------|


E|----------------|--------------------------|--------------------------|------------------17---17--|
B|----------------|--------------------------|--------------------------|---------------------------|
G|----------------|--------------------------|----------------------16--|------14--12---------------|
D|------------14--|------12----14---14--12---|--------------------------|--------------14-----------|
A|----------------|---------14---------------|-----14----12-10-12-------|---------------------------|
E|-----12---------|--------------------------|--------------------------|---------------------------|
B|----------------|--------------------------|--------------------------|---------------------------|


E|-----15-14-12----------12-10----------------------------------------|---------------------|
B|-----------------------------13-------------------------------------|---------------------|
G|--------------16-14-12----------12-11-9--12-9-----------------------|-----------------9---|
D|-----------------------------------------------12-9--12-9--7--------|---------------------|
A|--------------------------------------------------------------9--10-|-9--7-----7----------|
E|--------------------------------------------------------------------|-------10------------|
B|--------------------------------------------------------------------|---------------------|


E|-----------------15--14--12---------|--------------------19--21--22--26---27--|-24----24----23-22-21-|
B|---------10--12--------------12-----|--------17--19--20-----------------------|----------------------|
G|-11--12--------------------------14-|----12-----------------------------------|----------------------|
D|------------------------------------|-----------------------------------------|----------------------|
A|------------------------------------|-----------------------------------------|----------------------|
E|------------------------------------|-----------------------------------------|----------------------|
B|------------------------------------|-----------------------------------------|----------------------|


E|-20-19-18-17-16-15-14-13-12-11-10-9--8--7--6--5--4--3--2--1--0-----------|--------------------------------------|
B|----------------------------------------------------------------4--3--2--|-1------------------------------------|
G|-------------------------------------------------------------------------|----4--3--2--1--0---------------------|
D|-------------------------------------------------------------------------|-------------------4--3--2------------|
A|-------------------------------------------------------------------------|--------------------------------------|
E|-------------------------------------------------------------------------|--------------------------------------|
B|-------------------------------------------------------------------------|--------------------------------------|


E|--------|--------|--------|--------|--------|--------|--------|--------|--------|
B|--------|--------|--------|--------|--------|--------|--------|--------|--------|
G|--------|--------|--------|--------|--------|--------|--------|--------|--------|
D|--------|--------|--------|--------|--------|--------|--------|--------|--------|
A|--------|--------|--------|--------|--------|--------|--------|--------|--------|
E|--------|--------|--------|--------|--------|--------|--------|--------|--------|
B|--------|--------|--------|--------|--------|--------|--------|--------|--------|


E|--------|--------|--------|--------|--------|--------|--------|--------|--------|
B|--------|--------|--------|--------|--------|--------|--------|--------|--------|
G|--------|--------|--------|--------|--------|--------|--------|--------|--------|
D|--------|--------|--------|--------|--------|--------|--------|--------|--------|
A|--------|--------|--------|--------|--------|--------|--------|--------|--------|
E|--------|--------|--------|--------|--------|--------|--------|--------|--------|
B|--------|--------|--------|--------|--------|--------|--------|--------|--------|


E|--------|--------|--------|--------|--------|--------|--------|--------|--------|
B|--------|--------|--------|--------|--------|--------|--------|--------|--------|
G|--------|--------|--------|--------|--------|--------|--------|--------|--------|
D|--------|--------|--------|--------|--------|--------|--------|--------|--------|
A|--------|--------|--------|--------|--------|--------|--------|--------|--------|
E|--------|--------|--------|--------|--------|--------|--------|--------|--------|
B|--------|--------|--------|--------|--------|--------|--------|--------|--------|


E|--------|--------|--------|--------|--------|--------|--------|--------|--------|
B|--------|--------|--------|--------|--------|--------|--------|--------|--------|
G|--------|--------|--------|--------|--------|--------|--------|--------|--------|
D|--------|--------|--------|--------|--------|--------|--------|--------|--------|
A|--------|--------|--------|--------|--------|--------|--------|--------|--------|
E|--------|--------|--------|--------|--------|--------|--------|--------|--------|
B|--------|--------|--------|--------|--------|--------|--------|--------|--------|


E|--------|--------|--------|--------|--------|--------|--------|--------|--------|
B|--------|--------|--------|--------|--------|--------|--------|--------|--------|
G|--------|--------|--------|--------|--------|--------|--------|--------|--------|
D|--------|--------|--------|--------|--------|--------|--------|--------|--------|
A|--------|--------|--------|--------|--------|--------|--------|--------|--------|
E|--------|--------|--------|--------|--------|--------|--------|--------|--------|
B|--------|--------|--------|--------|--------|--------|--------|--------|--------|


E|--------|--------|--------|--------|--------|--------|--------|--------|--------|
B|--------|--------|--------|--------|--------|--------|--------|--------|--------|
G|--------|--------|--------|--------|--------|--------|--------|--------|--------|
D|--------|--------|--------|--------|--------|--------|--------|--------|--------|
A|--------|--------|--------|--------|--------|--------|--------|--------|--------|
E|--------|--------|--------|--------|--------|--------|--------|--------|--------|
B|--------|--------|--------|--------|--------|--------|--------|--------|--------|


E|--------|--------|--------|--------|--------|--------|--------|--------|--------|
B|--------|--------|--------|--------|--------|--------|--------|--------|--------|
G|--------|--------|--------|--------|--------|--------|--------|--------|--------|
D|--------|--------|--------|--------|--------|--------|--------|--------|--------|
A|--------|--------|--------|--------|--------|--------|--------|--------|--------|
E|--------|--------|--------|--------|--------|--------|--------|--------|--------|
B|--------|--------|--------|--------|--------|--------|--------|--------|--------|


E|--------|--------|--------|--------|--------|--------|--------|--------|--------|
B|--------|--------|--------|--------|--------|--------|--------|--------|--------|
G|--------|--------|--------|--------|--------|--------|--------|--------|--------|
D|--------|--------|--------|--------|--------|--------|--------|--------|--------|
A|--------|--------|--------|--------|--------|--------|--------|--------|--------|
E|--------|--------|--------|--------|--------|--------|--------|--------|--------|
B|--------|--------|--------|--------|--------|--------|--------|--------|--------|


E|--------|--------|--------|--------|--------|--------|--------|--------|--------|
B|--------|--------|--------|--------|--------|--------|--------|--------|--------|
G|--------|--------|--------|--------|--------|--------|--------|--------|--------|
D|--------|--------|--------|--------|--------|--------|--------|--------|--------|
A|--------|--------|--------|--------|--------|--------|--------|--------|--------|
E|--------|--------|--------|--------|--------|--------|--------|--------|--------|
B|--------|--------|--------|--------|--------|--------|--------|--------|--------|


E|--------|--------|--------|--------|--------|--------|--------|--------|--------|
B|--------|--------|--------|--------|--------|--------|--------|--------|--------|
G|--------|--------|--------|--------|--------|--------|--------|--------|--------|
D|--------|--------|--------|--------|--------|--------|--------|--------|--------|
A|--------|--------|--------|--------|--------|--------|--------|--------|--------|
E|--------|--------|--------|--------|--------|--------|--------|--------|--------|
B|--------|--------|--------|--------|--------|--------|--------|--------|--------|


E|--------|--------|--------|--------|--------|--------|--------|--------|--------|
B|--------|--------|--------|--------|--------|--------|--------|--------|--------|
G|--------|--------|--------|--------|--------|--------|--------|--------|--------|
D|--------|--------|--------|--------|--------|--------|--------|--------|--------|
A|--------|--------|--------|--------|--------|--------|--------|--------|--------|
E|--------|--------|--------|--------|--------|--------|--------|--------|--------|
B|--------|--------|--------|--------|--------|--------|--------|--------|--------|


E|--------|--------|--------|--------|--------|--------|--------|--------|--------|
B|--------|--------|--------|--------|--------|--------|--------|--------|--------|
G|--------|--------|--------|--------|--------|--------|--------|--------|--------|
D|--------|--------|--------|--------|--------|--------|--------|--------|--------|
A|--------|--------|--------|--------|--------|--------|--------|--------|--------|
E|--------|--------|--------|--------|--------|--------|--------|--------|--------|
B|--------|--------|--------|--------|--------|--------|--------|--------|--------|


E|--------|--------|--------|--------|--------|--------|--------|--------|--------|
B|--------|--------|--------|--------|--------|--------|--------|--------|--------|
G|--------|--------|--------|--------|--------|--------|--------|--------|--------|
D|--------|--------|--------|--------|--------|--------|--------|--------|--------|
A|--------|--------|--------|--------|--------|--------|--------|--------|--------|
E|--------|--------|--------|--------|--------|--------|--------|--------|--------|
B|--------|--------|--------|--------|--------|--------|--------|--------|--------|


E|--------|--------|--------|--------|--------|--------|--------|--------|--------|
B|--------|--------|--------|--------|--------|--------|--------|--------|--------|
G|--------|--------|--------|--------|--------|--------|--------|--------|--------|
D|--------|--------|--------|--------|--------|--------|--------|--------|--------|
A|--------|--------|--------|--------|--------|--------|--------|--------|--------|
E|--------|--------|--------|--------|--------|--------|--------|--------|--------|
B|--------|--------|--------|--------|--------|--------|--------|--------|--------|


E|--------|--------|--------|--------|--------|--------|--------|--------|--------|
B|--------|--------|--------|--------|--------|--------|--------|--------|--------|
G|--------|--------|--------|--------|--------|--------|--------|--------|--------|
D|--------|--------|--------|--------|--------|--------|--------|--------|--------|
A|--------|--------|--------|--------|--------|--------|--------|--------|--------|
E|--------|--------|--------|--------|--------|--------|--------|--------|--------|
B|--------|--------|--------|--------|--------|--------|--------|--------|--------|


E|--------|--------|--------|--------|--------|--------|--------|--------|--------|
B|--------|--------|--------|--------|--------|--------|--------|--------|--------|
G|--------|--------|--------|--------|--------|--------|--------|--------|--------|
D|--------|--------|--------|--------|--------|--------|--------|--------|--------|
A|--------|--------|--------|--------|--------|--------|--------|--------|--------|
E|--------|--------|--------|--------|--------|--------|--------|--------|--------|
B|--------|--------|--------|--------|--------|--------|--------|--------|--------|


E|--------|--------|--------|--------|--------|--------|--------|--------|--------|
B|--------|--------|--------|--------|--------|--------|--------|--------|--------|
G|--------|--------|--------|--------|--------|--------|--------|--------|--------|
D|--------|--------|--------|--------|--------|--------|--------|--------|--------|
A|--------|--------|--------|--------|--------|--------|--------|--------|--------|
E|--------|--------|--------|--------|--------|--------|--------|--------|--------|
B|--------|--------|--------|--------|--------|--------|--------|--------|--------|


E|--------|--------|--------|--------|--------|--------|--------|--------|--------|
B|--------|--------|--------|--------|--------|--------|--------|--------|--------|
G|--------|--------|--------|--------|--------|--------|--------|--------|--------|
D|--------|--------|--------|--------|--------|--------|--------|--------|--------|
A|--------|--------|--------|--------|--------|--------|--------|--------|--------|
E|--------|--------|--------|--------|--------|--------|--------|--------|--------|
B|--------|--------|--------|--------|--------|--------|--------|--------|--------|


E|--------|--------|--------|--------|--------|--------|--------|--------|--------|
B|--------|--------|--------|--------|--------|--------|--------|--------|--------|
G|--------|--------|--------|--------|--------|--------|--------|--------|--------|
D|--------|--------|--------|--------|--------|--------|--------|--------|--------|
A|--------|--------|--------|--------|--------|--------|--------|--------|--------|
E|--------|--------|--------|--------|--------|--------|--------|--------|--------|
B|--------|--------|--------|--------|--------|--------|--------|--------|--------|


E|--------|--------|--------|--------|--------|--------|--------|--------|--------|
B|--------|--------|--------|--------|--------|--------|--------|--------|--------|
G|--------|--------|--------|--------|--------|--------|--------|--------|--------|
D|--------|--------|--------|--------|--------|--------|--------|--------|--------|
A|--------|--------|--------|--------|--------|--------|--------|--------|--------|
E|--------|--------|--------|--------|--------|--------|--------|--------|--------|
B|--------|--------|--------|--------|--------|--------|--------|--------|--------|


E|--------|--------|--------|--------|--------|--------|--------|--------|--------|
B|--------|--------|--------|--------|--------|--------|--------|--------|--------|
G|--------|--------|--------|--------|--------|--------|--------|--------|--------|
D|--------|--------|--------|--------|--------|--------|--------|--------|--------|
A|--------|--------|--------|--------|--------|--------|--------|--------|--------|
E|--------|--------|--------|--------|--------|--------|--------|--------|--------|
B|--------|--------|--------|--------|--------|--------|--------|--------|--------|


E|--------|--------|--------|--------|--------|--------|--------|--------|--------|
B|--------|--------|--------|--------|--------|--------|--------|--------|--------|
G|--------|--------|--------|--------|--------|--------|--------|--------|--------|
D|--------|--------|--------|--------|--------|--------|--------|--------|--------|
A|--------|--------|--------|--------|--------|--------|--------|--------|--------|
E|--------|--------|--------|--------|--------|--------|--------|--------|--------|
B|--------|--------|--------|--------|--------|--------|--------|--------|--------|


E|--------|--------|--------|--------|--------|--------|--------|--------|--------|
B|--------|--------|--------|--------|--------|--------|--------|--------|--------|
G|--------|--------|--------|--------|--------|--------|--------|--------|--------|
D|--------|--------|--------|--------|--------|--------|--------|--------|--------|
A|--------|--------|--------|--------|--------|--------|--------|--------|--------|
E|--------|--------|--------|--------|--------|--------|--------|--------|--------|
B|--------|--------|--------|--------|--------|--------|--------|--------|--------|


E|--------|--------|--------|--------|--------|--------|--------|--------|--------|
B|--------|--------|--------|--------|--------|--------|--------|--------|--------|
G|--------|--------|--------|--------|--------|--------|--------|--------|--------|
D|--------|--------|--------|--------|--------|--------|--------|--------|--------|
A|--------|--------|--------|--------|--------|--------|--------|--------|--------|
E|--------|--------|--------|--------|--------|--------|--------|--------|--------|
B|--------|--------|--------|--------|--------|--------|--------|--------|--------|


E|--------|--------|--------|--------|--------|--------|--------|--------|--------|
B|--------|--------|--------|--------|--------|--------|--------|--------|--------|
G|--------|--------|--------|--------|--------|--------|--------|--------|--------|
D|--------|--------|--------|--------|--------|--------|--------|--------|--------|
A|--------|--------|--------|--------|--------|--------|--------|--------|--------|
E|--------|--------|--------|--------|--------|--------|--------|--------|--------|
B|--------|--------|--------|--------|--------|--------|--------|--------|--------|


E|--------|--------|--------|--------|--------|--------|--------|--------|--------|
B|--------|--------|--------|--------|--------|--------|--------|--------|--------|
G|--------|--------|--------|--------|--------|--------|--------|--------|--------|
D|--------|--------|--------|--------|--------|--------|--------|--------|--------|
A|--------|--------|--------|--------|--------|--------|--------|--------|--------|
E|--------|--------|--------|--------|--------|--------|--------|--------|--------|
B|--------|--------|--------|--------|--------|--------|--------|--------|--------|


E|--------|--------|--------|--------|--------|--------|--------|--------|--------|
B|--------|--------|--------|--------|--------|--------|--------|--------|--------|
G|--------|--------|--------|--------|--------|--------|--------|--------|--------|
D|--------|--------|--------|--------|--------|--------|--------|--------|--------|
A|--------|--------|--------|--------|--------|--------|--------|--------|--------|
E|--------|--------|--------|--------|--------|--------|--------|--------|--------|
B|--------|--------|--------|--------|--------|--------|--------|--------|--------|


E|--------|--------|--------|--------|--------|--------|--------|--------|--------|
B|--------|--------|--------|--------|--------|--------|--------|--------|--------|
G|--------|--------|--------|--------|--------|--------|--------|--------|--------|
D|--------|--------|--------|--------|--------|--------|--------|--------|--------|
A|--------|--------|--------|--------|--------|--------|--------|--------|--------|
E|--------|--------|--------|--------|--------|--------|--------|--------|--------|
B|--------|--------|--------|--------|--------|--------|--------|--------|--------|


E|--------|--------|--------|--------|--------|--------|--------|--------|--------|
B|--------|--------|--------|--------|--------|--------|--------|--------|--------|
G|--------|--------|--------|--------|--------|--------|--------|--------|--------|
D|--------|--------|--------|--------|--------|--------|--------|--------|--------|
A|--------|--------|--------|--------|--------|--------|--------|--------|--------|
E|--------|--------|--------|--------|--------|--------|--------|--------|--------|
B|--------|--------|--------|--------|--------|--------|--------|--------|--------|


E|--------|--------|--------|--------|--------|--------|--------|--------|--------|
B|--------|--------|--------|--------|--------|--------|--------|--------|--------|
G|--------|--------|--------|--------|--------|--------|--------|--------|--------|
D|--------|--------|--------|--------|--------|--------|--------|--------|--------|
A|--------|--------|--------|--------|--------|--------|--------|--------|--------|
E|--------|--------|--------|--------|--------|--------|--------|--------|--------|
B|--------|--------|--------|--------|--------|--------|--------|--------|--------|


E|--------|--------|--------|--------|--------|--------|--------|--------|--------|
B|--------|--------|--------|--------|--------|--------|--------|--------|--------|
G|--------|--------|--------|--------|--------|--------|--------|--------|--------|
D|--------|--------|--------|--------|--------|--------|--------|--------|--------|
A|--------|--------|--------|--------|--------|--------|--------|--------|--------|
E|--------|--------|--------|--------|--------|--------|--------|--------|--------|
B|--------|--------|--------|--------|--------|--------|--------|--------|--------|


E|--------|--------|--------|--------|--------|--------|--------|--------|--------|
B|--------|--------|--------|--------|--------|--------|--------|--------|--------|
G|--------|--------|--------|--------|--------|--------|--------|--------|--------|
D|--------|--------|--------|--------|--------|--------|--------|--------|--------|
A|--------|--------|--------|--------|--------|--------|--------|--------|--------|
E|--------|--------|--------|--------|--------|--------|--------|--------|--------|
B|--------|--------|--------|--------|--------|--------|--------|--------|--------|


E|--------|--------|--------|--------|--------|--------|--------|--------|--------|
B|--------|--------|--------|--------|--------|--------|--------|--------|--------|
G|--------|--------|--------|--------|--------|--------|--------|--------|--------|
D|--------|--------|--------|--------|--------|--------|--------|--------|--------|
A|--------|--------|--------|--------|--------|--------|--------|--------|--------|
E|--------|--------|--------|--------|--------|--------|--------|--------|--------|
B|--------|--------|--------|--------|--------|--------|--------|--------|--------|


E|--------|--------|--------|--------|--------|--------|--------|--------|--------|
B|--------|--------|--------|--------|--------|--------|--------|--------|--------|
G|--------|--------|--------|--------|--------|--------|--------|--------|--------|
D|--------|--------|--------|--------|--------|--------|--------|--------|--------|
A|--------|--------|--------|--------|--------|--------|--------|--------|--------|
E|--------|--------|--------|--------|--------|--------|--------|--------|--------|
B|--------|--------|--------|--------|--------|--------|--------|--------|--------|


E|--------|--------|-------------------------------|-16-13-------16-13-------------------------------|
B|--------|--------|-------15-14-12----14-12-------|-------15----------15----10-9--7-----------7--10-|
G|--------|--------|----------------14-------13----|----------16----------16----------10-7--10-------|
D|--------|--------|----------------------------15-|-------------------------------------------------|
A|--------|--------|-------------------------------|-------------------------------------------------|
E|--------|--------|-------------------------------|-------------------------------------------------|
B|--------|--------|-------------------------------|-------------------------------------------------|


E|-------------------------------|-----------------13--16--16---14--13------|-----------------|
B|-9-----------------------------|-------------15-----------------------15--|-14--------------|
G|---------------------------14--|-10--11--13-------------------------------|-------------9---|
D|-------------------12--15------|------------------------------------------|--------11-------|
A|-------8---9---11--------------|------------------------------------------|-----------------|
E|-------------------------------|------------------------------------------|-----------------|
B|-------------------------------|------------------------------------------|-----------------|


E|--------------------14---13---|------------------------|-------------13-------13----17-------17-21---|
B|----------12---14-------------|-14--12--12-------------|----------14----12-14----19----16-19---------|
G|-----10-----------------------|---------------10---11--|-----13--------------------------------------|
D|------------------------------|------------------------|---------------------------------------------|
A|------------------------------|------------------------|---------------------------------------------|
E|------------------------------|------------------------|---------------------------------------------|
B|------------------------------|------------------------|---------------------------------------------|


E|-------------------------------|-------------13------------------12--15-12-------|
B|-------12----------------------|----------------14-----------12------------12----|
G|-----------14--13--11--13--14--|-13--10------------13-10-9--------------------12-|
D|-------------------------------|---------11--------------------------------------|
A|-------------------------------|-------------------------------------------------|
E|-------------------------------|-------------------------------------------------|
B|-------------------------------|-------------------------------------------------|


E|-13-------18-------22-------19----------24--19------|-25-22----------------------------------------26-|
B|----14-------19-------22--------21--17----------21--|-------24-21----------------------------24-27----|
G|-------10-------14-------19-------------------------|-------------22-19----------------22-25----------|
D|----------------------------------------------------|-------------------21-18----21-24----------------|
A|----------------------------------------------------|-------------------------20----------------------|
E|----------------------------------------------------|-------------------------------------------------|
B|----------------------------------------------------|-------------------------------------------------|


E|-28----28--------|--------------------------|---------------------|-----------------|
B|-----------------|--------------------------|---------------------|-----------------|
G|-----------------|--------------------------|---------------------|-----------------|
D|-------------11--|------11---9----11--------|---------------------|-----------------|
A|-----------------|---------------------11---|------11----9----8---|-----9----11-----|
E|-----------------|--------------------------|---------------------|-----------------|
B|-----------------|--------------------------|---------------------|-----------------|


E|-----------------|-------------------------------|-------------------9--7-----------------21-19----|
B|-----------------|-------------------------------|-------------------------9--7-----------------21-|
G|-----------------|----------------------------6--|-4-----------------------------9--7--6-----------|
D|-----------------|-------------------------------|----6--4-----------------------------------------|
A|------11---11----|-------4--2--------------------|----------7--5--4--------------------------------|
E|-----------------|-------------4--2--------------|-------------------------------------------------|
B|-----------------|-------------------5--3--2-----|-------------------------------------------------|


E|--------------------|--------|--------|--------|--------|--------|--------|--------|
B|-19-----------------|--------|--------|--------|--------|--------|--------|--------|
G|----21-19-18--------|--------|--------|--------|--------|--------|--------|--------|
D|--------------------|--------|--------|--------|--------|--------|--------|--------|
A|--------------------|--------|--------|--------|--------|--------|--------|--------|
E|--------------------|--------|--------|--------|--------|--------|--------|--------|
B|--------------------|--------|--------|--------|--------|--------|--------|--------|


E|--------|--------|--------|--------|--------|--------|--------|--------|--------|
B|--------|--------|--------|--------|--------|--------|--------|--------|--------|
G|--------|--------|--------|--------|--------|--------|--------|--------|--------|
D|--------|--------|--------|--------|--------|--------|--------|--------|--------|
A|--------|--------|--------|--------|--------|--------|--------|--------|--------|
E|--------|--------|--------|--------|--------|--------|--------|--------|--------|
B|--------|--------|--------|--------|--------|--------|--------|--------|--------|


E|--------|--------|--------|--------|--------|--------|--------|--------|--------|
B|--------|--------|--------|--------|--------|--------|--------|--------|--------|
G|--------|--------|--------|--------|--------|--------|--------|--------|--------|
D|--------|--------|--------|--------|--------|--------|--------|--------|--------|
A|--------|--------|--------|--------|--------|--------|--------|--------|--------|
E|--------|--------|--------|--------|--------|--------|--------|--------|--------|
B|--------|--------|--------|--------|--------|--------|--------|--------|--------|


E|--------|--------|--------|--------|--------|--------|--------|--------|--------|
B|--------|--------|--------|--------|--------|--------|--------|--------|--------|
G|--------|--------|--------|--------|--------|--------|--------|--------|--------|
D|--------|--------|--------|--------|--------|--------|--------|--------|--------|
A|--------|--------|--------|--------|--------|--------|--------|--------|--------|
E|--------|--------|--------|--------|--------|--------|--------|--------|--------|
B|--------|--------|--------|--------|--------|--------|--------|--------|--------|


E|--------|--------|--------|--------|--------|--------|--------|--------|--------|
B|--------|--------|--------|--------|--------|--------|--------|--------|--------|
G|--------|--------|--------|--------|--------|--------|--------|--------|--------|
D|--------|--------|--------|--------|--------|--------|--------|--------|--------|
A|--------|--------|--------|--------|--------|--------|--------|--------|--------|
E|--------|--------|--------|--------|--------|--------|--------|--------|--------|
B|--------|--------|--------|--------|--------|--------|--------|--------|--------|


E|--------|--------|--------|--------|-14-15-14-12-------------------------------12-14-|
B|--------|--------|--------|--------|-------------15-13-12-15-13-12----12-13-15-------|
G|--------|--------|--------|--------|-------------------------------14----------------|
D|--------|--------|--------|--------|-------------------------------------------------|
A|--------|--------|--------|--------|-------------------------------------------------|
E|--------|--------|--------|--------|-------------------------------------------------|
B|--------|--------|--------|--------|-------------------------------------------------|


E|-12-------------------------------------12-------|-------------------------------------------------|
B|----15-13-12----13-12----------12-13-15----15-13-|-12-------------------------12-13-15-13-12-------|
G|-------------14-------14-12-14-------------------|----14-12-16-14-12----12-14----------------14-12-|
D|-------------------------------------------------|-------------------16----------------------------|
A|-------------------------------------------------|-------------------------------------------------|
E|-------------------------------------------------|-------------------------------------------------|
B|-------------------------------------------------|-------------------------------------------------|


E|-------------------------------------------------|-------------------------------------------------|
B|-------------------------12-13-12-10-------------|-------------------10-12-10----------------------|
G|-11-14-12-11----11-12-14-------------12-11-9--12-|-11-9-----9--11-12----------12-11-9-----11-9-----|
D|-------------14----------------------------------|-------12----------------------------12-------12-|
A|-------------------------------------------------|-------------------------------------------------|
E|-------------------------------------------------|-------------------------------------------------|
B|-------------------------------------------------|-------------------------------------------------|


E|-------------------------------------------------|-------------------------------------------------|
B|-------------------------------------------------|-------------------------------------------------|
G|----9--------------7--9--7-----------------------|-------------------------------------------------|
D|-10----12-10-9--10----------10-9--7-----9--7-----|----7--------------------------------------------|
A|-------------------------------------10-------10-|-9-----10-9--7--9--10-12-10-9--7--------7--------|
E|-------------------------------------------------|----------------------------------10-9-----10-9--|
B|-------------------------------------------------|-------------------------------------------------|


E|-------------------------------------------------|-------------------------------------------------|
B|-------------------------------------------------|-------------------------------------------------|
G|-------------------------------------------------|-------------------------------------------------|
D|-------------------------------------------------|-------------------------------------------------|
A|-------------------4--5--4--2--------------------|-------------------------------------------------|
E|-7--10-9--7-----7--------------5--4--2--5--4--2--|----4--2-----------7--8--7--5--------------------|
B|-------------10----------------------------------|-5--------5--2--3--------------8--7--5--8--7--5--|


E|-------------------------------------------------|-----------------------------|
B|-------------------------------------------------|-----------------------------|
G|-------------------------------------------------|-----------------------------|
D|-------------------------------------------------|-----------------------------|
A|-------------------------------------------------|-----------------------------|
E|----2--------------2--3--2-----------------2--3--|-2---------------------------|
B|-3-----5--3--1--3-----------5--3--1--3--5--------|----5--3--1--0--1------------|


E|--------|--------|
B|--------|--------|
G|--------|--------|
D|--------|--------|
A|--------|--------|
E|--------|--------|
B|--------|--------|





Track 5: Clean

E|--------|--------|--------|--------|--------|--------|--------|--------|--------|
B|--------|--------|--------|--------|--------|--------|--------|--------|--------|
G|--------|--------|--------|--------|--------|--------|--------|--------|--------|
D|--------|--------|--------|--------|--------|--------|--------|--------|--------|
A|--------|--------|--------|--------|--------|--------|--------|--------|--------|
E|--------|--------|--------|--------|--------|--------|--------|--------|--------|
B|--------|--------|--------|--------|--------|--------|--------|--------|--------|


E|--------|--------|--------|--------|--------|--------|--------|--------|--------|
B|--------|--------|--------|--------|--------|--------|--------|--------|--------|
G|--------|--------|--------|--------|--------|--------|--------|--------|--------|
D|--------|--------|--------|--------|--------|--------|--------|--------|--------|
A|--------|--------|--------|--------|--------|--------|--------|--------|--------|
E|--------|--------|--------|--------|--------|--------|--------|--------|--------|
B|--------|--------|--------|--------|--------|--------|--------|--------|--------|


E|--------|--------|--------|--------|--------|--------|--------|--------|--------|
B|--------|--------|--------|--------|--------|--------|--------|--------|--------|
G|--------|--------|--------|--------|--------|--------|--------|--------|--------|
D|--------|--------|--------|--------|--------|--------|--------|--------|--------|
A|--------|--------|--------|--------|--------|--------|--------|--------|--------|
E|--------|--------|--------|--------|--------|--------|--------|--------|--------|
B|--------|--------|--------|--------|--------|--------|--------|--------|--------|


E|--------|--------|--------|--------|--------|--------|--------|--------|--------|
B|--------|--------|--------|--------|--------|--------|--------|--------|--------|
G|--------|--------|--------|--------|--------|--------|--------|--------|--------|
D|--------|--------|--------|--------|--------|--------|--------|--------|--------|
A|--------|--------|--------|--------|--------|--------|--------|--------|--------|
E|--------|--------|--------|--------|--------|--------|--------|--------|--------|
B|--------|--------|--------|--------|--------|--------|--------|--------|--------|


E|--------|--------|--------|--------|--------|--------|--------|--------|--------|
B|--------|--------|--------|--------|--------|--------|--------|--------|--------|
G|--------|--------|--------|--------|--------|--------|--------|--------|--------|
D|--------|--------|--------|--------|--------|--------|--------|--------|--------|
A|--------|--------|--------|--------|--------|--------|--------|--------|--------|
E|--------|--------|--------|--------|--------|--------|--------|--------|--------|
B|--------|--------|--------|--------|--------|--------|--------|--------|--------|


E|--------|--------|--------|--------|--------|--------|--------|--------|--------|
B|--------|--------|--------|--------|--------|--------|--------|--------|--------|
G|--------|--------|--------|--------|--------|--------|--------|--------|--------|
D|--------|--------|--------|--------|--------|--------|--------|--------|--------|
A|--------|--------|--------|--------|--------|--------|--------|--------|--------|
E|--------|--------|--------|--------|--------|--------|--------|--------|--------|
B|--------|--------|--------|--------|--------|--------|--------|--------|--------|


E|--------|--------|--------|--------|--------|--------|--------|--------|--------|
B|--------|--------|--------|--------|--------|--------|--------|--------|--------|
G|--------|--------|--------|--------|--------|--------|--------|--------|--------|
D|--------|--------|--------|--------|--------|--------|--------|--------|--------|
A|--------|--------|--------|--------|--------|--------|--------|--------|--------|
E|--------|--------|--------|--------|--------|--------|--------|--------|--------|
B|--------|--------|--------|--------|--------|--------|--------|--------|--------|


E|--------|--------|--------|--------|--------|--------|--------|--------|--------|
B|--------|--------|--------|--------|--------|--------|--------|--------|--------|
G|--------|--------|--------|--------|--------|--------|--------|--------|--------|
D|--------|--------|--------|--------|--------|--------|--------|--------|--------|
A|--------|--------|--------|--------|--------|--------|--------|--------|--------|
E|--------|--------|--------|--------|--------|--------|--------|--------|--------|
B|--------|--------|--------|--------|--------|--------|--------|--------|--------|


E|--------|--------|--------|--------|--------|---------------------------|------------------------------|
B|--------|--------|--------|--------|--------|---------------------------|------------------------------|
G|--------|--------|--------|--------|--------|-------------------4---4---|-----5---4-------4------------|
D|--------|--------|--------|--------|--------|---------------------------|------------------------------|
A|--------|--------|--------|--------|--------|-------0---2---2-----------|-2-----------2-------2----0---|
E|--------|--------|--------|--------|--------|---------------------------|------------------------------|
B|--------|--------|--------|--------|--------|---------------------------|------------------------------|


E|---------------------------------|------------------------------|------------------------------|
B|---------------------------------|------------------------------|------------------------------|
G|---------4---4-------5---4-------|----------------------4---4---|-----5---4-------4------------|
D|---------------------------------|-5---4------------------------|------------------------------|
A|-2---2-----------2-----------2---|----------0---2---2-----------|-2-----------2-------2----0---|
E|---------------------------------|------------------------------|------------------------------|
B|---------------------------------|------------------------------|------------------------------|


E|---------------------------------|------------------------------|------------------------------|
B|---------------------------------|------------------------------|------------------------------|
G|---------4---4-------5---4-------|----------------------4---4---|-----5---4-------4------------|
D|---------------------------------|-5---4------------------------|------------------------------|
A|-2---2-----------2-----------2---|----------0---2---2-----------|-2-----------2-------2----0---|
E|---------------------------------|------------------------------|------------------------------|
B|---------------------------------|------------------------------|------------------------------|


E|---------------------------------|------------------------------|------------------------------|
B|---------------------------------|------------------------------|------------------------------|
G|---------4---4-------5---4-------|----------------------4---4---|-----5---4-------4------------|
D|---------------------------------|-5---4------------------------|------------------------------|
A|-2---2-----------2-----------2---|----------0---2---2-----------|-2-----------2-------2----0---|
E|---------------------------------|------------------------------|------------------------------|
B|---------------------------------|------------------------------|------------------------------|


E|---------------------------------|------------------------------|------------------------------|
B|---------------------------------|------------------------------|------------------------------|
G|---------4---4-------5---4-------|----------------------4---4---|-----5---4-------4------------|
D|---------------------------------|-5---4------------------------|------------------------------|
A|-2---2-----------2-----------2---|----------0---2---2-----------|-2-----------2-------2----0---|
E|---------------------------------|------------------------------|------------------------------|
B|---------------------------------|------------------------------|------------------------------|


E|---------------------------------|------------------------------|------------------------------|
B|---------------------------------|------------------------------|------------------------------|
G|---------4---4-------5---4-------|----------------------4---4---|-----5---4-------4------------|
D|---------------------------------|-5---4------------------------|------------------------------|
A|-2---2-----------2-----------2---|----------0---2---2-----------|-2-----------2-------2----0---|
E|---------------------------------|------------------------------|------------------------------|
B|---------------------------------|------------------------------|------------------------------|


E|---------------------------------|--------------------|--------|--------|--------|
B|---------------------------------|--------------------|--------|--------|--------|
G|---------4---4-------5---4-------|--------------------|--------|--------|--------|
D|---------------------------------|-5---4--------------|--------|--------|--------|
A|-2---2-----------2-----------2---|--------------------|--------|--------|--------|
E|---------------------------------|--------------------|--------|--------|--------|
B|---------------------------------|--------------------|--------|--------|--------|


E|--------|--------|--------|--------|--------|--------|--------|--------|--------|
B|--------|--------|--------|--------|--------|--------|--------|--------|--------|
G|--------|--------|--------|--------|--------|--------|--------|--------|--------|
D|--------|--------|--------|--------|--------|--------|--------|--------|--------|
A|--------|--------|--------|--------|--------|--------|--------|--------|--------|
E|--------|--------|--------|--------|--------|--------|--------|--------|--------|
B|--------|--------|--------|--------|--------|--------|--------|--------|--------|


E|--------|--------|--------|--------|--------|--------|--------|--------|--------|
B|--------|--------|--------|--------|--------|--------|--------|--------|--------|
G|--------|--------|--------|--------|--------|--------|--------|--------|--------|
D|--------|--------|--------|--------|--------|--------|--------|--------|--------|
A|--------|--------|--------|--------|--------|--------|--------|--------|--------|
E|--------|--------|--------|--------|--------|--------|--------|--------|--------|
B|--------|--------|--------|--------|--------|--------|--------|--------|--------|


E|--------|--------|--------|--------|--------|--------|--------|--------|--------|
B|--------|--------|--------|--------|--------|--------|--------|--------|--------|
G|--------|--------|--------|--------|--------|--------|--------|--------|--------|
D|--------|--------|--------|--------|--------|--------|--------|--------|--------|
A|--------|--------|--------|--------|--------|--------|--------|--------|--------|
E|--------|--------|--------|--------|--------|--------|--------|--------|--------|
B|--------|--------|--------|--------|--------|--------|--------|--------|--------|


E|--------|--------|--------|--------|--------|--------|--------|--------|--------|
B|--------|--------|--------|--------|--------|--------|--------|--------|--------|
G|--------|--------|--------|--------|--------|--------|--------|--------|--------|
D|--------|--------|--------|--------|--------|--------|--------|--------|--------|
A|--------|--------|--------|--------|--------|--------|--------|--------|--------|
E|--------|--------|--------|--------|--------|--------|--------|--------|--------|
B|--------|--------|--------|--------|--------|--------|--------|--------|--------|


E|--------|--------|--------|--------|--------|--------|--------|--------|--------|
B|--------|--------|--------|--------|--------|--------|--------|--------|--------|
G|--------|--------|--------|--------|--------|--------|--------|--------|--------|
D|--------|--------|--------|--------|--------|--------|--------|--------|--------|
A|--------|--------|--------|--------|--------|--------|--------|--------|--------|
E|--------|--------|--------|--------|--------|--------|--------|--------|--------|
B|--------|--------|--------|--------|--------|--------|--------|--------|--------|


E|--------|--------|--------|--------|--------|--------|--------|--------|--------|
B|--------|--------|--------|--------|--------|--------|--------|--------|--------|
G|--------|--------|--------|--------|--------|--------|--------|--------|--------|
D|--------|--------|--------|--------|--------|--------|--------|--------|--------|
A|--------|--------|--------|--------|--------|--------|--------|--------|--------|
E|--------|--------|--------|--------|--------|--------|--------|--------|--------|
B|--------|--------|--------|--------|--------|--------|--------|--------|--------|


E|--------|--------|--------|--------|--------|--------|--------|--------|--------|
B|--------|--------|--------|--------|--------|--------|--------|--------|--------|
G|--------|--------|--------|--------|--------|--------|--------|--------|--------|
D|--------|--------|--------|--------|--------|--------|--------|--------|--------|
A|--------|--------|--------|--------|--------|--------|--------|--------|--------|
E|--------|--------|--------|--------|--------|--------|--------|--------|--------|
B|--------|--------|--------|--------|--------|--------|--------|--------|--------|


E|--------|--------|--------|--------|--------|--------|--------|--------|--------|
B|--------|--------|--------|--------|--------|--------|--------|--------|--------|
G|--------|--------|--------|--------|--------|--------|--------|--------|--------|
D|--------|--------|--------|--------|--------|--------|--------|--------|--------|
A|--------|--------|--------|--------|--------|--------|--------|--------|--------|
E|--------|--------|--------|--------|--------|--------|--------|--------|--------|
B|--------|--------|--------|--------|--------|--------|--------|--------|--------|


E|--------|--------|--------|--------|--------|--------|--------|--------|--------|
B|--------|--------|--------|--------|--------|--------|--------|--------|--------|
G|--------|--------|--------|--------|--------|--------|--------|--------|--------|
D|--------|--------|--------|--------|--------|--------|--------|--------|--------|
A|--------|--------|--------|--------|--------|--------|--------|--------|--------|
E|--------|--------|--------|--------|--------|--------|--------|--------|--------|
B|--------|--------|--------|--------|--------|--------|--------|--------|--------|


E|--------|--------|--------|--------|--------|--------|--------|--------|--------|
B|--------|--------|--------|--------|--------|--------|--------|--------|--------|
G|--------|--------|--------|--------|--------|--------|--------|--------|--------|
D|--------|--------|--------|--------|--------|--------|--------|--------|--------|
A|--------|--------|--------|--------|--------|--------|--------|--------|--------|
E|--------|--------|--------|--------|--------|--------|--------|--------|--------|
B|--------|--------|--------|--------|--------|--------|--------|--------|--------|


E|--------|--------|--------|--------|--------|--------|--------|--------|--------|
B|--------|--------|--------|--------|--------|--------|--------|--------|--------|
G|--------|--------|--------|--------|--------|--------|--------|--------|--------|
D|--------|--------|--------|--------|--------|--------|--------|--------|--------|
A|--------|--------|--------|--------|--------|--------|--------|--------|--------|
E|--------|--------|--------|--------|--------|--------|--------|--------|--------|
B|--------|--------|--------|--------|--------|--------|--------|--------|--------|


E|--------|--------|--------|--------|--------|--------|--------|--------|--------|
B|--------|--------|--------|--------|--------|--------|--------|--------|--------|
G|--------|--------|--------|--------|--------|--------|--------|--------|--------|
D|--------|--------|--------|--------|--------|--------|--------|--------|--------|
A|--------|--------|--------|--------|--------|--------|--------|--------|--------|
E|--------|--------|--------|--------|--------|--------|--------|--------|--------|
B|--------|--------|--------|--------|--------|--------|--------|--------|--------|


E|--------|--------|--------|--------|--------|--------|--------|--------|--------|
B|--------|--------|--------|--------|--------|--------|--------|--------|--------|
G|--------|--------|--------|--------|--------|--------|--------|--------|--------|
D|--------|--------|--------|--------|--------|--------|--------|--------|--------|
A|--------|--------|--------|--------|--------|--------|--------|--------|--------|
E|--------|--------|--------|--------|--------|--------|--------|--------|--------|
B|--------|--------|--------|--------|--------|--------|--------|--------|--------|


E|--------|--------|--------|--------|--------|--------|--------|--------|--------|
B|--------|--------|--------|--------|--------|--------|--------|--------|--------|
G|--------|--------|--------|--------|--------|--------|--------|--------|--------|
D|--------|--------|--------|--------|--------|--------|--------|--------|--------|
A|--------|--------|--------|--------|--------|--------|--------|--------|--------|
E|--------|--------|--------|--------|--------|--------|--------|--------|--------|
B|--------|--------|--------|--------|--------|--------|--------|--------|--------|


E|--------|--------|--------|--------|--------|--------|--------|--------|--------|
B|--------|--------|--------|--------|--------|--------|--------|--------|--------|
G|--------|--------|--------|--------|--------|--------|--------|--------|--------|
D|--------|--------|--------|--------|--------|--------|--------|--------|--------|
A|--------|--------|--------|--------|--------|--------|--------|--------|--------|
E|--------|--------|--------|--------|--------|--------|--------|--------|--------|
B|--------|--------|--------|--------|--------|--------|--------|--------|--------|


E|--------|--------|--------|--------|--------|--------|--------|--------|--------|
B|--------|--------|--------|--------|--------|--------|--------|--------|--------|
G|--------|--------|--------|--------|--------|--------|--------|--------|--------|
D|--------|--------|--------|--------|--------|--------|--------|--------|--------|
A|--------|--------|--------|--------|--------|--------|--------|--------|--------|
E|--------|--------|--------|--------|--------|--------|--------|--------|--------|
B|--------|--------|--------|--------|--------|--------|--------|--------|--------|


E|--------|--------|--------|--------|--------|--------|--------|--------|--------|
B|--------|--------|--------|--------|--------|--------|--------|--------|--------|
G|--------|--------|--------|--------|--------|--------|--------|--------|--------|
D|--------|--------|--------|--------|--------|--------|--------|--------|--------|
A|--------|--------|--------|--------|--------|--------|--------|--------|--------|
E|--------|--------|--------|--------|--------|--------|--------|--------|--------|
B|--------|--------|--------|--------|--------|--------|--------|--------|--------|


E|--------|--------|--------|--------|--------|--------|--------|--------|--------|
B|--------|--------|--------|--------|--------|--------|--------|--------|--------|
G|--------|--------|--------|--------|--------|--------|--------|--------|--------|
D|--------|--------|--------|--------|--------|--------|--------|--------|--------|
A|--------|--------|--------|--------|--------|--------|--------|--------|--------|
E|--------|--------|--------|--------|--------|--------|--------|--------|--------|
B|--------|--------|--------|--------|--------|--------|--------|--------|--------|


E|--------|--------|--------|--------|--------|--------|--------|--------|--------|
B|--------|--------|--------|--------|--------|--------|--------|--------|--------|
G|--------|--------|--------|--------|--------|--------|--------|--------|--------|
D|--------|--------|--------|--------|--------|--------|--------|--------|--------|
A|--------|--------|--------|--------|--------|--------|--------|--------|--------|
E|--------|--------|--------|--------|--------|--------|--------|--------|--------|
B|--------|--------|--------|--------|--------|--------|--------|--------|--------|


E|--------|--------|--------|--------|--------|--------|--------|--------|--------|
B|--------|--------|--------|--------|--------|--------|--------|--------|--------|
G|--------|--------|--------|--------|--------|--------|--------|--------|--------|
D|--------|--------|--------|--------|--------|--------|--------|--------|--------|
A|--------|--------|--------|--------|--------|--------|--------|--------|--------|
E|--------|--------|--------|--------|--------|--------|--------|--------|--------|
B|--------|--------|--------|--------|--------|--------|--------|--------|--------|


E|--------|--------|--------|--------|--------|--------|--------|--------|--------|
B|--------|--------|--------|--------|--------|--------|--------|--------|--------|
G|--------|--------|--------|--------|--------|--------|--------|--------|--------|
D|--------|--------|--------|--------|--------|--------|--------|--------|--------|
A|--------|--------|--------|--------|--------|--------|--------|--------|--------|
E|--------|--------|--------|--------|--------|--------|--------|--------|--------|
B|--------|--------|--------|--------|--------|--------|--------|--------|--------|


E|--------|--------|--------|--------|--------|--------|--------|--------|--------|
B|--------|--------|--------|--------|--------|--------|--------|--------|--------|
G|--------|--------|--------|--------|--------|--------|--------|--------|--------|
D|--------|--------|--------|--------|--------|--------|--------|--------|--------|
A|--------|--------|--------|--------|--------|--------|--------|--------|--------|
E|--------|--------|--------|--------|--------|--------|--------|--------|--------|
B|--------|--------|--------|--------|--------|--------|--------|--------|--------|


E|--------|--------|--------|--------|--------|--------|--------|--------|--------|
B|--------|--------|--------|--------|--------|--------|--------|--------|--------|
G|--------|--------|--------|--------|--------|--------|--------|--------|--------|
D|--------|--------|--------|--------|--------|--------|--------|--------|--------|
A|--------|--------|--------|--------|--------|--------|--------|--------|--------|
E|--------|--------|--------|--------|--------|--------|--------|--------|--------|
B|--------|--------|--------|--------|--------|--------|--------|--------|--------|


E|--------|--------|--------|--------|--------|--------|--------|--------|--------|
B|--------|--------|--------|--------|--------|--------|--------|--------|--------|
G|--------|--------|--------|--------|--------|--------|--------|--------|--------|
D|--------|--------|--------|--------|--------|--------|--------|--------|--------|
A|--------|--------|--------|--------|--------|--------|--------|--------|--------|
E|--------|--------|--------|--------|--------|--------|--------|--------|--------|
B|--------|--------|--------|--------|--------|--------|--------|--------|--------|


E|--------|--------|--------|--------|--------|--------|--------|--------|--------|
B|--------|--------|--------|--------|--------|--------|--------|--------|--------|
G|--------|--------|--------|--------|--------|--------|--------|--------|--------|
D|--------|--------|--------|--------|--------|--------|--------|--------|--------|
A|--------|--------|--------|--------|--------|--------|--------|--------|--------|
E|--------|--------|--------|--------|--------|--------|--------|--------|--------|
B|--------|--------|--------|--------|--------|--------|--------|--------|--------|


E|--------|--------|--------|--------|--------|--------|--------|--------|--------|
B|--------|--------|--------|--------|--------|--------|--------|--------|--------|
G|--------|--------|--------|--------|--------|--------|--------|--------|--------|
D|--------|--------|--------|--------|--------|--------|--------|--------|--------|
A|--------|--------|--------|--------|--------|--------|--------|--------|--------|
E|--------|--------|--------|--------|--------|--------|--------|--------|--------|
B|--------|--------|--------|--------|--------|--------|--------|--------|--------|


E|--------|--------|--------|--------|--------|--------|--------|--------|--------|
B|--------|--------|--------|--------|--------|--------|--------|--------|--------|
G|--------|--------|--------|--------|--------|--------|--------|--------|--------|
D|--------|--------|--------|--------|--------|--------|--------|--------|--------|
A|--------|--------|--------|--------|--------|--------|--------|--------|--------|
E|--------|--------|--------|--------|--------|--------|--------|--------|--------|
B|--------|--------|--------|--------|--------|--------|--------|--------|--------|


E|--------|--------|--------|--------|--------|--------|--------|--------|--------|
B|--------|--------|--------|--------|--------|--------|--------|--------|--------|
G|--------|--------|--------|--------|--------|--------|--------|--------|--------|
D|--------|--------|--------|--------|--------|--------|--------|--------|--------|
A|--------|--------|--------|--------|--------|--------|--------|--------|--------|
E|--------|--------|--------|--------|--------|--------|--------|--------|--------|
B|--------|--------|--------|--------|--------|--------|--------|--------|--------|


E|--------|--------|--------|--------|--------|--------|--------|--------|--------|
B|--------|--------|--------|--------|--------|--------|--------|--------|--------|
G|--------|--------|--------|--------|--------|--------|--------|--------|--------|
D|--------|--------|--------|--------|--------|--------|--------|--------|--------|
A|--------|--------|--------|--------|--------|--------|--------|--------|--------|
E|--------|--------|--------|--------|--------|--------|--------|--------|--------|
B|--------|--------|--------|--------|--------|--------|--------|--------|--------|


E|--------|--------|--------|--------|--------|--------|--------|--------|--------|
B|--------|--------|--------|--------|--------|--------|--------|--------|--------|
G|--------|--------|--------|--------|--------|--------|--------|--------|--------|
D|--------|--------|--------|--------|--------|--------|--------|--------|--------|
A|--------|--------|--------|--------|--------|--------|--------|--------|--------|
E|--------|--------|--------|--------|--------|--------|--------|--------|--------|
B|--------|--------|--------|--------|--------|--------|--------|--------|--------|


E|--------|--------|--------|--------|--------|--------|--------|--------|--------|
B|--------|--------|--------|--------|--------|--------|--------|--------|--------|
G|--------|--------|--------|--------|--------|--------|--------|--------|--------|
D|--------|--------|--------|--------|--------|--------|--------|--------|--------|
A|--------|--------|--------|--------|--------|--------|--------|--------|--------|
E|--------|--------|--------|--------|--------|--------|--------|--------|--------|
B|--------|--------|--------|--------|--------|--------|--------|--------|--------|


E|--------|--------|--------|--------|--------|--------|--------|--------|--------|
B|--------|--------|--------|--------|--------|--------|--------|--------|--------|
G|--------|--------|--------|--------|--------|--------|--------|--------|--------|
D|--------|--------|--------|--------|--------|--------|--------|--------|--------|
A|--------|--------|--------|--------|--------|--------|--------|--------|--------|
E|--------|--------|--------|--------|--------|--------|--------|--------|--------|
B|--------|--------|--------|--------|--------|--------|--------|--------|--------|


E|--------|--------|--------|--------|--------|--------|--------|--------|--------|
B|--------|--------|--------|--------|--------|--------|--------|--------|--------|
G|--------|--------|--------|--------|--------|--------|--------|--------|--------|
D|--------|--------|--------|--------|--------|--------|--------|--------|--------|
A|--------|--------|--------|--------|--------|--------|--------|--------|--------|
E|--------|--------|--------|--------|--------|--------|--------|--------|--------|
B|--------|--------|--------|--------|--------|--------|--------|--------|--------|


E|--------|--------|--------|--------|--------|--------|--------|--------|--------|
B|--------|--------|--------|--------|--------|--------|--------|--------|--------|
G|--------|--------|--------|--------|--------|--------|--------|--------|--------|
D|--------|--------|--------|--------|--------|--------|--------|--------|--------|
A|--------|--------|--------|--------|--------|--------|--------|--------|--------|
E|--------|--------|--------|--------|--------|--------|--------|--------|--------|
B|--------|--------|--------|--------|--------|--------|--------|--------|--------|


E|--------|--------|--------|--------|--------|--------|--------|--------|--------|
B|--------|--------|--------|--------|--------|--------|--------|--------|--------|
G|--------|--------|--------|--------|--------|--------|--------|--------|--------|
D|--------|--------|--------|--------|--------|--------|--------|--------|--------|
A|--------|--------|--------|--------|--------|--------|--------|--------|--------|
E|--------|--------|--------|--------|--------|--------|--------|--------|--------|
B|--------|--------|--------|--------|--------|--------|--------|--------|--------|


E|--------|--------|--------|--------|--------|--------|--------|--------|--------|
B|--------|--------|--------|--------|--------|--------|--------|--------|--------|
G|--------|--------|--------|--------|--------|--------|--------|--------|--------|
D|--------|--------|--------|--------|--------|--------|--------|--------|--------|
A|--------|--------|--------|--------|--------|--------|--------|--------|--------|
E|--------|--------|--------|--------|--------|--------|--------|--------|--------|
B|--------|--------|--------|--------|--------|--------|--------|--------|--------|


E|--------|--------|--------|--------|--------|--------|--------|--------|--------|
B|--------|--------|--------|--------|--------|--------|--------|--------|--------|
G|--------|--------|--------|--------|--------|--------|--------|--------|--------|
D|--------|--------|--------|--------|--------|--------|--------|--------|--------|
A|--------|--------|--------|--------|--------|--------|--------|--------|--------|
E|--------|--------|--------|--------|--------|--------|--------|--------|--------|
B|--------|--------|--------|--------|--------|--------|--------|--------|--------|


E|--------|--------|--------|--------|--------|--------|--------|--------|--------|
B|--------|--------|--------|--------|--------|--------|--------|--------|--------|
G|--------|--------|--------|--------|--------|--------|--------|--------|--------|
D|--------|--------|--------|--------|--------|--------|--------|--------|--------|
A|--------|--------|--------|--------|--------|--------|--------|--------|--------|
E|--------|--------|--------|--------|--------|--------|--------|--------|--------|
B|--------|--------|--------|--------|--------|--------|--------|--------|--------|


E|--------|--------|--------|--------|--------|--------|--------|--------|--------|
B|--------|--------|--------|--------|--------|--------|--------|--------|--------|
G|--------|--------|--------|--------|--------|--------|--------|--------|--------|
D|--------|--------|--------|--------|--------|--------|--------|--------|--------|
A|--------|--------|--------|--------|--------|--------|--------|--------|--------|
E|--------|--------|--------|--------|--------|--------|--------|--------|--------|
B|--------|--------|--------|--------|--------|--------|--------|--------|--------|


E|--------|--------|--------|--------|
B|--------|--------|--------|--------|
G|--------|--------|--------|--------|
D|--------|--------|--------|--------|
A|--------|--------|--------|--------|
E|--------|--------|--------|--------|
B|--------|--------|--------|--------|





Track 6: Keyboard Strings

E|--------|--------|--------|--------|--------|--------|--------|--------|--------|
B|--------|--------|--------|--------|--------|--------|--------|--------|--------|
G|--------|--------|--------|--------|--------|--------|--------|--------|--------|
D|--------|--------|--------|--------|--------|--------|--------|--------|--------|
A|--------|--------|--------|--------|--------|--------|--------|--------|--------|
E|--------|--------|--------|--------|--------|--------|--------|--------|--------|
B|--------|--------|--------|--------|--------|--------|--------|--------|--------|


E|--------|--------|--------|--------|--------|--------|--------|--------|--------|
B|--------|--------|--------|--------|--------|--------|--------|--------|--------|
G|--------|--------|--------|--------|--------|--------|--------|--------|--------|
D|--------|--------|--------|--------|--------|--------|--------|--------|--------|
A|--------|--------|--------|--------|--------|--------|--------|--------|--------|
E|--------|--------|--------|--------|--------|--------|--------|--------|--------|
B|--------|--------|--------|--------|--------|--------|--------|--------|--------|


E|--------|--------|--------|--------|--------|--------|--------|--------|--------|
B|--------|--------|--------|--------|--------|--------|--------|--------|--------|
G|--------|--------|--------|--------|--------|--------|--------|--------|--------|
D|--------|--------|--------|--------|--------|--------|--------|--------|--------|
A|--------|--------|--------|--------|--------|--------|--------|--------|--------|
E|--------|--------|--------|--------|--------|--------|--------|--------|--------|
B|--------|--------|--------|--------|--------|--------|--------|--------|--------|


E|--------|--------|--------|--------|--------|--------|--------|--------|--------|
B|--------|--------|--------|--------|--------|--------|--------|--------|--------|
G|--------|--------|--------|--------|--------|--------|--------|--------|--------|
D|--------|--------|--------|--------|--------|--------|--------|--------|--------|
A|--------|--------|--------|--------|--------|--------|--------|--------|--------|
E|--------|--------|--------|--------|--------|--------|--------|--------|--------|
B|--------|--------|--------|--------|--------|--------|--------|--------|--------|


E|--------|--------|--------|--------|--------|--------|--------|--------|--------|
B|--------|--------|--------|--------|--------|--------|--------|--------|--------|
G|--------|--------|--------|--------|--------|--------|--------|--------|--------|
D|--------|--------|--------|--------|--------|--------|--------|--------|--------|
A|--------|--------|--------|--------|--------|--------|--------|--------|--------|
E|--------|--------|--------|--------|--------|--------|--------|--------|--------|
B|--------|--------|--------|--------|--------|--------|--------|--------|--------|


E|--------|--------|--------|--------|--------|--------|--------|--------|--------|
B|--------|--------|--------|--------|--------|--------|--------|--------|--------|
G|--------|--------|--------|--------|--------|--------|--------|--------|--------|
D|--------|--------|--------|--------|--------|--------|--------|--------|--------|
A|--------|--------|--------|--------|--------|--------|--------|--------|--------|
E|--------|--------|--------|--------|--------|--------|--------|--------|--------|
B|--------|--------|--------|--------|--------|--------|--------|--------|--------|


E|--------|--------|--------|--------|--------|--------|--------|--------|--------|
B|--------|--------|--------|--------|--------|--------|--------|--------|--------|
G|--------|--------|--------|--------|--------|--------|--------|--------|--------|
D|--------|--------|--------|--------|--------|--------|--------|--------|--------|
A|--------|--------|--------|--------|--------|--------|--------|--------|--------|
E|--------|--------|--------|--------|--------|--------|--------|--------|--------|
B|--------|--------|--------|--------|--------|--------|--------|--------|--------|


E|--------|--------|--------|--------|--------|--------|--------|--------|--------|
B|--------|--------|--------|--------|--------|--------|--------|--------|--------|
G|--------|--------|--------|--------|--------|--------|--------|--------|--------|
D|--------|--------|--------|--------|--------|--------|--------|--------|--------|
A|--------|--------|--------|--------|--------|--------|--------|--------|--------|
E|--------|--------|--------|--------|--------|--------|--------|--------|--------|
B|--------|--------|--------|--------|--------|--------|--------|--------|--------|


E|--------|--------|--------|--------|--------|--------|--------|--------|--------|
B|--------|--------|--------|--------|--------|--------|--------|--------|--------|
G|--------|--------|--------|--------|--------|--------|--------|--------|--------|
D|--------|--------|--------|--------|--------|--------|--------|--------|--------|
A|--------|--------|--------|--------|--------|--------|--------|--------|--------|
E|--------|--------|--------|--------|--------|--------|--------|--------|--------|
B|--------|--------|--------|--------|--------|--------|--------|--------|--------|


E|--------|--------|--------|--------|--------|--------|--------|--------|--------|
B|--------|--------|--------|--------|--------|--------|--------|--------|--------|
G|--------|--------|--------|--------|--------|--------|--------|--------|--------|
D|--------|--------|--------|--------|--------|--------|--------|--------|--------|
A|--------|--------|--------|--------|--------|--------|--------|--------|--------|
E|--------|--------|--------|--------|--------|--------|--------|--------|--------|
B|--------|--------|--------|--------|--------|--------|--------|--------|--------|


E|--------|--------|--------|--------|--------|--------|--------|--------|--------|
B|--------|--------|--------|--------|--------|--------|--------|--------|--------|
G|--------|--------|--------|--------|--------|--------|--------|--------|--------|
D|--------|--------|--------|--------|--------|--------|--------|--------|--------|
A|--------|--------|--------|--------|--------|--------|--------|--------|--------|
E|--------|--------|--------|--------|--------|--------|--------|--------|--------|
B|--------|--------|--------|--------|--------|--------|--------|--------|--------|


E|--------|--------|--------|--------|--------|--------|--------|--------|--------|
B|--------|--------|--------|--------|--------|--------|--------|--------|--------|
G|--------|--------|--------|--------|--------|--------|--------|--------|--------|
D|--------|--------|--------|--------|--------|--------|--------|--------|--------|
A|--------|--------|--------|--------|--------|--------|--------|--------|--------|
E|--------|--------|--------|--------|--------|--------|--------|--------|--------|
B|--------|--------|--------|--------|--------|--------|--------|--------|--------|


E|--------|--------|--------|--------|--------|--------|--------|--------|--------|
B|--------|--------|--------|--------|--------|--------|--------|--------|--------|
G|--------|--------|--------|--------|--------|--------|--------|--------|--------|
D|--------|--------|--------|--------|--------|--------|--------|--------|--------|
A|--------|--------|--------|--------|--------|--------|--------|--------|--------|
E|--------|--------|--------|--------|--------|--------|--------|--------|--------|
B|--------|--------|--------|--------|--------|--------|--------|--------|--------|


E|--------|--------|--------|--------|--------|--------|--------|--------|--------|
B|--------|--------|--------|--------|--------|--------|--------|--------|--------|
G|--------|--------|--------|--------|--------|--------|--------|--------|--------|
D|--------|--------|--------|--------|--------|--------|--------|--------|--------|
A|--------|--------|--------|--------|--------|--------|--------|--------|--------|
E|--------|--------|--------|--------|--------|--------|--------|--------|--------|
B|--------|--------|--------|--------|--------|--------|--------|--------|--------|


E|--------|--------|--------|--------|--------|--------|--------|--------|--------|
B|--------|--------|--------|--------|--------|--------|--------|--------|--------|
G|--------|--------|--------|--------|--------|--------|--------|--------|--------|
D|--------|--------|--------|--------|--------|--------|--------|--------|--------|
A|--------|--------|--------|--------|--------|--------|--------|--------|--------|
E|--------|--------|--------|--------|--------|--------|--------|--------|--------|
B|--------|--------|--------|--------|--------|--------|--------|--------|--------|


E|--------|--------|--------|--------|--------|--------|--------|--------|--------|
B|--------|--------|--------|--------|--------|--------|--------|--------|--------|
G|--------|--------|--------|--------|--------|--------|--------|--------|--------|
D|--------|--------|--------|--------|--------|--------|--------|--------|--------|
A|--------|--------|--------|--------|--------|--------|--------|--------|--------|
E|--------|--------|--------|--------|--------|--------|--------|--------|--------|
B|--------|--------|--------|--------|--------|--------|--------|--------|--------|


E|--------|--------|--------|--------|--------|--------|--------|--------|--------|
B|--------|--------|--------|--------|--------|--------|--------|--------|--------|
G|--------|--------|--------|--------|--------|--------|--------|--------|--------|
D|--------|--------|--------|--------|--------|--------|--------|--------|--------|
A|--------|--------|--------|--------|--------|--------|--------|--------|--------|
E|--------|--------|--------|--------|--------|--------|--------|--------|--------|
B|--------|--------|--------|--------|--------|--------|--------|--------|--------|


E|--------|--------|--------|--------|--------|--------|--------|--------|--------|
B|--------|--------|--------|--------|--------|--------|--------|--------|--------|
G|--------|--------|--------|--------|--------|--------|--------|--------|--------|
D|--------|--------|--------|--------|--------|--------|--------|--------|--------|
A|--------|--------|--------|--------|--------|--------|--------|--------|--------|
E|--------|--------|--------|--------|--------|--------|--------|--------|--------|
B|--------|--------|--------|--------|--------|--------|--------|--------|--------|


E|--------|--------|--------|--------|--------|--------|--------|--------|--------|
B|--------|--------|--------|--------|--------|--------|--------|--------|--------|
G|--------|--------|--------|--------|--------|--------|--------|--------|--------|
D|--------|--------|--------|--------|--------|--------|--------|--------|--------|
A|--------|--------|--------|--------|--------|--------|--------|--------|--------|
E|--------|--------|--------|--------|--------|--------|--------|--------|--------|
B|--------|--------|--------|--------|--------|--------|--------|--------|--------|


E|--------|--------|--------|--------|--------|--------|--------|--------|--------|
B|--------|--------|--------|--------|--------|--------|--------|--------|--------|
G|--------|--------|--------|--------|--------|--------|--------|--------|--------|
D|--------|--------|--------|--------|--------|--------|--------|--------|--------|
A|--------|--------|--------|--------|--------|--------|--------|--------|--------|
E|--------|--------|--------|--------|--------|--------|--------|--------|--------|
B|--------|--------|--------|--------|--------|--------|--------|--------|--------|


E|--------|--------|--------|--------|--------|--------|--------|--------|--------|
B|--------|--------|--------|--------|--------|--------|--------|--------|--------|
G|--------|--------|--------|--------|--------|--------|--------|--------|--------|
D|--------|--------|--------|--------|--------|--------|--------|--------|--------|
A|--------|--------|--------|--------|--------|--------|--------|--------|--------|
E|--------|--------|--------|--------|--------|--------|--------|--------|--------|
B|--------|--------|--------|--------|--------|--------|--------|--------|--------|


E|--------|--------|--------|--------|--------|--------|--------|--------|--------|
B|--------|--------|--------|--------|--------|--------|--------|--------|--------|
G|--------|--------|--------|--------|--------|--------|--------|--------|--------|
D|--------|--------|--------|--------|--------|--------|--------|--------|--------|
A|--------|--------|--------|--------|--------|--------|--------|--------|--------|
E|--------|--------|--------|--------|--------|--------|--------|--------|--------|
B|--------|--------|--------|--------|--------|--------|--------|--------|--------|


E|--------|--------|--------|--------|--------|--------|--------|--------|--------|
B|--------|--------|--------|--------|--------|--------|--------|--------|--------|
G|--------|--------|--------|--------|--------|--------|--------|--------|--------|
D|--------|--------|--------|--------|--------|--------|--------|--------|--------|
A|--------|--------|--------|--------|--------|--------|--------|--------|--------|
E|--------|--------|--------|--------|--------|--------|--------|--------|--------|
B|--------|--------|--------|--------|--------|--------|--------|--------|--------|


E|--------|--------|--------|--------|--------|--------|--------|--------|--------|
B|--------|--------|--------|--------|--------|--------|--------|--------|--------|
G|--------|--------|--------|--------|--------|--------|--------|--------|--------|
D|--------|--------|--------|--------|--------|--------|--------|--------|--------|
A|--------|--------|--------|--------|--------|--------|--------|--------|--------|
E|--------|--------|--------|--------|--------|--------|--------|--------|--------|
B|--------|--------|--------|--------|--------|--------|--------|--------|--------|


E|--------|--------|--------|--------|--------|--------|--------|--------|--------|
B|--------|--------|--------|--------|--------|--------|--------|--------|--------|
G|--------|--------|--------|--------|--------|--------|--------|--------|--------|
D|--------|--------|--------|--------|--------|--------|--------|--------|--------|
A|--------|--------|--------|--------|--------|--------|--------|--------|--------|
E|--------|--------|--------|--------|--------|--------|--------|--------|--------|
B|--------|--------|--------|--------|--------|--------|--------|--------|--------|


E|--------|--------|--------|--------|--------|--------|--------|--------|--------|
B|--------|--------|--------|--------|--------|--------|--------|--------|--------|
G|--------|--------|--------|--------|--------|--------|--------|--------|--------|
D|--------|--------|--------|--------|--------|--------|--------|--------|--------|
A|--------|--------|--------|--------|--------|--------|--------|--------|--------|
E|--------|--------|--------|--------|--------|--------|--------|--------|--------|
B|--------|--------|--------|--------|--------|--------|--------|--------|--------|


E|--------|--------|--------|--------|--------|--------|--------|--------|--------|
B|--------|--------|--------|--------|--------|--------|--------|--------|--------|
G|--------|--------|--------|--------|--------|--------|--------|--------|--------|
D|--------|--------|--------|--------|--------|--------|--------|--------|--------|
A|--------|--------|--------|--------|--------|--------|--------|--------|--------|
E|--------|--------|--------|--------|--------|--------|--------|--------|--------|
B|--------|--------|--------|--------|--------|--------|--------|--------|--------|


E|--------|--------|--------|--------|--------|--------|--------|--------|--------|
B|--------|--------|--------|--------|--------|--------|--------|--------|--------|
G|--------|--------|--------|--------|--------|--------|--------|--------|--------|
D|--------|--------|--------|--------|--------|--------|--------|--------|--------|
A|--------|--------|--------|--------|--------|--------|--------|--------|--------|
E|--------|--------|--------|--------|--------|--------|--------|--------|--------|
B|--------|--------|--------|--------|--------|--------|--------|--------|--------|


E|--------|--------|--------|--------|--------|--------|--------|--------|--------|
B|--------|--------|--------|--------|--------|--------|--------|--------|--------|
G|--------|--------|--------|--------|--------|--------|--------|--------|--------|
D|--------|--------|--------|--------|--------|--------|--------|--------|--------|
A|--------|--------|--------|--------|--------|--------|--------|--------|--------|
E|--------|--------|--------|--------|--------|--------|--------|--------|--------|
B|--------|--------|--------|--------|--------|--------|--------|--------|--------|


E|--------|--------|--------|--------|--------|--------|--------|--------|--------|
B|--------|--------|--------|--------|--------|--------|--------|--------|--------|
G|--------|--------|--------|--------|--------|--------|--------|--------|--------|
D|--------|--------|--------|--------|--------|--------|--------|--------|--------|
A|--------|--------|--------|--------|--------|--------|--------|--------|--------|
E|--------|--------|--------|--------|--------|--------|--------|--------|--------|
B|--------|--------|--------|--------|--------|--------|--------|--------|--------|


E|--------|--------|--------|--------|--------|--------|--------|--------|--------|
B|--------|--------|--------|--------|--------|--------|--------|--------|--------|
G|--------|--------|--------|--------|--------|--------|--------|--------|--------|
D|--------|--------|--------|--------|--------|--------|--------|--------|--------|
A|--------|--------|--------|--------|--------|--------|--------|--------|--------|
E|--------|--------|--------|--------|--------|--------|--------|--------|--------|
B|--------|--------|--------|--------|--------|--------|--------|--------|--------|


E|--------|--------|--------|--------|--------|--------|--------|--------|--------|
B|--------|--------|--------|--------|--------|--------|--------|--------|--------|
G|--------|--------|--------|--------|--------|--------|--------|--------|--------|
D|--------|--------|--------|--------|--------|--------|--------|--------|--------|
A|--------|--------|--------|--------|--------|--------|--------|--------|--------|
E|--------|--------|--------|--------|--------|--------|--------|--------|--------|
B|--------|--------|--------|--------|--------|--------|--------|--------|--------|


E|--------|--------|--------|--------|--------|--------|--------|--------|--------|
B|--------|--------|--------|--------|--------|--------|--------|--------|--------|
G|--------|--------|--------|--------|--------|--------|--------|--------|--------|
D|--------|--------|--------|--------|--------|--------|--------|--------|--------|
A|--------|--------|--------|--------|--------|--------|--------|--------|--------|
E|--------|--------|--------|--------|--------|--------|--------|--------|--------|
B|--------|--------|--------|--------|--------|--------|--------|--------|--------|


E|--------|--------|--------|--------|--------|--------|--------|-7------|-8------|
B|--------|--------|--------|--------|--------|--------|--------|-8------|-10-----|
G|--------|--------|--------|--------|--------|--------|--------|-9------|-11-----|
D|--------|--------|--------|--------|--------|--------|--------|-9------|-10-----|
A|--------|--------|--------|--------|--------|--------|--------|--------|--------|
E|--------|--------|--------|--------|--------|--------|--------|--------|--------|
B|--------|--------|--------|--------|--------|--------|--------|--------|--------|


E|-8---12-----|-----12-----|-----12----7-----|-------8-----|-------8---12----|-----------12----|
B|-10--13-----|-----12-----|-----12----8-----|-------10----|-------10--13----|-----------12----|
G|-11--14-----|-----12-----|-----12----9-----|-------11----|-------11--14----|-----------12----|
D|-10--14-----|-----14-----|-----14----9-----|-------10----|-------10--14----|-----------14----|
A|------------|------------|-----------------|-------------|-----------------|-----------------|
E|------------|------------|-----------------|-------------|-----------------|-----------------|
B|------------|------------|-----------------|-------------|-----------------|-----------------|


E|-----------12----|--------|--------|--------|--------|--------|--------|--------|
B|-----------12----|--------|--------|--------|--------|--------|--------|--------|
G|-----------12----|--------|--------|--------|--------|--------|--------|--------|
D|-----------14----|--------|--------|--------|--------|--------|--------|--------|
A|-----------------|--------|--------|--------|--------|--------|--------|--------|
E|-----------------|--------|--------|--------|--------|--------|--------|--------|
B|-----------------|--------|--------|--------|--------|--------|--------|--------|


E|--------|--------|--------|--------|--------|--------|--------|--------|--------|
B|--------|--------|--------|--------|--------|--------|--------|--------|--------|
G|--------|--------|--------|--------|--------|--------|--------|--------|--------|
D|--------|--------|--------|--------|--------|--------|--------|--------|--------|
A|--------|--------|--------|--------|--------|--------|--------|--------|--------|
E|--------|--------|--------|--------|--------|--------|--------|--------|--------|
B|--------|--------|--------|--------|--------|--------|--------|--------|--------|


E|--------|--------|--------|--------|--------|--------|--------|--------|--------|
B|--------|--------|--------|--------|--------|--------|--------|--------|--------|
G|--------|--------|--------|--------|--------|--------|--------|--------|--------|
D|--------|--------|--------|--------|--------|--------|--------|--------|--------|
A|--------|--------|--------|--------|--------|--------|--------|--------|--------|
E|--------|--------|--------|--------|--------|--------|--------|--------|--------|
B|--------|--------|--------|--------|--------|--------|--------|--------|--------|


E|--------|--------|--------|--------|--------|--------|--------|--------|--------|
B|--------|--------|--------|--------|--------|--------|--------|--------|--------|
G|--------|--------|--------|--------|--------|--------|--------|--------|--------|
D|--------|--------|--------|--------|--------|--------|--------|--------|--------|
A|--------|--------|--------|--------|--------|--------|--------|--------|--------|
E|--------|--------|--------|--------|--------|--------|--------|--------|--------|
B|--------|--------|--------|--------|--------|--------|--------|--------|--------|


E|--------|--------|--------|--------|--------|--------|--------|--------|--------|
B|--------|--------|--------|--------|--------|--------|--------|--------|--------|
G|--------|--------|--------|--------|--------|--------|--------|--------|--------|
D|--------|--------|--------|--------|--------|--------|--------|--------|--------|
A|--------|--------|--------|--------|--------|--------|--------|--------|--------|
E|--------|--------|--------|--------|--------|--------|--------|--------|--------|
B|--------|--------|--------|--------|--------|--------|--------|--------|--------|


E|--------|--------|--------|--------|--------|--------|--------|--------|--------|
B|--------|--------|--------|--------|--------|--------|--------|--------|--------|
G|--------|--------|--------|--------|--------|--------|--------|--------|--------|
D|--------|--------|--------|--------|--------|--------|--------|--------|--------|
A|--------|--------|--------|--------|--------|--------|--------|--------|--------|
E|--------|--------|--------|--------|--------|--------|--------|--------|--------|
B|--------|--------|--------|--------|--------|--------|--------|--------|--------|


E|--------|--------|--------|--------|---------------------------------|-----18--18-----------------------|
B|--------|--------|--------|--------|-17-19-19---20-19-19---17-19-19--|-------------17-19-19---20-19-19--|
G|--------|--------|--------|--------|---------------------------------|-----15--15-----------------------|
D|--------|--------|--------|--------|-14-16-16---17-16-16---14-16-16--|-------------14-16-16---17-16-16--|
A|--------|--------|--------|--------|---------------------------------|----------------------------------|
E|--------|--------|--------|--------|---------------------------------|----------------------------------|
B|--------|--------|--------|--------|---------------------------------|----------------------------------|


E|----------------20--20------------|---------------------------18--|-18------------------------------|
B|-----17-19-19-----------17-19-19--|-----20-19-19---17-19-19-------|-----17-19-19---20-19-19---17-19-|
G|----------------17--17------------|---------------------------15--|-15------------------------------|
D|-----14-16-16-----------14-16-16--|-----17-16-16---14-16-16-------|-----14-16-16---17-16-16---14-16-|
A|----------------------------------|-------------------------------|---------------------------------|
E|----------------------------------|-------------------------------|---------------------------------|
B|----------------------------------|-------------------------------|---------------------------------|


E|------20--20--------|--------|--------|--------|--------|--------|--------|--------|
B|-19-----------------|--------|--------|--------|--------|--------|--------|--------|
G|------17--17--------|--------|--------|--------|--------|--------|--------|--------|
D|-16-----------------|--------|--------|--------|--------|--------|--------|--------|
A|--------------------|--------|--------|--------|--------|--------|--------|--------|
E|--------------------|--------|--------|--------|--------|--------|--------|--------|
B|--------------------|--------|--------|--------|--------|--------|--------|--------|


E|--------|--------|--------|--------|--------|--------|--------|--------|--------|
B|--------|--------|--------|--------|--------|--------|--------|--------|--------|
G|--------|--------|--------|--------|--------|--------|--------|--------|--------|
D|--------|--------|--------|--------|--------|--------|--------|--------|--------|
A|--------|--------|--------|--------|--------|--------|--------|--------|--------|
E|--------|--------|--------|--------|--------|--------|--------|--------|--------|
B|--------|--------|--------|--------|--------|--------|--------|--------|--------|


E|--------|--------|--------|--------|--------|--------|--------|--------|--------|
B|--------|--------|--------|--------|--------|--------|--------|--------|--------|
G|--------|--------|--------|--------|--------|--------|--------|--------|--------|
D|--------|--------|--------|--------|--------|--------|--------|--------|--------|
A|--------|--------|--------|--------|--------|--------|--------|--------|--------|
E|--------|--------|--------|--------|--------|--------|--------|--------|--------|
B|--------|--------|--------|--------|--------|--------|--------|--------|--------|


E|--------|--------|--------|--------|--------|--------|--------|--------|--------|
B|--------|--------|--------|--------|--------|--------|--------|--------|--------|
G|--------|--------|--------|--------|--------|--------|--------|--------|--------|
D|--------|--------|--------|--------|--------|--------|--------|--------|--------|
A|--------|--------|--------|--------|--------|--------|--------|--------|--------|
E|--------|--------|--------|--------|--------|--------|--------|--------|--------|
B|--------|--------|--------|--------|--------|--------|--------|--------|--------|


E|--------|--------|--------|--------|--------|--------|--------|--------|--------|
B|--------|--------|--------|--------|--------|--------|--------|--------|--------|
G|--------|--------|--------|--------|--------|--------|--------|--------|--------|
D|--------|--------|--------|--------|--------|--------|--------|--------|--------|
A|--------|--------|--------|--------|--------|--------|--------|--------|--------|
E|--------|--------|--------|--------|--------|--------|--------|--------|--------|
B|--------|--------|--------|--------|--------|--------|--------|--------|--------|


E|--------|--------|--------|--------|--------|--------|--------|--------|--------|
B|--------|--------|--------|--------|--------|--------|--------|--------|--------|
G|--------|--------|--------|--------|--------|--------|--------|--------|--------|
D|--------|--------|--------|--------|--------|--------|--------|--------|--------|
A|--------|--------|--------|--------|--------|--------|--------|--------|--------|
E|--------|--------|--------|--------|--------|--------|--------|--------|--------|
B|--------|--------|--------|--------|--------|--------|--------|--------|--------|


E|--------|--------|--------|--------|--------|--------|--------|--------|--------|
B|--------|--------|--------|--------|--------|--------|--------|--------|--------|
G|--------|--------|--------|--------|--------|--------|--------|--------|--------|
D|--------|--------|--------|--------|--------|--------|--------|--------|--------|
A|--------|--------|--------|--------|--------|--------|--------|--------|--------|
E|--------|--------|--------|--------|--------|--------|--------|--------|--------|
B|--------|--------|--------|--------|--------|--------|--------|--------|--------|


E|--------|--------|--------|--------|--------|--------|--------|--------|--------|
B|--------|--------|--------|--------|--------|--------|--------|--------|--------|
G|--------|--------|--------|--------|--------|--------|--------|--------|--------|
D|--------|--------|--------|--------|--------|--------|--------|--------|--------|
A|--------|--------|--------|--------|--------|--------|--------|--------|--------|
E|--------|--------|--------|--------|--------|--------|--------|--------|--------|
B|--------|--------|--------|--------|--------|--------|--------|--------|--------|


E|--------|--------|--------|--------|--------|--------|--------|--------|--------|
B|--------|--------|--------|--------|--------|--------|--------|--------|--------|
G|--------|--------|--------|--------|--------|--------|--------|--------|--------|
D|--------|--------|--------|--------|--------|--------|--------|--------|--------|
A|--------|--------|--------|--------|--------|--------|--------|--------|--------|
E|--------|--------|--------|--------|--------|--------|--------|--------|--------|
B|--------|--------|--------|--------|--------|--------|--------|--------|--------|





Track 7: Rhythm

E|--------|--------|--------|--------|--------|--------|--------|--------|--------|
B|--------|--------|--------|--------|--------|--------|--------|--------|--------|
G|--------|--------|--------|--------|--------|--------|--------|--------|--------|
D|--------|--------|--------|--------|--------|--------|--------|--------|--------|
A|--------|--------|--------|--------|--------|--------|--------|--------|--------|
E|--------|--------|--------|--------|--------|--------|--------|--------|--------|
B|--------|--------|--------|--------|--------|--------|--------|--------|--------|


E|--------|--------|--------|--------|--------|--------|--------|--------|--------|
B|--------|--------|--------|--------|--------|--------|--------|--------|--------|
G|--------|--------|--------|--------|--------|--------|--------|--------|--------|
D|--------|--------|--------|--------|--------|--------|--------|--------|--------|
A|--------|--------|--------|--------|--------|--------|--------|--------|--------|
E|--------|--------|--------|--------|--------|--------|--------|--------|--------|
B|--------|--------|--------|--------|--------|--------|--------|--------|--------|


E|--------|--------|--------|--------|--------|--------|--------|--------|--------|
B|--------|--------|--------|--------|--------|--------|--------|--------|--------|
G|--------|--------|--------|--------|--------|--------|--------|--------|--------|
D|--------|--------|--------|--------|--------|--------|--------|--------|--------|
A|--------|--------|--------|--------|--------|--------|--------|--------|--------|
E|--------|--------|--------|--------|--------|--------|--------|--------|--------|
B|--------|--------|--------|--------|--------|--------|--------|--------|--------|


E|--------|--------|--------|--------|--------|--------|--------|--------|--------|
B|--------|--------|--------|--------|--------|--------|--------|--------|--------|
G|--------|--------|--------|--------|--------|--------|--------|--------|--------|
D|--------|--------|--------|--------|--------|--------|--------|--------|--------|
A|--------|--------|--------|--------|--------|--------|--------|--------|--------|
E|--------|--------|--------|--------|--------|--------|--------|--------|--------|
B|--------|--------|--------|--------|--------|--------|--------|--------|--------|


E|--------|--------|--------|--------|--------|--------|--------|--------|--------|
B|--------|--------|--------|--------|--------|--------|--------|--------|--------|
G|--------|--------|--------|--------|--------|--------|--------|--------|--------|
D|--------|--------|--------|--------|--------|--------|--------|--------|--------|
A|--------|--------|--------|--------|--------|--------|--------|--------|--------|
E|--------|--------|--------|--------|--------|--------|--------|--------|--------|
B|--------|--------|--------|--------|--------|--------|--------|--------|--------|


E|--------|--------|--------|--------|--------|--------|--------|--------|--------|
B|--------|--------|--------|--------|--------|--------|--------|--------|--------|
G|--------|--------|--------|--------|--------|--------|--------|--------|--------|
D|--------|--------|--------|--------|--------|--------|--------|--------|--------|
A|--------|--------|--------|--------|--------|--------|--------|--------|--------|
E|--------|--------|--------|--------|--------|--------|--------|--------|--------|
B|--------|--------|--------|--------|--------|--------|--------|--------|--------|


E|--------|--------|--------|--------|--------|--------|--------|--------|--------|
B|--------|--------|--------|--------|--------|--------|--------|--------|--------|
G|--------|--------|--------|--------|--------|--------|--------|--------|--------|
D|--------|--------|--------|--------|--------|--------|--------|--------|--------|
A|--------|--------|--------|--------|--------|--------|--------|--------|--------|
E|--------|--------|--------|--------|--------|--------|--------|--------|--------|
B|--------|--------|--------|--------|--------|--------|--------|--------|--------|


E|--------|--------|--------|--------|--------|--------|--------|--------|--------|
B|--------|--------|--------|--------|--------|--------|--------|--------|--------|
G|--------|--------|--------|--------|--------|--------|--------|--------|--------|
D|--------|--------|--------|--------|--------|--------|--------|--------|--------|
A|--------|--------|--------|--------|--------|--------|--------|--------|--------|
E|--------|--------|--------|--------|--------|--------|--------|--------|--------|
B|--------|--------|--------|--------|--------|--------|--------|--------|--------|


E|--------|--------|--------|--------|--------|--------|--------|--------|--------|
B|--------|--------|--------|--------|--------|--------|--------|--------|--------|
G|--------|--------|--------|--------|--------|--------|--------|--------|--------|
D|--------|--------|--------|--------|--------|--------|--------|--------|--------|
A|--------|--------|--------|--------|--------|--------|--------|--------|--------|
E|--------|--------|--------|--------|--------|--------|--------|--------|--------|
B|--------|--------|--------|--------|--------|--------|--------|--------|--------|


E|--------|--------|--------|--------|--------|--------|--------|--------|--------|
B|--------|--------|--------|--------|--------|--------|--------|--------|--------|
G|--------|--------|--------|--------|--------|--------|--------|--------|--------|
D|--------|--------|--------|--------|--------|--------|--------|--------|--------|
A|--------|--------|--------|--------|--------|--------|--------|--------|--------|
E|--------|--------|--------|--------|--------|--------|--------|--------|--------|
B|--------|--------|--------|--------|--------|--------|--------|--------|--------|


E|--------|--------|--------|--------|--------|--------|--------|--------|--------|
B|--------|--------|--------|--------|--------|--------|--------|--------|--------|
G|--------|--------|--------|--------|--------|--------|--------|--------|--------|
D|--------|--------|--------|--------|--------|--------|--------|--------|--------|
A|--------|--------|--------|--------|--------|--------|--------|--------|--------|
E|--------|--------|--------|--------|--------|--------|--------|--------|--------|
B|--------|--------|--------|--------|--------|--------|--------|--------|--------|


E|--------|--------|--------|--------|--------|--------|--------|--------|--------|
B|--------|--------|--------|--------|--------|--------|--------|--------|--------|
G|--------|--------|--------|--------|--------|--------|--------|--------|--------|
D|--------|--------|--------|--------|--------|--------|--------|--------|--------|
A|--------|--------|--------|--------|--------|--------|--------|--------|--------|
E|--------|--------|--------|--------|--------|--------|--------|--------|--------|
B|--------|--------|--------|--------|--------|--------|--------|--------|--------|


E|--------|--------|--------|--------|--------|--------|--------|--------|--------|
B|--------|--------|--------|--------|--------|--------|--------|--------|--------|
G|--------|--------|--------|--------|--------|--------|--------|--------|--------|
D|--------|--------|--------|--------|--------|--------|--------|--------|--------|
A|--------|--------|--------|--------|--------|--------|--------|--------|--------|
E|--------|--------|--------|--------|--------|--------|--------|--------|--------|
B|--------|--------|--------|--------|--------|--------|--------|--------|--------|


E|--------|--------|--------|--------|--------|--------|--------|--------|--------|
B|--------|--------|--------|--------|--------|--------|--------|--------|--------|
G|--------|--------|--------|--------|--------|--------|--------|--------|--------|
D|--------|--------|--------|--------|--------|--------|--------|--------|--------|
A|--------|--------|--------|--------|--------|--------|--------|--------|--------|
E|--------|--------|--------|--------|--------|--------|--------|--------|--------|
B|--------|--------|--------|--------|--------|--------|--------|--------|--------|


E|--------|--------|--------|--------|--------|--------|--------|--------|--------|
B|--------|--------|--------|--------|--------|--------|--------|--------|--------|
G|--------|--------|--------|--------|--------|--------|--------|--------|--------|
D|--------|--------|--------|--------|--------|--------|--------|--------|--------|
A|--------|--------|--------|--------|--------|--------|--------|--------|--------|
E|--------|--------|--------|--------|--------|--------|--------|--------|--------|
B|--------|--------|--------|--------|--------|--------|--------|--------|--------|


E|--------|--------|--------|--------|--------|--------|--------|--------|--------|
B|--------|--------|--------|--------|--------|--------|--------|--------|--------|
G|--------|--------|--------|--------|--------|--------|--------|--------|--------|
D|--------|--------|--------|--------|--------|--------|--------|--------|--------|
A|--------|--------|--------|--------|--------|--------|--------|--------|--------|
E|--------|--------|--------|--------|--------|--------|--------|--------|--------|
B|--------|--------|--------|--------|--------|--------|--------|--------|--------|


E|--------|--------|--------|--------|--------|--------|--------|--------|--------|
B|--------|--------|--------|--------|--------|--------|--------|--------|--------|
G|--------|--------|--------|--------|--------|--------|--------|--------|--------|
D|--------|--------|--------|--------|--------|--------|--------|--------|--------|
A|--------|--------|--------|--------|--------|--------|--------|--------|--------|
E|--------|--------|--------|--------|--------|--------|--------|--------|--------|
B|--------|--------|--------|--------|--------|--------|--------|--------|--------|


E|--------|--------|--------|--------|--------|--------|--------|--------|--------|
B|--------|--------|--------|--------|--------|--------|--------|--------|--------|
G|--------|--------|--------|--------|--------|--------|--------|--------|--------|
D|--------|--------|--------|--------|--------|--------|--------|--------|--------|
A|--------|--------|--------|--------|--------|--------|--------|--------|--------|
E|--------|--------|--------|--------|--------|--------|--------|--------|--------|
B|--------|--------|--------|--------|--------|--------|--------|--------|--------|


E|--------|--------|--------|--------|--------|--------|--------|--------|--------|
B|--------|--------|--------|--------|--------|--------|--------|--------|--------|
G|--------|--------|--------|--------|--------|--------|--------|--------|--------|
D|--------|--------|--------|--------|--------|--------|--------|--------|--------|
A|--------|--------|--------|--------|--------|--------|--------|--------|--------|
E|--------|--------|--------|--------|--------|--------|--------|--------|--------|
B|--------|--------|--------|--------|--------|--------|--------|--------|--------|


E|--------|--------|--------|--------|--------|--------|--------|--------|--------|
B|--------|--------|--------|--------|--------|--------|--------|--------|--------|
G|--------|--------|--------|--------|--------|--------|--------|--------|--------|
D|--------|--------|--------|--------|--------|--------|--------|--------|--------|
A|--------|--------|--------|--------|--------|--------|--------|--------|--------|
E|--------|--------|--------|--------|--------|--------|--------|--------|--------|
B|--------|--------|--------|--------|--------|--------|--------|--------|--------|


E|--------|--------|--------|--------|--------|--------|--------|--------|--------|
B|--------|--------|--------|--------|--------|--------|--------|--------|--------|
G|--------|--------|--------|--------|--------|--------|--------|--------|--------|
D|--------|--------|--------|--------|--------|--------|--------|--------|--------|
A|--------|--------|--------|--------|--------|--------|--------|--------|--------|
E|--------|--------|--------|--------|--------|--------|--------|--------|--------|
B|--------|--------|--------|--------|--------|--------|--------|--------|--------|


E|--------|--------|--------|--------|--------|--------|--------|--------|--------|
B|--------|--------|--------|--------|--------|--------|--------|--------|--------|
G|--------|--------|--------|--------|--------|--------|--------|--------|--------|
D|--------|--------|--------|--------|--------|--------|--------|--------|--------|
A|--------|--------|--------|--------|--------|--------|--------|--------|--------|
E|--------|--------|--------|--------|--------|--------|--------|--------|--------|
B|--------|--------|--------|--------|--------|--------|--------|--------|--------|


E|--------|--------|--------|--------|--------|--------|--------|--------|--------|
B|--------|--------|--------|--------|--------|--------|--------|--------|--------|
G|--------|--------|--------|--------|--------|--------|--------|--------|--------|
D|--------|--------|--------|--------|--------|--------|--------|--------|--------|
A|--------|--------|--------|--------|--------|--------|--------|--------|--------|
E|--------|--------|--------|--------|--------|--------|--------|--------|--------|
B|--------|--------|--------|--------|--------|--------|--------|--------|--------|


E|--------|--------|--------|--------|--------|--------|--------|--------|--------|
B|--------|--------|--------|--------|--------|--------|--------|--------|--------|
G|--------|--------|--------|--------|--------|--------|--------|--------|--------|
D|--------|--------|--------|--------|--------|--------|--------|--------|--------|
A|--------|--------|--------|--------|--------|--------|--------|--------|--------|
E|--------|--------|--------|--------|--------|--------|--------|--------|--------|
B|--------|--------|--------|--------|--------|--------|--------|--------|--------|


E|--------|--------|--------|--------|--------|--------|--------|--------|--------|
B|--------|--------|--------|--------|--------|--------|--------|--------|--------|
G|--------|--------|--------|--------|--------|--------|--------|--------|--------|
D|--------|--------|--------|--------|--------|--------|--------|--------|--------|
A|--------|--------|--------|--------|--------|--------|--------|--------|--------|
E|--------|--------|--------|--------|--------|--------|--------|--------|--------|
B|--------|--------|--------|--------|--------|--------|--------|--------|--------|


E|--------|--------|--------|--------|--------|--------|--------|--------|--------|
B|--------|--------|--------|--------|--------|--------|--------|--------|--------|
G|--------|--------|--------|--------|--------|--------|--------|--------|--------|
D|--------|--------|--------|--------|--------|--------|--------|--------|--------|
A|--------|--------|--------|--------|--------|--------|--------|--------|--------|
E|--------|--------|--------|--------|--------|--------|--------|--------|--------|
B|--------|--------|--------|--------|--------|--------|--------|--------|--------|


E|--------|--------|--------|--------|--------|--------|--------|--------|--------|
B|--------|--------|--------|--------|--------|--------|--------|--------|--------|
G|--------|--------|--------|--------|--------|--------|--------|--------|--------|
D|--------|--------|--------|--------|--------|--------|--------|--------|--------|
A|--------|--------|--------|--------|--------|--------|--------|--------|--------|
E|--------|--------|--------|--------|--------|--------|--------|--------|--------|
B|--------|--------|--------|--------|--------|--------|--------|--------|--------|


E|--------|--------|--------|--------|--------|--------|--------|--------|--------|
B|--------|--------|--------|--------|--------|--------|--------|--------|--------|
G|--------|--------|--------|--------|--------|--------|--------|--------|--------|
D|--------|--------|--------|--------|--------|--------|--------|--------|--------|
A|--------|--------|--------|--------|--------|--------|--------|--------|--------|
E|--------|--------|--------|--------|--------|--------|--------|--------|--------|
B|--------|--------|--------|--------|--------|--------|--------|--------|--------|


E|--------|--------|--------|--------|--------|--------|--------|--------|--------|
B|--------|--------|--------|--------|--------|--------|--------|--------|--------|
G|--------|--------|--------|--------|--------|--------|--------|--------|--------|
D|--------|--------|--------|--------|--------|--------|--------|--------|--------|
A|--------|--------|--------|--------|--------|--------|--------|--------|--------|
E|--------|--------|--------|--------|--------|--------|--------|--------|--------|
B|--------|--------|--------|--------|--------|--------|--------|--------|--------|


E|--------|--------|--------|--------|--------|--------|--------|--------|--------|
B|--------|--------|--------|--------|--------|--------|--------|--------|--------|
G|--------|--------|--------|--------|--------|--------|--------|--------|--------|
D|--------|--------|--------|--------|--------|--------|--------|--------|--------|
A|--------|--------|--------|--------|--------|--------|--------|--------|--------|
E|--------|--------|--------|--------|--------|--------|--------|--------|--------|
B|--------|--------|--------|--------|--------|--------|--------|--------|--------|


E|--------|--------|--------|--------|--------|--------|--------|--------|--------|
B|--------|--------|--------|--------|--------|--------|--------|--------|--------|
G|--------|--------|--------|--------|--------|--------|--------|--------|--------|
D|--------|--------|--------|--------|--------|--------|--------|--------|--------|
A|--------|--------|--------|--------|--------|--------|--------|--------|--------|
E|--------|--------|--------|--------|--------|--------|--------|--------|--------|
B|--------|--------|--------|--------|--------|--------|--------|--------|--------|


E|--------|--------|--------|--------|--------|--------|--------|--------|--------|
B|--------|--------|--------|--------|--------|--------|--------|--------|--------|
G|--------|--------|--------|--------|--------|--------|--------|--------|--------|
D|--------|--------|--------|--------|--------|--------|--------|--------|--------|
A|--------|--------|--------|--------|--------|--------|--------|--------|--------|
E|--------|--------|--------|--------|--------|--------|--------|--------|--------|
B|--------|--------|--------|--------|--------|--------|--------|--------|--------|


E|--------|--------|--------|--------|--------|--------|--------|--------|--------|
B|--------|--------|--------|--------|--------|--------|--------|--------|--------|
G|--------|--------|--------|--------|--------|--------|--------|--------|--------|
D|--------|--------|--------|--------|--------|--------|--------|--------|--------|
A|--------|--------|--------|--------|--------|--------|--------|--------|--------|
E|--------|--------|--------|--------|--------|--------|--------|--------|--------|
B|--------|--------|--------|--------|--------|--------|--------|--------|--------|


E|--------|--------|--------|--------|--------|--------|--------|--------|--------|
B|--------|--------|--------|--------|--------|--------|--------|--------|--------|
G|--------|--------|--------|--------|--------|--------|--------|--------|--------|
D|--------|--------|--------|--------|--------|--------|--------|--------|--------|
A|--------|--------|--------|--------|--------|--------|--------|--------|--------|
E|--------|--------|--------|--------|--------|--------|--------|--------|--------|
B|--------|--------|--------|--------|--------|--------|--------|--------|--------|


E|--------|--------|--------|--------|--------|--------|--------|--------|--------|
B|--------|--------|--------|--------|--------|--------|--------|--------|--------|
G|--------|--------|--------|--------|--------|--------|--------|--------|--------|
D|--------|--------|--------|--------|--------|--------|--------|--------|--------|
A|--------|--------|--------|--------|--------|--------|--------|--------|--------|
E|--------|--------|--------|--------|--------|--------|--------|--------|--------|
B|--------|--------|--------|--------|--------|--------|--------|--------|--------|


E|-------------------------------------|-----------------------------------|-----------------------------------|
B|-------------------------------------|-----------------------------------|-----------------------------------|
G|-------------------------------------|-----------------------------------|-----------------------------------|
D|-------------------------------------|-----------------------------------|-----------------------------------|
A|-------------------------------------|-----------------------------------|-----------------------------------|
E|-3--2--0---7---0---0---8--7--0---0---|-0---0---3--2--0---0---0---0---8---|-0---3--2--0---0---5---0---8---0---|
B|-------------------------------------|-----------------------------------|-----------------------------------|


E|-----------------------------------|---------------------------------------|-------------------------------------|
B|-----------------------------------|---------------------------------------|-------------------------------------|
G|-----------------------------------|---------------------------------------|-------------------------------------|
D|-----------------------------------|---------------------------------------|-------------------------------------|
A|-----------------------------------|---------------------------------------|-------------------------------------|
E|-0---0---0---3--2--0---0---0---0---|-8--7--0---3--2--0---3--2--0---7---0---|-0---8--7--0---0---0---0---3--2--0---|
B|-----------------------------------|---------------------------------------|-------------------------------------|


E|-----------------------------------|-----------------------------------|-------------------------------------|
B|-----------------------------------|-----------------------------------|-------------------------------------|
G|-----------------------------------|-----------------------------------|-------------------------------------|
D|-----------------------------------|-----------------------------------|-------------------------------------|
A|-----------------------------------|-----------------------------------|-------------------------------------|
E|-0---0---0---8---0---3--2--0---0---|-5---0---8---0---0---0---0---3--2--|-0---0---0---0---8--7--0---3--2--0---|
B|-----------------------------------|-----------------------------------|-------------------------------------|


E|--------|--------|--------|--------|--------|--------|--------|--------|--------|
B|--------|--------|--------|--------|--------|--------|--------|--------|--------|
G|--------|--------|--------|--------|--------|--------|--------|--------|--------|
D|--------|--------|--------|--------|--------|--------|--------|--------|--------|
A|--------|--------|--------|--------|--------|--------|--------|--------|--------|
E|--------|--------|--------|--------|--------|--------|--------|--------|--------|
B|--------|--------|--------|--------|--------|--------|--------|--------|--------|


E|--------|--------|--------|--------|--------|--------|--------|--------|--------|
B|--------|--------|--------|--------|--------|--------|--------|--------|--------|
G|--------|--------|--------|--------|--------|--------|--------|--------|--------|
D|--------|--------|--------|--------|--------|--------|--------|--------|--------|
A|--------|--------|--------|--------|--------|--------|--------|--------|--------|
E|--------|--------|--------|--------|--------|--------|--------|--------|--------|
B|--------|--------|--------|--------|--------|--------|--------|--------|--------|


E|--------|--------|--------|--------|--------|--------|--------|--------|--------|
B|--------|--------|--------|--------|--------|--------|--------|--------|--------|
G|--------|--------|--------|--------|--------|--------|--------|--------|--------|
D|--------|--------|--------|--------|--------|--------|--------|--------|--------|
A|--------|--------|--------|--------|--------|--------|--------|--------|--------|
E|--------|--------|--------|--------|--------|--------|--------|--------|--------|
B|--------|--------|--------|--------|--------|--------|--------|--------|--------|


E|--------|--------|--------|--------|--------|--------|--------|--------|--------|
B|--------|--------|--------|--------|--------|--------|--------|--------|--------|
G|--------|--------|--------|--------|--------|--------|--------|--------|--------|
D|--------|--------|--------|--------|--------|--------|--------|--------|--------|
A|--------|--------|--------|--------|--------|--------|--------|--------|--------|
E|--------|--------|--------|--------|--------|--------|--------|--------|--------|
B|--------|--------|--------|--------|--------|--------|--------|--------|--------|


E|--------|--------|--------|--------|--------|--------|--------|--------|--------|
B|--------|--------|--------|--------|--------|--------|--------|--------|--------|
G|--------|--------|--------|--------|--------|--------|--------|--------|--------|
D|--------|--------|--------|--------|--------|--------|--------|--------|--------|
A|--------|--------|--------|--------|--------|--------|--------|--------|--------|
E|--------|--------|--------|--------|--------|--------|--------|--------|--------|
B|--------|--------|--------|--------|--------|--------|--------|--------|--------|


E|--------|--------|--------|--------|--------|--------|--------|--------|--------|
B|--------|--------|--------|--------|--------|--------|--------|--------|--------|
G|--------|--------|--------|--------|--------|--------|--------|--------|--------|
D|--------|--------|--------|--------|--------|--------|--------|--------|--------|
A|--------|--------|--------|--------|--------|--------|--------|--------|--------|
E|--------|--------|--------|--------|--------|--------|--------|--------|--------|
B|--------|--------|--------|--------|--------|--------|--------|--------|--------|


E|--------|--------|--------|--------|--------|--------|--------|--------|--------|
B|--------|--------|--------|--------|--------|--------|--------|--------|--------|
G|--------|--------|--------|--------|--------|--------|--------|--------|--------|
D|--------|--------|--------|--------|--------|--------|--------|--------|--------|
A|--------|--------|--------|--------|--------|--------|--------|--------|--------|
E|--------|--------|--------|--------|--------|--------|--------|--------|--------|
B|--------|--------|--------|--------|--------|--------|--------|--------|--------|


E|--------|--------|--------|--------|--------|--------|--------|--------|--------|
B|--------|--------|--------|--------|--------|--------|--------|--------|--------|
G|--------|--------|--------|--------|--------|--------|--------|--------|--------|
D|--------|--------|--------|--------|--------|--------|--------|--------|--------|
A|--------|--------|--------|--------|--------|--------|--------|--------|--------|
E|--------|--------|--------|--------|--------|--------|--------|--------|--------|
B|--------|--------|--------|--------|--------|--------|--------|--------|--------|


E|--------|--------|--------|--------|--------|--------|--------|--------|--------|
B|--------|--------|--------|--------|--------|--------|--------|--------|--------|
G|--------|--------|--------|--------|--------|--------|--------|--------|--------|
D|--------|--------|--------|--------|--------|--------|--------|--------|--------|
A|--------|--------|--------|--------|--------|--------|--------|--------|--------|
E|--------|--------|--------|--------|--------|--------|--------|--------|--------|
B|--------|--------|--------|--------|--------|--------|--------|--------|--------|


E|--------|--------|--------|--------|--------|--------|--------|--------|--------|
B|--------|--------|--------|--------|--------|--------|--------|--------|--------|
G|--------|--------|--------|--------|--------|--------|--------|--------|--------|
D|--------|--------|--------|--------|--------|--------|--------|--------|--------|
A|--------|--------|--------|--------|--------|--------|--------|--------|--------|
E|--------|--------|--------|--------|--------|--------|--------|--------|--------|
B|--------|--------|--------|--------|--------|--------|--------|--------|--------|


E|--------|--------|--------|--------|--------|--------|--------|--------|--------|
B|--------|--------|--------|--------|--------|--------|--------|--------|--------|
G|--------|--------|--------|--------|--------|--------|--------|--------|--------|
D|--------|--------|--------|--------|--------|--------|--------|--------|--------|
A|--------|--------|--------|--------|--------|--------|--------|--------|--------|
E|--------|--------|--------|--------|--------|--------|--------|--------|--------|
B|--------|--------|--------|--------|--------|--------|--------|--------|--------|


E|--------|--------|--------|--------|--------|--------|--------|--------|--------|
B|--------|--------|--------|--------|--------|--------|--------|--------|--------|
G|--------|--------|--------|--------|--------|--------|--------|--------|--------|
D|--------|--------|--------|--------|--------|--------|--------|--------|--------|
A|--------|--------|--------|--------|--------|--------|--------|--------|--------|
E|--------|--------|--------|--------|--------|--------|--------|--------|--------|
B|--------|--------|--------|--------|--------|--------|--------|--------|--------|


E|--------|--------|--------|--------|--------|--------|--------|--------|--------|
B|--------|--------|--------|--------|--------|--------|--------|--------|--------|
G|--------|--------|--------|--------|--------|--------|--------|--------|--------|
D|--------|--------|--------|--------|--------|--------|--------|--------|--------|
A|--------|--------|--------|--------|--------|--------|--------|--------|--------|
E|--------|--------|--------|--------|--------|--------|--------|--------|--------|
B|--------|--------|--------|--------|--------|--------|--------|--------|--------|


E|--------|--------|--------|--------|--------|--------|--------|--------|--------|
B|--------|--------|--------|--------|--------|--------|--------|--------|--------|
G|--------|--------|--------|--------|--------|--------|--------|--------|--------|
D|--------|--------|--------|--------|--------|--------|--------|--------|--------|
A|--------|--------|--------|--------|--------|--------|--------|--------|--------|
E|--------|--------|--------|--------|--------|--------|--------|--------|--------|
B|--------|--------|--------|--------|--------|--------|--------|--------|--------|


E|--------|--------|--------|--------|
B|--------|--------|--------|--------|
G|--------|--------|--------|--------|
D|--------|--------|--------|--------|
A|--------|--------|--------|--------|
E|--------|--------|--------|--------|
B|--------|--------|--------|--------|





Track 8: Untitled

C|------------------------|-------------|-------------|-------------|-------------|
G|------------------------|-------------|-------------|-------------|-------------|
D|------------------------|-------------|-------------|-------------|-------------|
A|------------------------|-------------|-------------|-------------|-------------|
E|-4--------4-------------|-------------|-------------|-------------|-------------|
B|-----3--------2----0----|--------0----|--------0----|--------0----|--------0----|


C|-------------|-------------|-------------|-------------|-------------|-------------|
G|-------------|-------------|-------------|-------------|-------------|-------------|
D|-------------|-------------|-------------|-------------|-------------|-------------|
A|-------------|-------------|-------------|-------------|-------------|-------------|
E|-------------|-------------|-------------|-------------|-------------|-------------|
B|--------0----|--------0----|--------0----|--------0----|--------0----|--------0----|


C|-------------|--------------------|------------------------------------|------------------------------------|
G|-------------|--------------------|------------------------------------|------------------------------------|
D|-------------|--------------------|------------------------------------|------------------------------------|
A|-------------|--------------------|------------------------------------|------------------------------------|
E|-------------|--------------------|------------------------------------|------------------------------------|
B|--------0----|--------0--0--0--0--|-0---0--0---0--0--------0--0--0--0--|-0---0--0---0--0--------0--0--0--0--|


C|------------------------------------|------------------------------------|------------------------------------|
G|------------------------------------|------------------------------------|------------------------------------|
D|------------------------------------|------------------------------------|------------------------------------|
A|------------------------------------|-------------------3----------------|------------------------------------|
E|------------------------------------|------------------------------------|------------------------------------|
B|-0---0--0---0--0--------0--0--0--0--|-0---0--0---0--0--------0--0--0--0--|-0---0--0---0--0--------0--0--0--0--|


C|------------------------------------|------------------------------------|-------------------------------------------|
G|------------------------------------|------------------------------------|-------------------------------------------|
D|------------------------------------|------------------------------------|-------------------------------------------|
A|-------------------3----------------|------------------------------------|-------------------------------------------|
E|------------------------------------|------------------------------------|-------------------------------------------|
B|-0---0--0---0--0--------0--0--0--0--|-0---0--0---0--0--------0--0--0--0--|-0---0---3--2--0--3--2--0--0--0--0--0--0---|


C|------------------------------------|------------------------------------|------------------------------------|
G|------------------------------------|------------------------------------|------------------------------------|
D|------------------------------------|------------------------------------|------------------------------------|
A|------------------------------------|---------------3--------------------|------------------------------------|
E|------------------------------------|------------------------------------|------------------------------------|
B|-0--0---0--0--------0--0--0--0--0---|-0--0---0--0--------0--0--0--0--0---|-0--0---0--0--------0--0--0--0--0---|


C|--------------------------------------|---------------------------|----------------|
G|--------------------------------------|---------------------------|----------------|
D|--------------------------------------|---------------------------|----------------|
A|--------------------------------------|---------------------------|----------------|
E|--------------------------------------|---------------------------|----------------|
B|-0--0--1----2----3----2---3---3---0---|-2----2----2---3---2-------|-2----------0---|


C|---------------------------|----------------|---------------------------|----------------|
G|---------------------------|----------------|---------------------------|----------------|
D|---------------------------|----------------|---------------------------|----------------|
A|---------------------------|----------------|---------------------------|----------------|
E|---------------------------|----------------|---------------------------|----------------|
B|-2----2----2---3---2-------|-2----------0---|-2----2----2---3---2-------|-2----------0---|


C|---------------------------|----------------|---------------------------------|---------------------------------|
G|---------------------------|----------------|---------------------------------|---------------------------------|
D|---------------------------|----------------|---------------------------------|---------------------------------|
A|---------------------------|----------------|---------------------------------|---------------------------------|
E|---------------------------|------------5---|-7---7---7---7---5---7---7-------|-----7---7---5---7---7---7---7---|
B|-2----2----2---3---2-------|-2--------------|-----------------------------0---|-0-------------------------------|


C|---------------------------------|---------------------------------|------------------------|
G|---------------------------------|---------------------------------|------------------------|
D|---------------------------------|---------------------------------|------------------------|
A|---------------------------------|---------7---7-------5---7---7---|-7---7------------------|
E|-5---7---7-----------7---7---0---|-0---0-----------0---------------|---------0---3-----3----|
B|-------------0---0---------------|---------------------------------|------------------------|


C|---------------------------------|---------------------------------|---------------------------------|
G|---------------------------------|---------------------------------|---------------------------------|
D|-------------7-------5---7-------|---------------------------------|---------------------------------|
A|-----0---0-------0---------------|---------------------------------|---------------------------------|
E|-3---------------------------5---|-7---7---7---7---5---7---7-------|-----7---7---5---7---7---7---7---|
B|---------------------------------|-----------------------------0---|-0-------------------------------|


C|---------------------------------|---------------------------------|---------------------------------|
G|---------------------------------|---------------------------------|---------------------------------|
D|---------------------------------|---------------------------------|---------------------------------|
A|---------------------------------|---------------------------------|---------------------------------|
E|-5---3---3---3---3---3---0---2---|-2---2---2---2---2---2---2---2---|-2---2---3---0---0---0---0---0---|
B|---------------------------------|---------------------------------|---------------------------------|


C|------------------------|------------------------|------------------------|---------------------|
G|------------------------|------------------------|------------------------|---------------------|
D|------------------------|------------------------|------------------------|---------------------|
A|-----5----3----2--------|------------------------|-----4-----4----4---4---|-----4----3-----3----|
E|-0------------------0---|------0----0---0----0---|------------------------|---------------------|
B|------------------------|------------------------|------------------------|---------------------|


C|---------------------|------------------------|------------------------|------------------------|
G|---------------------|------------------------|------------------------|------------------------|
D|---------------------|------------------------|------------------------|------------------------|
A|-3---3----3----------|------------------------|------------------------|------------------------|
E|---------------2-----|-2----0---2----3----0---|------0----0---0----0---|------------------------|
B|---------------------|------------------------|------------------------|-----2-----2----2---2---|


C|---------------------|---------------------|-------------------------|------------------------|
G|---------------------|---------------------|-------------------------|------------------------|
D|---------------------|---------------------|-------------------------|------------------------|
A|---------------------|---------------------|-------------------------|------------------------|
E|---------------------|---------------5-----|-5-----5----3----2----1--|-----0-----0----0---0---|
B|-----2----1-----1----|-1---1----1----------|-------------------------|------------------------|


C|---------------------|---------------------|------------------------|------------------------|
G|---------------------|---------------------|------------------------|------------------------|
D|---------------------|---------------------|------------------------|------------------------|
A|----------4-----4----|-4---4----4----3-----|-3----3---3----3--------|------------------------|
E|-----0---------------|---------------------|--------------------2---|------2----0---2----3---|
B|---------------------|---------------------|------------------------|------------------------|


C|------------------------|---------------------|---------------------|------------------------|
G|------------------------|---------------------|---------------------|------------------------|
D|------------------------|---------------------|---------------------|------------------------|
A|------------------------|---------------------|---------------------|------------------------|
E|-----0-----0----0---0---|-----0---------------|---------------------|--------------------5---|
B|------------------------|----------2-----2----|-2---2----2----1-----|-1----1---1----1--------|


C|------------------------|---------------------------|---------------------------|
G|------------------------|---------------------------|---------------------------|
D|------------------------|---------------------------|---------------------------|
A|------------------------|---------------------------|---------------------------|
E|------5----5---5----5---|-----5----5---7-------7----|-----8---7-------7-----5---|
B|------------------------|------------------0--------|-------------0-------------|


C|---------------------------|---------------------------|---------------------------|
G|---------------------------|---------------------------|---------------------------|
D|---------------------------|---------------------------|---------------------------|
A|---------------------------|-10--9---------------------|---------------------------|
E|-7-------7-----8---7-------|----------5---7-------7----|-----8---7-------7-----5---|
B|-----0-----------------0---|------------------0--------|-------------0-------------|


C|---------------------------|---------------------------|---------------------------|
G|---------------------------|---------------------------|---------------------------|
D|---------------------------|---------------------------|---------------------------|
A|---------------------------|---------------------------|---------------------------|
E|-7-------7-----8---7-------|----------5---7-------7----|-----8---7-------7-----5---|
B|-----0-----------------0---|-8---7------------0--------|-------------0-------------|


C|---------------------------|---------------------------|---------------------------|
G|---------------------------|---------------------------|---------------------------|
D|---------------------------|---------------------------|---------------------------|
A|---------------------------|-10--9---------------------|---------------------------|
E|-7-------7-----8---7-------|----------5---7-------7----|-----8---7-------7-----5---|
B|-----0-----------------0---|------------------0--------|-------------0-------------|


C|---------------------------|-----------------|----------------|-----------------|
G|---------------------------|-----------------|----------------|-----------------|
D|---------------------------|-----------------|----------------|-----------------|
A|---------------------------|-----------------|----------------|-----------------|
E|-7-------7-----8---7-------|-----------------|----------------|-----------------|
B|-----0-----------------0---|-8---7----0------|-----0------0---|-----------0-----|


C|--------------|----------------|-----------------|---------------------|-----------------------|
G|--------------|----------------|-----------------|---------------------|-----------------------|
D|--------------|----------------|-----------------|---------------------|-----------------------|
A|--------------|----------------|-----------------|---------------------|-----------------------|
E|--------------|----------------|-----------------|---------------------|-----------------------|
B|-------0------|-----0------0---|-----------0-----|-------0---0----0----|-0---0---------0---0---|


C|---------------------------|---------------------|-----------------------|---------------------------|
G|---------------------------|---------------------|-----------------------|---------------------------|
D|---------------------------|---------------------|-----------------------|---------------------------|
A|---------------------------|---------------------|-----------------------|---------------------------|
E|---------------------------|---------------------|-----------------------|---------------------------|
B|-0----0----0---0-----------|-------0---0----0----|-0---0---------0---0---|-0----0----0---0-----------|


C|---------------------|-----------------------|---------------------------|---------------------|
G|---------------------|-----------------------|---------------------------|---------------------|
D|---------------------|-----------------------|---------------------------|---------------------|
A|---------------------|-----------------------|---------------------------|---------------------|
E|---------------------|-----------------------|---------------------------|---------------------|
B|-------0---0----0----|-0---0---------0---0---|-0----0----0---0-----------|-------0---0----0----|


C|-----------------------|---------------------------|------------------------|------------------------------|
G|-----------------------|---------------------------|------------------------|------------------------------|
D|-----------------------|---------------------------|-------7---9-------9----|-9---10--9-------9----9---7---|
A|-----------------------|---------------------------|------------------------|------------------------------|
E|-----------------------|---------------------------|---------------7--------|-------------7----------------|
B|-0---0---------0---0---|-0----0----0---0-----------|------------------------|------------------------------|


C|------------------------------|---------------------------|------------------------------|
G|------------------------------|---------------------------|------------------------------|
D|-9-------9----9---10--9-------|----------7---9-------9----|-9---10--9-------9----9---7---|
A|------------------------------|-10--9---------------------|------------------------------|
E|-----7--------------------7---|------------------7--------|-------------7----------------|
B|------------------------------|---------------------------|------------------------------|


C|------------------------------|---------------------------|---------------------------|
G|------------------------------|---------------------------|---------------------------|
D|-9-------9----9---10--9-------|---------------------------|---------------------------|
A|------------------------------|-10--9---------------------|---------------------------|
E|-----7--------------------7---|----------5---7-------7----|-----8---7-------7-----5---|
B|------------------------------|------------------0--------|-------------0-------------|


C|---------------------------|---------------------------|---------------------------|
G|---------------------------|---------------------------|---------------------------|
D|---------------------------|---------------------------|---------------------------|
A|---------------------------|-10--9---------------------|---------------------------|
E|-7-------7-----8---7-------|----------5---7-------7----|-----8---7-------7-----5---|
B|-----0-----------------0---|------------------0--------|-------------0-------------|


C|---------------------------|---------------------------|---------------------------|
G|---------------------------|---------------------------|---------------------------|
D|---------------------------|---------------------------|---------------------------|
A|---------------------------|---------------------------|---------------------------|
E|-7-------7-----8---7-------|----------5---7-------7----|-----8---7-------7-----5---|
B|-----0-----------------0---|-8---7------------0--------|-------------0-------------|


C|---------------------------|---------------------------|---------------------------|
G|---------------------------|---------------------------|---------------------------|
D|---------------------------|---------------------------|---------------------------|
A|---------------------------|-10--9---------------------|---------------------------|
E|-7-------7-----8---7-------|----------5---7-------7----|-----8---7-------7-----5---|
B|-----0-----------------0---|------------------0--------|-------------0-------------|


C|---------------------------|------------------------------|---------------------------------|
G|---------------------------|------------------------------|---------------------------------|
D|---------------------------|------------------------------|---------------------------------|
A|---------------------------|------------------------------|---------------------------------|
E|-7-------7-----8---7-------|----------5---7---7---7---7---|-5---7---7-----------7---7---5---|
B|-----0-----------------0---|-8---7------------------------|-------------0---0---------------|


C|---------------------------------|---------------------------------|---------------------------------|
G|---------------------------------|---------------------------------|---------------------------------|
D|---------------------------------|---------------------------------|---------------------------------|
A|---------------------------------|-------------------------7---7---|-----5---7---7---7---7-----------|
E|-7---7---7---7---5---7---7-------|-----7---7---0---0---0-----------|-0-----------------------0---3---|
B|-----------------------------0---|-0-------------------------------|---------------------------------|


C|---------------------------|---------------------------------|---------------------------------|
G|---------------------------|---------------------------------|---------------------------------|
D|-----------------------7---|-----5---7-----------------------|---------------------------------|
A|---------------0---0-------|-0-------------------------------|---------------------------------|
E|------3----3---------------|-------------5---7---7---7---7---|-5---7---7-----------7---7---5---|
B|---------------------------|---------------------------------|-------------0---0---------------|


C|---------------------------------|---------------------------------|---------------------------------|
G|---------------------------------|---------------------------------|---------------------------------|
D|---------------------------------|---------------------------------|---------------------------------|
A|---------------------------------|---------------------------------|---------------------------------|
E|-7---7---7---7---5---3---3---3---|-3---3---0---2---2---2---2---2---|-2---2---2---2---2---2---3---0---|
B|---------------------------------|---------------------------------|---------------------------------|


C|---------------------------------|---------------------------------|---------------------------------|
G|---------------------------------|---------------------------------|---------------------------------|
D|---------------------------------|---------------------------------|---------------------------------|
A|---------------------------------|---------------------------------|---------------------------------|
E|-0---0---0---0---0---------------|-------------5---7---7---7---7---|-5---7---7-----------7---7---5---|
B|---------------------3---3---3---|-3---3---3-----------------------|-------------0---0---------------|


C|---------------------------------|---------------------------------|---------------------------------|
G|---------------------------------|---------------------------------|---------------------------------|
D|---------------------------------|---------------------------------|---------------------------------|
A|---------------------------------|-------------------------7---7---|-----5---7---7---7---7-----------|
E|-7---7---7---7---5---7---7-------|-----7---7---0---0---0-----------|-0-----------------------0---3---|
B|-----------------------------0---|-0-------------------------------|---------------------------------|


C|-------------------------------|---------------------------------|---------------------------------|
G|-------------------------------|---------------------------------|---------------------------------|
D|---------------------------7---|-5---4---------------------------|---------------------------------|
A|---------------0---0---0-------|---------5-----------------------|---------------------------------|
E|------3----3-------------------|-------------5---7---7---7---7---|-5---7---7-----------7---7---5---|
B|-------------------------------|---------------------------------|-------------0---0---------------|


C|---------------------------------|---------------------------------|---------------------------------|
G|---------------------------------|---------------------------------|---------------------------------|
D|---------------------------------|---------------------------------|---------------------------------|
A|---------------------------------|---------------------------------|---------------------------------|
E|-7---7---7---7---5---3---3---3---|-3---3---0---2---2---2---2---2---|-2---2---2---2---2---2---3---0---|
B|---------------------------------|---------------------------------|---------------------------------|


C|---------------------------------|-------------------------------------------------------|
G|---------------------------------|-------------------------------------------------------|
D|---------------------------------|-------------5--4--2-----------4--2--0-----------------|
A|---------------------------------|----------------------5--4--2-----------4--2--0--------|
E|-0---0---0---0---0---------------|-------------------------------------------------3--2--|
B|---------------------3---3---3---|-3---3---3---------------------------------------------|


C|------------------------------------|------------------------------------|------------------------------------|
G|------------------------------------|------------------------------------|------------------------------------|
D|------------------------------------|------------------------------------|------------------------------------|
A|------------------------------------|------------------------------------|-----3------------------------------|
E|------------------------------------|------------------------------------|------------------------------------|
B|----------0--0--0--0--0---0--0---0--|-0--------0--0--0--0--0---0--0---0--|-0--------0--0--0--0--0---0--0---0--|


C|------------------------------------|-------------------------------------------|
G|------------------------------------|-------------------------------------------|
D|------------------------------------|-------------------------------------------|
A|------------------------------------|-------------------------------------------|
E|------------------------------------|-------------------------------------------|
B|-0--------0--0--0--0--0---0---3--2--|-0--3--2--0--0--0--0--0--0---0--0---0--0---|


C|------------------------------------|------------------------------------|-------------------------------------|
G|------------------------------------|------------------------------------|-------------------------------------|
D|------------------------------------|------------------------------------|-------------------------------------|
A|------------------------------------|-3----------------------------------|-------------------------------------|
E|------------------------------------|------------------------------------|-------------------------------------|
B|------0--0--0--0--0---0--0---0--0---|------0--0--0--0--0---0--0---0--0---|------0--0--0--0--0---0--0--1----2---|


C|----------------------------------------|------------------------------------|------------------------------------|
G|----------------------------------------|------------------------------------|------------------------------------|
D|----------------------------------------|------------------------------------|------------------------------------|
A|----------------------------------------|------------------------------------|-3----------------------------------|
E|----------------------------------------|------------------------------------|------------------------------------|
B|-----3----0--0--0--0--0---0--0---0--0---|------0--0--0--0--0---0--0---0--0---|------0--0--0--0--0---0--0---0--0---|


C|--------------------------------------|-----------------------------------------|
G|--------------------------------------|-----------------------------------------|
D|--------------------------------------|-----------------------------------------|
A|--------------------------------------|-----------------------------------------|
E|--------------------------------------|-----------------------------------------|
B|------0--0--0--0--0---0---3--2--0--3--|-2--0--0--0--0--0--0---0--0---0--0-------|


C|---------------------------------------|---------------------------------------|
G|---------------------------------------|---------------------------------------|
D|---------------------------------------|---------------------------------------|
A|-----------------------------------3---|---------------------------------------|
E|---------------------------------------|---------------------------------------|
B|-----0--0--0--0--0---0--0---0--0-------|-----0--0--0--0--0---0--0---0--0-------|


C|----------------------------------------|-------------------------------|---------------------------|
G|----------------------------------------|-------------------------------|---------------------------|
D|----------------------------------------|-------------------------------|---------------------------|
A|----------------------------------------|-------------------------------|---------------------------|
E|----------------------------------------|-------------------------------|---------------------------|
B|-----0--0--0--0--0---0--0--1----2----3--|-----2---3---3---0---2----2----|-2---3---2-------2---------|


C|---------------------|------------------------------|------------------------|---------------------------|
G|---------------------|------------------------------|------------------------|---------------------------|
D|---------------------|------------------------------|------------------------|---------------------------|
A|---------------------|------------------------------|------------------------|---------------------------|
E|---------------------|------------------------------|------------------------|---------------------------|
B|-------0---2----2----|-2---3---2-------2--------2---|-1---1----0---2----2----|-2---3---2-------2---------|


C|---------------------|------------------------------|------------------------|---------------------------|
G|---------------------|------------------------------|------------------------|---------------------------|
D|---------------------|--------------------------9---|-9----------------------|---------------------------|
A|---------------------|------------------------------|------------------------|---------------------------|
E|---------------------|------------------------------|-------5---7-------7----|-----8---7-------7-----5---|
B|-------0---2----2----|-2---3---2-------2------------|---------------0--------|-------------0-------------|


C|---------------------------|---------------------------|---------------------------|
G|---------------------------|---------------------------|---------------------------|
D|---------------------------|---------------------------|---------------------------|
A|---------------------------|-10--9---------------------|---------------------------|
E|-7-------7-----8---7-------|----------5---7-------7----|-----8---7-------7-----5---|
B|-----0-----------------0---|------------------0--------|-------------0-------------|


C|---------------------------|------------------------------------|------------------------------------|
G|---------------------------|------------------------------------|------------------------------------|
D|---------------------------|------------------------------------|------------------------------------|
A|---------------------------|------------------------------------|------------------------------------|
E|-7-------7-----8---7-------|------------------------------------|------------------------------------|
B|-----0-----------------0---|-8---7----2--2--2--2--2---2--2---2--|-2--------2--2--2--2--2---2--2---2--|


C|------------------------------------|------------------------------------|-------------------------------------------|
G|------------------------------------|------------------------------------|-------------------------------------------|
D|------------------------------------|------------------------------------|-------------------------------------------|
A|-----5------------------------------|------------------------------------|-------------------------------------------|
E|------------------------------------|------------------------------------|-------------------------------------------|
B|-2--------2--2--2--2--2---2--2---2--|-2--------2--2--2--2--2---2---5--4--|-2--5--4--2--2--2--2--2--2---2--2---2--2---|


C|------------------------------------|------------------------------------|-------------------------------------|
G|------------------------------------|------------------------------------|-------------------------------------|
D|------------------------------------|------------------------------------|-------------------------------------|
A|------------------------------------|-5----------------------------------|-------------------------------------|
E|------------------------------------|------------------------------------|-------------------------------------|
B|------2--2--2--2--2---2--2---2--2---|------2--2--2--2--2---2--2---2--2---|------2--2--2--2--2---2--2--3----4---|


C|-----------------------------------|------------------------------|--------------------|
G|-----------------------------------|------------------------------|--------------------|
D|-----------------------------------|------------------------------|--------------------|
A|-----------------------------------|------------------------------|--------------------|
E|-----------------------------------|------------------------------|--------------------|
B|-----5----3---2---2---2---4----4---|-----4---5---4-------4--------|-------2---4----4---|


C|---------------------------------|------------------------------|------------------------------|
G|---------------------------------|------------------------------|------------------------------|
D|---------------------------------|------------------------------|------------------------------|
A|---------------------------------|-4---6------------------------|------------------------------|
E|---------------------------------|---------7---6----------------|------------------------------|
B|-----4---5---4-------4-------4---|-----------------2---4----4---|-----4---5---4-------4--------|


C|--------------------|------------------------------|---------------------------------|
G|--------------------|------------------------------|---------------------------------|
D|--------------------|------------------------------|---------------------------------|
A|--------------------|------------------------------|-4-------------------------------|
E|--------------------|------------------------------|---------7---6---5---7-------7---|
B|-------2---4----4---|-----4---5---4-------4--------|-----4-------------------0-------|


C|------------------------|---------------------------|------------------------------|
G|------------------------|---------------------------|------------------------------|
D|------------------------|---------------------------|------------------------------|
A|------------------------|---------------------------|-----10--9--------------------|
E|------8---7-------7-----|-5---7-------7-----8---7---|--------------5---7-------7---|
B|--------------0---------|---------0-----------------|-0--------------------0-------|


C|------------------------|---------------------------|------------------------------|
G|------------------------|---------------------------|------------------------------|
D|------------------------|---------------------------|------------------------------|
A|------------------------|---------------------------|------------------------------|
E|------8---7-------7-----|-5---7-------7-----8---7---|--------------5---7---7---7---|
B|--------------0---------|---------0-----------------|-0---8---7--------------------|


C|---------------------------------|---------------------------------|---------------------------------|
G|---------------------------------|---------------------------------|---------------------------------|
D|---------------------------------|---------------------------------|---------------------------------|
A|---------------------------------|---------------------------------|-----------------------------7---|
E|-7---5---7---7-----------7---7---|-5---7---7---7---7---5---7---7---|---------7---7---0---0---0-------|
B|-----------------0---0-----------|---------------------------------|-0---0---------------------------|


C|---------------------------------|---------------------------------|---------------------------------|
G|---------------------------------|---------------------------------|---------------------------------|
D|---------------------------------|---------------------------------|-7-------5---7-------------------|
A|-7-------5---7---7---7---7-------|-------------------------0---0---|-----0---------------------------|
E|-----0-----------------------0---|-3---3---3---3---3---3-----------|-----------------5---7---7---7---|
B|---------------------------------|---------------------------------|---------------------------------|


C|---------------------------------|---------------------------------|---------------------------------|
G|---------------------------------|---------------------------------|---------------------------------|
D|---------------------------------|---------------------------------|---------------------------------|
A|---------------------------------|---------------------------------|---------------------------------|
E|-7---5---7---7-----------7---7---|-5---7---7---7---7---5---3---3---|-3---3---3---0---2---2---2---2---|
B|-----------------0---0-----------|---------------------------------|---------------------------------|


C|---------------------------------|---------------------------------|---------------------------------|
G|---------------------------------|---------------------------------|---------------------------------|
D|---------------------------------|---------------------------------|---------------------------------|
A|---------------------------------|---------------------------------|---------------------------------|
E|-2---2---2---2---2---2---2---3---|-0---0---0---0---0---0-----------|-----------------5---7---7---7---|
B|---------------------------------|-------------------------3---3---|-3---3---3---3-------------------|


C|---------------------------------|---------------------------------|---------------------------------|
G|---------------------------------|---------------------------------|---------------------------------|
D|---------------------------------|---------------------------------|---------------------------------|
A|---------------------------------|---------------------------------|-----------------------------7---|
E|-7---5---7---7-----------7---7---|-5---7---7---7---7---5---7---7---|---------7---7---0---0---0-------|
B|-----------------0---0-----------|---------------------------------|-0---0---------------------------|


C|---------------------------------|---------------------------------|---------------------------------|
G|---------------------------------|---------------------------------|---------------------------------|
D|---------------------------------|---------------------------------|-7-------5---7-------------------|
A|-7-------5---7---7---7---7-------|-------------------------0---0---|-----0---------------------------|
E|-----0-----------------------0---|-3---3---3---3---3---3-----------|-----------------5---7---7---7---|
B|---------------------------------|---------------------------------|---------------------------------|


C|---------------------------------|---------------------------------|---------------------------------|
G|---------------------------------|---------------------------------|---------------------------------|
D|---------------------------------|---------------------------------|---------------------------------|
A|---------------------------------|---------------------------------|---------------------------------|
E|-7---5---7---7-----------7---7---|-5---7---7---7---7---5---3---3---|-3---3---3---0---2---2---2---2---|
B|-----------------0---0-----------|---------------------------------|---------------------------------|


C|---------------------------------|------------------------------|---------------------|
G|---------------------------------|------------------------------|---------------------|
D|---------------------------------|------------------------------|---------------------|
A|---------------------------------|------------------------------|---------------------|
E|-2---2---2---2---2---2---2---3---|-0---0---0---0---0---0--------|-----------0-----0---|
B|---------------------------------|-------------------------3----|-1----0--------------|


C|------------------------|---------------------|---------------------|---------------------|
G|------------------------|---------------------|---------------------|---------------------|
D|------------------------|---------------------|---------------------|---------------------|
A|-------------------4----|-----4-----4----4----|-3-----3----3---3----|-3----3--------------|
E|-----0---0----0---------|---------------------|---------------------|-----------2-----3---|
B|------------------------|---------------------|---------------------|---------------------|


C|------------------------|------------------------|---------------------|---------------------|
G|------------------------|------------------------|---------------------|---------------------|
D|------------------------|------------------------|---------------------|---------------------|
A|------2---2-------------|------------------------|---------------------|---------------------|
E|--------------0-----0---|-----0---0----0---------|---------------------|---------------------|
B|------------------------|-------------------2----|-----2-----2----2----|-1-----1----1---1----|


C|---------------------|--------------------------|---------------------|------------------|
G|---------------------|--------------------------|---------------------|------------------|
D|---------------------|--------------------------|---------------------|------------------|
A|---------------------|--------------------------|---------------------|------4-----4-----|
E|-----------5-----3---|------2----3----2----3----|-0-----0----0---0----|-0----------------|
B|-1----1--------------|--------------------------|---------------------|------------------|


C|---------------------|------------------------|------------------|---------------------|
G|---------------------|------------------------|------------------|---------------------|
D|---------------------|------------------------|------------------|---------------------|
A|-4----4----3-----3---|-----3---3----3----3----|-------------2----|---------------------|
E|---------------------|------------------------|-2-----3----------|-0-----0----0---0----|
B|---------------------|------------------------|------------------|---------------------|


C|------------------|---------------------|------------------------|------------------|
G|------------------|---------------------|------------------------|------------------|
D|------------------|---------------------|------------------------|------------------|
A|------------------|---------------------|------------------------|------------------|
E|-0----------------|---------------------|------------------------|-5-----3-----2----|
B|------2-----2-----|-2----2----1-----1---|-----1---1----1----1----|------------------|


C|---------------------|------------------|---------------------|------------------------|
G|---------------------|------------------|---------------------|------------------------|
D|---------------------|------------------|---------------------|------------------------|
A|---------------------|------4-----4-----|-4----4----3-----3---|-----3---3----3----3----|
E|-0-----0----0---0----|-0----------------|---------------------|------------------------|
B|---------------------|------------------|---------------------|------------------------|


C|------------------|---------------------|------------------|---------------------|
G|------------------|---------------------|------------------|---------------------|
D|------------------|---------------------|------------------|---------------------|
A|-------------2----|---------------------|------------------|---------------------|
E|-2-----3----------|-0-----0----0---0----|-0----------------|---------------------|
B|------------------|---------------------|------2-----2-----|-2----2----1-----1---|


C|------------------------|------------------|------------------------|---------------------------|
G|------------------------|------------------|------------------------|---------------------------|
D|------------------------|------------------|------------------------|---------------------------|
A|------------------------|------------------|------------------------|---------------------------|
E|------------------------|-5-----3-----2----|-2---0---0--------------|---------------------------|
B|-----1---1----1----1----|------------------|--------------3----2----|-1---0---0---0---------1---|


C|---------------------------------|---------------------------|---------------------------|
G|---------------------------------|---------------------------|---------------------------|
D|---------------------------------|---------------------------|---------------------------|
A|---------------------------------|---------------------------|---------------------------|
E|---------------------------------|---------------------------|---------------------------|
B|-0---0---0-------1---0---0---0---|-------1---0---0---0-------|-1---0---0---0---------1---|


C|---------------------------------|---------------------------|---------------------------------------------|
G|---------------------------------|---------------------------|---------------------------------------------|
D|---------------------------------|---------------------------|---------------------------------------------|
A|---------------------------------|---------------------------|---------------------------------------------|
E|---------------------------------|---------------------------|---------------------------------------------|
B|-0---0---0-------1---0---0---0---|-------1---0---0---0-------|-1--0--0--0-------1--0--0--0-----1--0--0--0--|


C|-----------------------------------------|---------------------------------------------|
G|-----------------------------------------|---------------------------------------------|
D|-----------------------------------------|---------------------------------------------|
A|-----------------------------------------|---------------------------------------------|
E|-----------------------------------------|---------------------------------------------|
B|------1--0--0--0-----1--0--0--0-------1--|-0--0--0-----1--0--0--0-------1--0--0--0-----|


C|-------------------------------------------------|-------------------------------------------------|
G|-------------------------------------------------|-------------------------------------------------|
D|-------------------------------------------------|-------------------------------------------------|
A|-------------------------------------------------|-------------------------------------------------|
E|-------4--2-----5--2-----4--2--------------------|-------4--2-----5--2-----4--2--------------------|
B|-0--2--------3--------3--------3--2--0--2--3--2--|-0--2--------3--------3--------3--2--0--2--3--2--|


C|-------------------------------------------------|-------------------------------------------------|
G|-------------------------------------------------|-------------------------------------------------|
D|-------------------------------------------------|-------------------------------------------------|
A|-------------------------------------------------|-------------------------4-----------------------|
E|-------4--2-----5--2-----4--2--------------------|-------4--2-----5--2--------4--5--2--4-----------|
B|-0--2--------3--------3--------3--2--0--2--3--2--|-0--2--------3--------3-----------------2--0--3--|


C|---------------------------|---------------------------------|---------------------------|
G|---------------------------|---------------------------------|---------------------------|
D|---------------------------|---------------------------------|---------------------------|
A|---------------------------|---------------------------------|---------------------------|
E|---------------------------|---------------------------------|---------------------------|
B|-1---0---0---0---------1---|-0---0---0-------1---0---0---0---|-------1---0---0---0-------|


C|-------------------------------------------------|-------------------------------------------------|
G|-------------------------------------------------|-------------------------------------------------|
D|-------------------------------------------------|-------------------------------------------------|
A|-------------------------------------------------|-------------------------4-----------------------|
E|-------4--2-----5--2-----4--2--------------------|-------4--2-----5--2--------4--5--2--4-----------|
B|-0--2--------3--------3--------3--2--0--2--3--2--|-0--2--------3--------3-----------------2--0--3--|


C|-------------------------------------------------|-------------------------------------------------|
G|-------------------------------------------------|-------------------------------------------------|
D|-------------------------------------------------|-------------------------------------------------|
A|-------4--2-----5--2-----4--2--------------------|-------4--2-----5--2-----4--2--------------------|
E|-0--2--------3--------3--------3--2--0--2--3--2--|-0--2--------3--------3--------3--2--0--2--3--2--|
B|-------------------------------------------------|-------------------------------------------------|


C|-------------------------------------------------|-------------------------------------------------|
G|-------------------------------------------------|-------------------------------------------------|
D|-------------------------------------------------|-------------------------4-----------------------|
A|-------4--2-----5--2-----4--2--------------------|-------4--2-----5--2--------4--5--2--4--------2--|
E|-0--2--------3--------3--------3--2--0--2--3--2--|-0--2--------3--------3-----------------2--0-----|
B|-------------------------------------------------|-------------------------------------------------|


C|-----------------------------------|-----------------------------------|-------------------------------------|
G|-----------------------------------|-----------------------------------|-------------------------------------|
D|-----------------------------------|-----------------------------------|-------------------------------------|
A|-----------------------------------|-----------------------------------|-------------------------------------|
E|-3---0---0---0---0---6--6--0---0---|-0---0---3---0---0---0---0---8--7--|-0---3--2--0---0---0---0---8--7--0---|
B|-----------------------------------|-----------------------------------|-------------------------------------|


C|-----------------------------------|-------------------------------------|-------------------------------------|
G|-----------------------------------|-------------------------------------|-------------------------------------|
D|-----------------------------------|-------------------------------------|-------------------------------------|
A|-----------------------------------|-------------------------------------|-------------------------------------|
E|-0---0---0---3--2--0---0---0---0---|-5--5--0---3--3--0---3---0---0---0---|-0---6--6--0---0---0---0---3--3--0---|
B|-----------------------------------|-------------------------------------|-------------------------------------|


C|-----------------------------------|-----------------------------------|-------------------------------------|
G|-----------------------------------|-----------------------------------|-------------------------------------|
D|-----------------------------------|-----------------------------------|-------------------------------------|
A|-----------------------------------|-----------------------------------|-------------------------------------|
E|-0---0---0---0---0---3--2--0---0---|-5---0---7---0---0---0---0---3--2--|-0---0---0---0---5--5--0---3--3--0---|
B|-----------------------------------|-----------------------------------|-------------------------------------|


C|------------------------------|---------------------------------|-----------------------------------|
G|------------------------------|---------------------------------|-----------------------------------|
D|------------------------------|---------------------------------|-----------------------------------|
A|-4---2-------5----2-------4---|-4---2---------------------------|-----------------------------------|
E|---------3------------3-------|---------3---2---0---2---3---2---|-3---0---0---0---0---6--6--0---0---|
B|------------------------------|---------------------------------|-----------------------------------|


C|-----------------------------------|-------------------------------------|-----------------------------------|
G|-----------------------------------|-------------------------------------|-----------------------------------|
D|-----------------------------------|-------------------------------------|-----------------------------------|
A|-----------------------------------|-------------------------------------|-----------------------------------|
E|-0---0---3---0---0---0---0---8--7--|-0---3--2--0---0---0---0---8--7--0---|-0---0---0---3--2--0---0---0---0---|
B|-----------------------------------|-------------------------------------|-----------------------------------|


C|-------------------------------------|-------------------------------------|-----------------------------------|
G|-------------------------------------|-------------------------------------|-----------------------------------|
D|-------------------------------------|-------------------------------------|-----------------------------------|
A|-------------------------------------|-------------------------------------|-----------------------------------|
E|-5--5--0---3--3--0---3---0---0---0---|-0---6--6--0---0---0---0---3--3--0---|-0---0---0---0---0---3--2--0---0---|
B|-------------------------------------|-------------------------------------|-----------------------------------|


C|-----------------------------------|-------------------------------------|------------------------------|
G|-----------------------------------|-------------------------------------|------------------------------|
D|-----------------------------------|-------------------------------------|------------------------------|
A|-----------------------------------|-------------------------------------|-4---2-------5----2-------4---|
E|-5---0---7---0---0---0---0---3--2--|-0---0---0---0---5--5--0---3--3--0---|---------3------------3-------|
B|-----------------------------------|-------------------------------------|------------------------------|


C|---------------------------------|------------------------------|---------------------------------|
G|---------------------------------|------------------------------|---------------------------------|
D|---------------------------------|------------------------------|---------------------------------|
A|-4---2---------------------------|-4---2-------5----2-------4---|-4---2---------------------------|
E|---------3---2---0---2---3---2---|---------3------------3-------|---------3---2---0---2---3---2---|
B|---------------------------------|------------------------------|---------------------------------|


C|---------------------------------|---------------------------------|---------------------------------|
G|---------------------------------|---------------------------------|---------------------------------|
D|---------------------------------|---------------------------------|---------------------------------|
A|-0---2-------2---0---2---2---3---|-----3-----------------------3---|-0---2-------2---0---2---2---3---|
E|---------------------------------|---------2---3---3---5---5-------|---------------------------------|
B|---------------------------------|---------------------------------|---------------------------------|


C|---------------------------------|---------------------------------|---------------------------------|
G|---------------------------------|---------------------------------|---------------------------------|
D|---------------------------------|---------------------------------|---------------------------------|
A|-----3---------------------------|-0---2-------2---0---2---2---3---|-----3-----------------------3---|
E|---------2---3---3---5---3---2---|---------------------------------|---------2---3---3---5---5-------|
B|---------------------------------|---------------------------------|---------------------------------|


C|---------------------------------|---------------------------------|-------------------------------------------------|
G|---------------------------------|---------------------------------|-------------------------------------------------|
D|---------------------------------|---------------------------------|-------------------------------------------------|
A|-0---2-------2---0---2---2---3---|-----3---------------------------|-------4--2-----5--2-----4--2--------------------|
E|---------------------------------|---------2---3---3---5---3---2---|-0--2--------3--------3--------3--2--0--2--3--2--|
B|---------------------------------|---------------------------------|-------------------------------------------------|


C|-------------------------------------------------|-------------------------------------------------|
G|-------------------------------------------------|-------------------------------------------------|
D|-------------------------------------------------|-------------------------------------------------|
A|-------4--2-----5--2-----4--2--------------------|-------4--2-----5--2-----4--2--------------------|
E|-0--2--------3--------3--------3--2--0--2--3--2--|-0--2--------3--------3--------3--2--0--2--3--2--|
B|-------------------------------------------------|-------------------------------------------------|


C|-------------------------------------------------|-------------------------------------|
G|-------------------------------------------------|-------------------------------------|
D|-------------------------4-----------------------|-------------------------------------|
A|-------4--2-----5--2--------4--5--2--4--------2--|-------------------------------------|
E|-0--2--------3--------3-----------------2--0-----|-3--2--0---7---0---0---8--7--0---0---|
B|-------------------------------------------------|-------------------------------------|


C|-----------------------------------|-----------------------------------|-----------------------------------|
G|-----------------------------------|-----------------------------------|-----------------------------------|
D|-----------------------------------|-----------------------------------|-----------------------------------|
A|-----------------------------------|-----------------------------------|-----------------------------------|
E|-0---0---3--2--0---0---0---0---8---|-0---3--2--0---0---5---0---8---0---|-0---0---0---3--2--0---0---0---0---|
B|-----------------------------------|-----------------------------------|-----------------------------------|


C|---------------------------------------|-------------------------------------|-----------------------------------|
G|---------------------------------------|-------------------------------------|-----------------------------------|
D|---------------------------------------|-------------------------------------|-----------------------------------|
A|---------------------------------------|-------------------------------------|-----------------------------------|
E|-8--7--0---3--2--0---3--2--0---7---0---|-0---8--7--0---0---0---0---3--2--0---|-0---0---0---8---0---3--2--0---0---|
B|---------------------------------------|-------------------------------------|-----------------------------------|


C|-----------------------------------|-------------------------------------|------------------------------|
G|-----------------------------------|-------------------------------------|------------------------------|
D|-----------------------------------|-------------------------------------|------------------------------|
A|-----------------------------------|-------------------------------------|-4---2-------5----2-------4---|
E|-5---0---8---0---0---0---0---3--2--|-0---0---0---0---8--7--0---3--2--0---|---------3------------3-------|
B|-----------------------------------|-------------------------------------|------------------------------|


C|---------------------------------|-------------------------------------|-----------------------------------|
G|---------------------------------|-------------------------------------|-----------------------------------|
D|---------------------------------|-------------------------------------|-----------------------------------|
A|-4---2---------------------------|-------------------------------------|-----------------------------------|
E|---------3---2---0---2---3---2---|-3--2--0---7---0---0---8--7--0---0---|-0---0---3--2--0---0---0---0---8---|
B|---------------------------------|-------------------------------------|-----------------------------------|


C|-----------------------------------|-----------------------------------|---------------------------------------|
G|-----------------------------------|-----------------------------------|---------------------------------------|
D|-----------------------------------|-----------------------------------|---------------------------------------|
A|-----------------------------------|-----------------------------------|---------------------------------------|
E|-0---3--2--0---0---5---0---8---0---|-0---0---0---3--2--0---0---0---0---|-8--7--0---3--2--0---3--2--0---7---0---|
B|-----------------------------------|-----------------------------------|---------------------------------------|


C|-------------------------------------|-----------------------------------|-----------------------------------|
G|-------------------------------------|-----------------------------------|-----------------------------------|
D|-------------------------------------|-----------------------------------|-----------------------------------|
A|-------------------------------------|-----------------------------------|-----------------------------------|
E|-0---8--7--0---0---0---0---3--2--0---|-0---0---0---8---0---3--2--0---0---|-5---0---8---0---0---0---0---3--2--|
B|-------------------------------------|-----------------------------------|-----------------------------------|


C|-------------------------------------|------------------------------|---------------------------------|
G|-------------------------------------|------------------------------|---------------------------------|
D|-------------------------------------|------------------------------|---------------------------------|
A|-------------------------------------|-4---2-------5----2-------4---|-4---2---------------------------|
E|-0---0---0---0---8--7--0---3--2--0---|---------3------------3-------|---------3---2---0---2---3---2---|
B|-------------------------------------|------------------------------|---------------------------------|


C|------------------------------|---------------------------------|---------------------------------|
G|------------------------------|---------------------------------|---------------------------------|
D|------------------------------|---------------------------------|---------------------------------|
A|-4---2-------5----2-------4---|-4---2---------------------------|-0---2-------2---0---2---2---3---|
E|---------3------------3-------|---------3---2---0---2---3---2---|---------------------------------|
B|------------------------------|---------------------------------|---------------------------------|


C|---------------------------------|---------------------------------|---------------------------------|
G|---------------------------------|---------------------------------|---------------------------------|
D|---------------------------------|---------------------------------|---------------------------------|
A|-----3-----------------------3---|-0---2-------2---0---2---2---3---|-----3---------------------------|
E|---------2---3---3---5---5-------|---------------------------------|---------2---3---3---5---3---2---|
B|---------------------------------|---------------------------------|---------------------------------|


C|---------------------------------|---------------------------------|---------------------------------|
G|---------------------------------|---------------------------------|---------------------------------|
D|---------------------------------|---------------------------------|---------------------------------|
A|-0---2-------2---0---2---2---3---|-----3-----------------------3---|-0---2-------2---0---2---2---3---|
E|---------------------------------|---------2---3---3---5---5-------|---------------------------------|
B|---------------------------------|---------------------------------|---------------------------------|


C|---------------------------------|-------------------------------------------------|
G|---------------------------------|-------------------------------------------------|
D|---------------------------------|-------------------------------------------------|
A|-----3---------------------------|-------------------------------------------------|
E|---------2---3---3---5---3---2---|-------4--2-----5--2-----4--2--------------------|
B|---------------------------------|-0--2--------3--------3--------3--2--0--2--3--2--|


C|-------------------------------------------------------|-------------------------------------------------|
G|-------------------------------------------------------|-------------------------------------------------|
D|-------------------------------------------------------|-------------------------------------------------|
A|-------------------------------------------------------|-------------------------------------------------|
E|-------4--2-----5--2-----4--2--------------------------|-------4--2-----5--2-----4--2--------------------|
B|-0--2--------3--------3--------3--2--0--0--2--3--2--0--|-0--2--------3--------3--------3--2--0--2--3--2--|


C|-------------------------------------------------|---------------------------------------|
G|-------------------------------------------------|---------------------------------------|
D|-------------------------------------------------|---------------------------------------|
A|-------------------------4-----------------------|---------------------------------------|
E|-------4--2-----5--2--------4--5--2--4-----------|-0--2---2---2--3--2---2---2--0--2---2--|
B|-0--2--------3--------3-----------------2--0--3--|---------------------------------------|


C|---------------------------------------|-------------------------------------|---------------------------------|
G|---------------------------------------|-------------------------------------|---------------------------------|
D|---------------------------------------|-----------------------------7---6---|-4---7---6---4---7---6---4---7---|
A|-------1---1---------------------------|---------------------3---3-----------|---------------------------------|
E|----2----------0--2---2---2--3--2---2--|----2--0--2---2---2------------------|---------------------------------|
B|---------------------------------------|-------------------------------------|---------------------------------|


C|---------------------------------|-----------------------------------|---------------------------------------|
G|---------------------------------|-----------------------------------|---------------------------------------|
D|-6---4---7---6---4---7---6---4---|-7---6---4---7---6---4-------------|---------------------------------------|
A|---------------------------------|-----------------------------------|-----------------------------------1---|
E|---------------------------------|-------------------------0--2---2--|----2--3--2---2---2--0--2---2---2------|
B|---------------------------------|-----------------------------------|---------------------------------------|


C|---------------------------------------|-----------------------------------|---------------------------------|
G|---------------------------------------|-----------------------------------|---------------------------------|
D|---------------------------------------|-------------------7---6---4---7---|-6---4---7---6---4---7---6---4---|
A|-1-------------------------------------|-----------3---3-------------------|---------------------------------|
E|-----0--2---2---2--3--2---2---2--0--2--|----2---2--------------------------|---------------------------------|
B|---------------------------------------|-----------------------------------|---------------------------------|


C|---------------------------------|---------------------------------|---------------------------------|
G|---------------------------------|---------------------------------|---------------------------------|
D|-7---6---4---7---6---4---7---6---|-4---7---6---4---7---6---4---7---|-6---4---7---6---4---7---6---4---|
A|---------------------------------|---------------------------------|---------------------------------|
E|---------------------------------|---------------------------------|---------------------------------|
B|---------------------------------|---------------------------------|---------------------------------|


C|---------------------------------|-------------------------------------|---------------------------------------|
G|---------------------------------|-------------------------------------|---------------------------------------|
D|-7---6---4---7---6---4---7---6---|-4---7---6---4-----------------------|---------------------------------------|
A|---------------------------------|-------------------------------------|-------------------------1---1---------|
E|---------------------------------|-----------------0--2---2---2--3--2--|----2---2--0--2---2---2----------0--2--|
B|---------------------------------|-------------------------------------|---------------------------------------|


C|---------------------------------------|---------------------------------|---------------------------------|
G|---------------------------------------|---------------------------------|-------------------------6---4---|
D|---------------------------------------|---------7---6---4---7---6---4---|-7---6---4---7---6---4-----------|
A|---------------------------------------|-3---3---------------------------|---------------------------------|
E|----2---2--3--2---2---2--0--2---2---2--|---------------------------------|---------------------------------|
B|---------------------------------------|---------------------------------|---------------------------------|


C|---------------------------------|-------------------------------------|-------------------------------------|
G|---------6---4-----------6---4---|-------------------------------------|-------------------------------------|
D|-5---4-----------5---4-----------|-5---4-------------------------------|-------------------------------------|
A|---------------------------------|-------------------------------------|---------------1---1-----------------|
E|---------------------------------|---------0--2---2---2--3--2---2---2--|-0--2---2---2----------0--2---2---2--|
B|---------------------------------|-------------------------------------|-------------------------------------|


C|-------------------------------------|---------------------------------|---------------------------------|
G|-------------------------------------|---------------------------------|-----------------6---4-----------|
D|-------------------------------------|-7---6---4---7---6---4---7---6---|-4---7---6---4-----------5---4---|
A|-----------------------------3---3---|---------------------------------|---------------------------------|
E|-3--2---2---2--0--2---2---2----------|---------------------------------|---------------------------------|
B|-------------------------------------|---------------------------------|---------------------------------|


C|---------------------------------|---------------------------------|---------------------------------|
G|-6---4-----------6---4-----------|---------------------------------|-----------------6---4-----------|
D|---------5---4-----------5---4---|-7---6---4---7---6---4---7---6---|-4---7---6---4-----------5---4---|
A|---------------------------------|---------------------------------|---------------------------------|
E|---------------------------------|---------------------------------|---------------------------------|
B|---------------------------------|---------------------------------|---------------------------------|


C|---------------------------------|-------------------------------------------------|
G|-6---4-----------6---4-----------|-------------------------------------------------|
D|---------5---4-----------5---4---|-------------------------------------------------|
A|---------------------------------|-------------------------------------------------|
E|---------------------------------|-0--2-----2-----2--3--2-----2-----2--0--2-----2--|
B|---------------------------------|-------------------------------------------------|


C|-------------------------------------------------|-----------------------------------------------|
G|-------------------------------------------------|-----------------------------------------------|
D|-------------------------------------------------|-----------------------------------------------|
A|-------1-----1-----------------------------------|-------------------------3-----3---------------|
E|----2--------------0--2-----2-----2--3--2-----2--|----2--0--2-----2-----2--------------0--2---2--|
B|-------------------------------------------------|-----------------------------------------------|


C|---------------------------------------|---------------------------------------|
G|---------------------------------------|---------------------------------------|
D|---------------------------------------|---------------------------------------|
A|-----------------------------------1---|-1-------------------------------------|
E|----2--3--2---2---2--0--2---2---2------|-----0--2---2---2--3--2---2---2--0--2--|
B|---------------------------------------|---------------------------------------|


C|-----------------------------|---------------------|----------------------------|
G|-----------------------------|---------------------|----------------------------|
D|-----------------------------|---------------------|----------------------------|
A|-----------3---3--------4----|-5-------------------|-----------------------4----|
E|----2---2--------------------|----------------5----|-4---2----------------------|
B|-------------------2---------|------3----2---------|---------0---2----2---------|


C|---------------------|----------------------------|---------------------|----------------------------|
G|---------------------|----------------------------|---------------------|----------------------------|
D|---------------------|----------------------------|---------------------|----------------------------|
A|-5--------------4----|----------------------------|-4----5--------------|----------------------------|
E|---------------------|-4---2----------------------|---------------------|-5----4---2-----------------|
B|------3----2---------|---------0---2----3----2----|-----------3----2----|--------------0---2----2----|


C|---------------------|----------------------------|---------------------|----------------------------|
G|---------------------|----------------------------|---------------------|----------------------------|
D|---------------------|----------------------------|---------------------|----------------------------|
A|-4----5--------------|-4--------------------------|------4----5---------|----------------------------|
E|---------------------|------4---2-----------------|---------------------|------5----4---2------------|
B|-----------3----2----|--------------0---2----3----|-2--------------3----|-2-----------------0---2----|


C|---------------------|----------------------------|---------------------|----------------------------|
G|---------------------|----------------------------|---------------------|----------------------------|
D|---------------------|----------------------------|---------------------|----------------------------|
A|------4----5---------|------4---------------------|-----------4----5----|----------------------------|
E|---------------------|-----------4---2------------|---------------------|-----------5----4---2-------|
B|-2--------------3----|-2-----------------0---2----|-3----2--------------|-3----2-----------------0---|


C|---------------------|----------------------------|-----------------------------------|
G|---------------------|----------------------------|-----------6--4-----------------6--|
D|---------------------|----------------------------|-----------------6--4--------------|
A|-----------4----5----|-----------4----------------|-----------------------7--5--4-----|
E|---------------------|----------------4---2-------|-----------------------------------|
B|-2----2--------------|-3----2-----------------0---|-2----3----------------------------|


C|-------------------------------------------------|---------------------------------|
G|-4-----------------6--4-----------------6--4-----|---------------------------------|
D|----6--4-----------------6--4-----------------6--|-4--------------------------6----|
A|----------7--5--4--------------7--5--4-----------|----7--5--4--6----7----6---------|
E|-------------------------------------------------|---------------------------------|
B|-------------------------------------------------|---------------------------------|


C|----------------------------|-----------------------------|-------------------------------|
G|----------------------------|-----------------------------|---------9---8-----------------|
D|-5--------------------------|----------9----8-------------|-------------------------------|
A|------6----4----7---6----7--|-----6--------------6----4---|-----7-----------6----7----6---|
E|----------------------------|-----------------------------|-------------------------------|
B|----------------------------|-----------------------------|-------------------------------|


C|----------------------------|-----------------------------|------------------------------|
G|----------------------------|-----------------------------|--------------9---8-----------|
D|----6----5------------------|----------------9----8-------|------------------------------|
A|--------------6----4----7---|-6----7----6--------------6--|-----4----7-----------6----7--|
E|----------------------------|-----------------------------|------------------------------|
B|----------------------------|-----------------------------|------------------------------|


C|-----------------------------|-----------------------------|----------------------------|
G|-----------------------------|-----------------------------|--------------------9---8---|
D|----------6----5-------------|------------------------9----|-8--------------------------|
A|-----6--------------6----4---|-----7---6----7----6---------|------6----4----7-----------|
E|-----------------------------|-----------------------------|----------------------------|
B|-----------------------------|-----------------------------|----------------------------|


C|-----------------------------|----------------------------|----------------------------|
G|-----------------------------|----------------------------|----------------------------|
D|----------------6----5-------|----------------------------|----9----8------------------|
A|-6----7----6--------------6--|-----4----7---6----7----6---|--------------6----4----7---|
E|-----------------------------|----------------------------|----------------------------|
B|-----------------------------|----------------------------|----------------------------|


C|---------------------------------------------|-------------------------------------------------|
G|-9---8---8--6-----------------8--6-----------|-------8--6-----------------8--6-----------------|
D|---------------8--6-----------------8--6-----|-------------8--6-----------------8--6-----------|
A|---------------------9--7--6--------------9--|-7--6--------------9--7--6--------------9--7--6--|
E|---------------------------------------------|-------------------------------------------------|
B|---------------------------------------------|-------------------------------------------------|


C|----------------------------|---------------------------------|------------------------|
G|----------------------------|---------2-----------------------|------------------------|
D|-------6--8-----------------|-2---4-------4---2---4---4---5---|-----2----2---4---------|
A|-7--9--------6--------------|---------------------------------|------------------------|
E|-----------------------2----|---------------------------------|-------------------2----|
B|----------------------------|---------------------------------|------------------------|


C|---------------------------------|------------------------|---------------------------------|
G|---------2-----------------------|------------------------|---------2-----------------------|
D|-2---4-------4---2---4---4---5---|-----2----2---4---------|-2---4-------4---2---4---4---5---|
A|---------------------------------|------------------------|---------------------------------|
E|---------------------------------|-------------------2----|---------------------------------|
B|---------------------------------|------------------------|---------------------------------|


C|------------------------|---------------------------------|---------------------------|
G|------------------------|---------2-----------------------|---------------------------|
D|-----2----2---4---------|-2---4-------4---2---4---4---5---|-----2----2---4------------|
A|------------------------|---------------------------------|-------------------5---5---|
E|-------------------2----|---------------------------------|---------------------------|
B|------------------------|---------------------------------|---------------------------|


C|---------------------------------|---------------------------------|---------------------------------|
G|---------------------------------|---------------------------------|---------------------------------|
D|---------------------------------|---------------------------------|---------------------------------|
A|-5---5---5---5---5---3---3---3---|-3---3---3---3---2---2---2---2---|-2---2---2-----------------------|
E|---------------------------------|---------------------------------|-------------0---0---0---0---0---|
B|---------------------------------|---------------------------------|---------------------------------|


C|---------------------------------|---------------------------------|---------------------------------|
G|---------------------------------|---------------------------------|---------------------------------|
D|---------------------------------|---------------------------------|---------------------------------|
A|---------------------5-------7---|-7---7---7---7---7---0---5---5---|-5---5---5---5---0---3---3---3---|
E|-0---0---0---0---0-------7-------|---------------------------------|---------------------------------|
B|---------------------------------|---------------------------------|---------------------------------|


C|---------------------------------|---------------------------|------------------------------|
G|---------------------------------|---------------------------|------------------------------|
D|---------------------------------|---------------------------|-------------4---5----5---7---|
A|-3---3---3---0---2---2---2---2---|-2---2---2---2---3-----5---|-----5---7--------------------|
E|---------------------------------|---------------------------|------------------------------|
B|---------------------------------|---------------------------|------------------------------|


C|------------------------------|---------------------------|------------------------|
G|------------------------------|---------------------------|------------------------|
D|-----7---9--------------------|---------------------------|------------------------|
A|-------------9----------------|---------------------------|--------------3-----5---|
E|-----------------7--------7---|------7---5---7--------7---|------7---5-------------|
B|------------------------------|---------------------------|------------------------|


C|------------------------------|------------------------------|---------------------------|
G|------------------------------|------------------------------|---------------------------|
D|-------------4---5----5---7---|-----7---9--------------------|---------------------------|
A|-----5---7--------------------|-------------9----------------|---------------------------|
E|------------------------------|-----------------7--------7---|------7---5---7--------7---|
B|------------------------------|------------------------------|---------------------------|


C|---------------------------|---------------------------------|---------------------------------|
G|---------------------------|---------------------------------|---------------------------------|
D|---------------------------|---------------------------------|---------------------------------|
A|-------------------7---5---|-7---5-----------7---5---7---5---|---------7---5---7---5---9---9---|
E|------7---5---0------------|---------0---0-------------------|-0---0---------------------------|
B|---------------------------|---------------------------------|---------------------------------|


C|---------------------------------|---------------------------------|---------------------------------|
G|---------------------------------|---------------------------------|---------------------------------|
D|---------------------------------|---------------------------------|---------------------------------|
A|-9---5---5---5---7---7---3---3---|-3---5---5---5---2---2---3---3---|-3---0---0---0---2---2-----------|
E|---------------------------------|---------------------------------|-------------------------3---3---|
B|---------------------------------|---------------------------------|---------------------------------|


C|------------------------------|---------------------------------|---------------------------------|
G|------------------------------|---------------------------------|---------------------------------|
D|------------------------------|---------------------------------|---------------------------------|
A|------------------------------|-7---5---7---5-----------7---5---|-7---5-----------7---5---7---5---|
E|-3---5---5---5---2---2---0----|-----------------0---0-----------|---------0---0-------------------|
B|------------------------------|---------------------------------|---------------------------------|


C|---------------------------------|---------------------------------|---------------------------------|
G|---------------------------------|---------------------------------|---------------------------------|
D|---------------------------------|---------------------------------|---------------------------------|
A|-2---2---2---2---2---2---2---3---|-3---3---3---3---3---3---2---2---|-2---2---2---2---2---0---0---0---|
E|---------------------------------|---------------------------------|---------------------------------|
B|---------------------------------|---------------------------------|---------------------------------|


C|---------------------------|---------------------------|---------------------------------|
G|---------------------------|---------------------------|---------------------------------|
D|---------------------------|---------------------------|---------------------------------|
A|-0---0---0---0---3----2----|---------------7---5---7---|-----5---7---7---7---7---5---7---|
E|---------------------------|-3----2---0----------------|-0-------------------------------|
B|---------------------------|---------------------------|---------------------------------|


C|------------------------------|---------------------------------|------------------------------|
G|------------------------------|---------------------------------|------------------------------|
D|------------------------------|---------------------------------|------------------------------|
A|-----5---7--------7---5---7---|-----5---7---7---7---7---5---7---|-----5---7--------7---5---7---|
E|-0-----------0----------------|-0-------------------------------|-0-----------0----------------|
B|------------------------------|---------------------------------|------------------------------|


C|---------------------------------|---------------------------------------|------------------------------------|
G|---------------------------------|---------------------------------------|------------------------------------|
D|---------------------------------|---------------------------------------|------------------------------------|
A|-----5---7---7---7---7---5---7---|-----5---7-----------------------------|------------------------------------|
E|-0-------------------------------|-0-------------------------------------|------------------------------------|
B|---------------------------------|-------------0--0--0--0--0---0--0---0--|-0--------0--0--0--0--0---0--0---0--|


C|-----------------|
G|-----------------|
D|-----------------|
A|-----------------|
E|-----------------|
B|-0---------------|