Menu:

 

Search:

 

dream theater - these walls:

 



Title: These Walls
Artist: 
Album: Octavarium
Author: Dream Theater


Track 1: Distortion 1

D|---------------------------------|-----------------------------------|-----------------------------------|
A|---------------------------------|-----------------------------------|-----------------------------------|
F|---------------------------------|-----------------------------------|-----------------------------------|
C|---------------------------------|-----------------------------------|-----------------------------------|
G|---------------------------------|-----------------------------------|-----------------------------------|
D|-------------------------7-------|---------------5-------------------|---------3---------------------2---|
A|-0---0-------0-------0-------0---|-----0---5--7------0---0-------0---|-----0-------0-------0---3--5------|


D|---------------------------------|---------------------------------------|----------------------|
A|---------------------------------|---------------------------------------|----------------------|
F|---------------------------------|---------------------------------------|----------------------|
C|---------------------------------|---------------------------------------|-----------2----------|
G|---------------------------------|---------------------------------------|-----------2----------|
D|-------------------------7-------|---------------5--------2--3--2--------|-----------0----------|
A|-0---0-------0-------0-------0---|-----0---5--7------0-------------5--3--|-2--0--0--------------|


D|--------|-------------|--------|--------|-------3-----|-------------|--------|-------------|
A|--------|-------3-----|--------|--------|-------3-----|------2------|--------|-------3-----|
F|--------|-------2-----|--------|-2------|-------0-----|------2------|--------|-------2-----|
C|--------|-------0-----|--------|-0------|-------0-----|------2------|--------|-------0-----|
G|-2------|-------0-----|--------|--------|-------------|------0------|-2------|-------0-----|
D|-2------|-------------|--------|-3------|-------3-----|-------------|-2------|-------------|
A|-0------|-------3-----|--------|--------|-------------|-------------|-0------|-------3-----|


D|--------|-------------|-------2-----|-------------|--------|-------------|--------|
A|--------|-------------|-------0-----|-------------|--------|-------3-----|--------|
F|--------|-------------|-------------|-------------|--------|-------2-----|--------|
C|--------|-2------4----|-------4-----|------4------|--------|-------0-----|--------|
G|--------|-2------2----|-------2-----|------4------|-2------|-------0-----|--------|
D|--------|-0------0----|-------0-----|------2------|-2------|-------------|--------|
A|--------|-------------|-------------|-------------|-0------|-------3-----|--------|


D|--------|-------3-----|-------------|--------|-------------|--------|--------|-------------|
A|--------|-------3-----|------2------|--------|-------------|--------|--------|-------------|
F|-2------|-------0-----|------2------|--------|-------------|--------|--------|-------------|
C|-0------|-------0-----|------2------|-2------|-------2-----|--------|-5------|-------5-----|
G|--------|-------------|------0------|-2------|-------2-----|--------|-5------|-------5-----|
D|-3------|-------3-----|-------------|-0------|-------0-----|--------|-3------|-------3-----|
A|--------|-------------|-------------|--------|-------------|--------|--------|-------------|


D|-----------------|--------|--------|--------|--------|--------|--------|--------|
A|-----------------|--------|--------|--------|--------|--------|--------|--------|
F|-----------------|--------|--------|--------|--------|--------|--------|--------|
C|------7----------|--------|--------|--------|--------|--------|--------|--------|
G|------7----------|--------|--------|--------|--------|--------|--------|--------|
D|------5----------|--------|--------|--------|--------|--------|--------|--------|
A|-----------------|--------|--------|--------|--------|--------|--------|--------|


D|--------|--------|--------|--------|--------|--------|--------|--------|--------|
A|--------|--------|--------|--------|--------|--------|--------|--------|--------|
F|--------|--------|--------|--------|--------|--------|--------|--------|--------|
C|--------|--------|--------|--------|--------|--------|--------|--------|--------|
G|--------|--------|--------|--------|--------|--------|--------|--------|--------|
D|--------|--------|--------|--------|--------|--------|--------|--------|--------|
A|--------|--------|--------|--------|--------|--------|--------|--------|--------|


D|--------|--------|--------|--------|--------|--------|--------|--------|--------|
A|--------|--------|--------|--------|--------|--------|--------|--------|--------|
F|--------|--------|--------|--------|--------|--------|--------|--------|--------|
C|--------|--------|--------|--------|--------|--------|--------|--------|--------|
G|--------|--------|--------|--------|--------|--------|--------|--------|--------|
D|--------|--------|--------|--------|--------|--------|--------|--------|--------|
A|--------|--------|--------|--------|--------|--------|--------|--------|--------|


D|--------|--------|--------|--------|--------|--------|--------|--------|--------|
A|--------|--------|--------|--------|--------|--------|--------|--------|--------|
F|--------|--------|--------|--------|--------|--------|--------|--------|--------|
C|--------|--------|--------|--------|--------|--------|--------|--------|--------|
G|--------|--------|--------|--------|--------|--------|--------|--------|--------|
D|--------|--------|--------|--------|--------|--------|--------|--------|--------|
A|--------|--------|--------|--------|--------|--------|--------|--------|--------|


D|----------------|---------------------------------|---------------------------------|
A|----------------|---------------------------------|---------------------------------|
F|----------------|---------------------------------|---------------------------------|
C|----------------|---------------------------------|---------------------------------|
G|----------------|-----5-----------4-----------5---|---------0---0---0---5---0---0---|
D|--------3---3---|-3-------3---3-------3---3-------|-3---3---------------------------|
A|----------------|---------------------------------|---------------------------------|


D|---------------------------------|---------------------------------|---------------------------------|
A|---------------------------------|---------------------------------|---------------------------------|
F|---------------------------------|---------------------------------|---------------------------------|
C|---------------------------------|---------------------------------|---------2-----------------------|
G|-4---0---0---5---0---0---2---2---|-2---5---2---2---4---2---2---5---|-2---2-------2---2---5---2---2---|
D|---------------------------------|---------------------------------|---------------------------------|
A|---------------------------------|---------------------------------|---------------------------------|


D|---------------------------------|---------------------------------|------------------------------|
A|---------------------------------|---------------------------------|------------------------------|
F|---------------------------------|---------------------------------|---------2----2---2---2---2---|
C|---------------------------------|---------------------------------|---------2----2---2---2---2---|
G|-4---2---2---5---2---2-----------|-----5-----------4-----------5---|---------0----0---0---0---0---|
D|-------------------------3---3---|-3-------3---3-------3---3-------|-3---3------------------------|
A|---------------------------------|---------------------------------|------------------------------|


D|---------------------------|------------------------------|------------------------------|
A|---------------------------|------------------------------|------------------------------|
F|-2----2---2---2---2--------|------------------------------|------------------------------|
C|-2----2---2---2---2---2----|-2---2---2---2---2----2---2---|-2---2---2----2---2---2---2---|
G|-0----0---0---0---0---2----|-2---2---2---2---2----2---2---|-2---2---2----2---2---2---2---|
D|----------------------0----|-0---0---0---0---0----0---0---|-0---0---0----0---0---0---0---|
A|---------------------------|------------------------------|------------------------------|


D|------------------|--------|-------------|-------------|--------|------3------|-------------|
A|------------------|--------|------3------|-------------|--------|------3------|-2-----------|
F|------------------|--------|------2------|--------2----|--------|------0------|-2-----------|
C|-2----------------|--------|------0------|--------0----|--------|------0------|-2-----------|
G|-2-----------2----|--------|------0------|-------------|--------|-------------|-0------2----|
D|-0-----------2----|--------|-------------|--------3----|--------|------3------|--------2----|
A|-------------0----|--------|------3------|-------------|--------|-------------|--------0----|


D|--------|-------------|-------------|-------------|------2------|-------------|--------|
A|--------|------3------|-------------|-------------|------0------|-------------|--------|
F|--------|------2------|-------------|-------------|-------------|-------------|--------|
C|--------|------0------|--------2----|-------4-----|------4------|-4-----------|--------|
G|--------|------0------|--------2----|-------2-----|------2------|-4------2----|--------|
D|--------|-------------|--------0----|-------0-----|------0------|-2------2----|--------|
A|--------|------3------|-------------|-------------|-------------|--------0----|--------|


D|-------------|-------------|--------|------3------|-------------|--------|-------------|
A|------3------|-------------|--------|------3------|-2-----------|--------|-------------|
F|------2------|--------2----|--------|------0------|-2-----------|--------|-------------|
C|------0------|--------0----|--------|------0------|-2------2----|--------|------2------|
G|------0------|-------------|--------|-------------|-0------2----|--------|------2------|
D|-------------|--------3----|--------|------3------|--------0----|--------|------0------|
A|------3------|-------------|--------|-------------|-------------|--------|-------------|


D|-------------|--------|-------------|-----------------|--------|--------|--------|
A|-------------|--------|-------------|-----------------|--------|--------|--------|
F|-------------|--------|-------------|-----------------|--------|--------|--------|
C|--------5----|--------|------5------|-7---------------|--------|--------|--------|
G|--------5----|--------|------5------|-7---------------|--------|--------|--------|
D|--------3----|--------|------3------|-5---------------|--------|--------|--------|
A|-------------|--------|-------------|-----------------|--------|--------|--------|


D|--------|--------|--------|--------|--------|--------|--------|--------|--------|
A|--------|--------|--------|--------|--------|--------|--------|--------|--------|
F|--------|--------|--------|--------|--------|--------|--------|--------|--------|
C|--------|--------|--------|--------|--------|--------|--------|--------|--------|
G|--------|--------|--------|--------|--------|--------|--------|--------|--------|
D|--------|--------|--------|--------|--------|--------|--------|--------|--------|
A|--------|--------|--------|--------|--------|--------|--------|--------|--------|


D|--------|--------|--------|--------|--------|--------|--------|--------|--------|
A|--------|--------|--------|--------|--------|--------|--------|--------|--------|
F|--------|--------|--------|--------|--------|--------|--------|--------|--------|
C|--------|--------|--------|--------|--------|--------|--------|--------|--------|
G|--------|--------|--------|--------|--------|--------|--------|--------|--------|
D|--------|--------|--------|--------|--------|--------|--------|--------|--------|
A|--------|--------|--------|--------|--------|--------|--------|--------|--------|


D|--------|--------|--------|--------|--------|--------|--------|--------|--------|
A|--------|--------|--------|--------|--------|--------|--------|--------|--------|
F|--------|--------|--------|--------|--------|--------|--------|--------|--------|
C|--------|--------|--------|--------|--------|--------|--------|--------|--------|
G|--------|--------|--------|--------|--------|--------|--------|--------|--------|
D|--------|--------|--------|--------|--------|--------|--------|--------|--------|
A|--------|--------|--------|--------|--------|--------|--------|--------|--------|


D|--------|--------|--------|--------|-----------------------|---------------------------------|
A|--------|--------|--------|--------|-----------------------|---------------------------------|
F|--------|--------|--------|--------|-----------------------|---------------------------------|
C|--------|--------|--------|--------|-----------------------|---------------------------------|
G|--------|--------|--------|--------|-------------------5---|---------4-----------5-----------|
D|--------|--------|--------|--------|-------3---3---3-------|-3---3-------3---3-------3---3---|
A|--------|--------|--------|--------|-----------------------|---------------------------------|


D|---------------------------------|---------------------------------|---------------------------------|
A|---------------------------------|---------------------------------|---------------------------------|
F|---------------------------------|---------------------------------|---------------------------------|
C|---------------------------------|---------------------------------|---------------------------------|
G|-0---0---0---5---0---0---4---0---|-0---5---0---0---2---2---2---5---|-2---2---4---2---2---5---2---2---|
D|---------------------------------|---------------------------------|---------------------------------|
A|---------------------------------|---------------------------------|---------------------------------|


D|---------------------------------|---------------------------------|---------------------------------|
A|---------------------------------|---------------------------------|---------------------------------|
F|---------------------------------|---------------------------------|---------------------------------|
C|-2-------------------------------|---------------------------------|---------------------------------|
G|-----2---2---5---2---2---4---2---|-2---5---2---2---------------5---|---------4-----------5-----------|
D|---------------------------------|-----------------3---3---3-------|-3---3-------3---3-------3---3---|
A|---------------------------------|---------------------------------|---------------------------------|


D|---------------------------|------------------------------|------------------------------|
A|---------------------------|------------------------------|------------------------------|
F|-2----2---2---2---2---2----|-2---2---2---2----------------|------------------------------|
C|-2----2---2---2---2---2----|-2---2---2---2---2----2---2---|-2---2---2----2---2---2---2---|
G|-0----0---0---0---0---0----|-0---0---0---0---2----2---2---|-2---2---2----2---2---2---2---|
D|---------------------------|-----------------0----0---0---|-0---0---0----0---0---0---0---|
A|---------------------------|------------------------------|------------------------------|


D|---------------------------|-----------------|--------|--------|-------------|--------|
A|---------------------------|-----------------|--------|-3------|-------------|--------|
F|---------------------------|-----------------|--------|-2------|-------2-----|--------|
C|-2----2---2---2---2---2----|-----------------|--------|-0------|-------0-----|--------|
G|-2----2---2---2---2---2----|-----------2-----|--------|-0------|-------------|--------|
D|-0----0---0---0---0---0----|-----------2-----|--------|--------|-------3-----|--------|
A|---------------------------|-----------0-----|--------|-3------|-------------|--------|


D|-3-----------|-------------|--------|--------|-------------|-------------|-2-----------|
A|-3------2----|-------------|--------|-3------|-------------|-------------|-0-----------|
F|-0------2----|-------------|--------|-2------|-------------|-------------|-------------|
C|-0------2----|-------------|--------|-0------|-------2-----|------4------|-4------4----|
G|--------0----|-------2-----|--------|-0------|-------2-----|------2------|-2------4----|
D|-3-----------|-------2-----|--------|--------|-------0-----|------0------|-0------2----|
A|-------------|-------0-----|--------|-3------|-------------|-------------|-------------|


D|-------------|--------|--------|-------------|--------|-3-----------|-------------|
A|-------------|--------|-3------|-------------|--------|-3------2----|-------------|
F|-------------|--------|-2------|-------2-----|--------|-0------2----|-------------|
C|-------------|--------|-0------|-------0-----|--------|-0------2----|-------2-----|
G|-------2-----|--------|-0------|-------------|--------|--------0----|-------2-----|
D|-------2-----|--------|--------|-------3-----|--------|-3-----------|-------0-----|
A|-------0-----|--------|-3------|-------------|--------|-------------|-------------|


D|--------|--------|-------------|--------|-------------|-------------|-----------------|
A|--------|--------|-------------|--------|-------------|-------------|-----------------|
F|--------|--------|-------------|--------|-------------|-------------|-----------------|
C|--------|-2------|-------5-----|--------|-5------7----|-------2-----|-------2----5----|
G|--------|-2------|-------5-----|--------|-5------7----|-------2-----|-------2----5----|
D|--------|-0------|-------3-----|--------|-3------5----|-------0-----|-------0----3----|
A|--------|--------|-------------|--------|-------------|-------------|-----------------|


D|-------------|---------------------------------|-----------------------------------|
A|-------------|---------------------------------|-----------------------------------|
F|-------------|---------------------------------|-----------------------------------|
C|--------5----|---------------------------------|-----------------------------------|
G|--------5----|---------------------------------|-----------------------------------|
D|--------3----|-------------------------7-------|---------------5-------------------|
A|-------------|-0---0-------0-------0-------0---|-----0---5--7------0---0-------0---|


D|------------------------|-------------|--------|------------------------------|-----------------------------------|
A|------------------------|-------------|--------|------------------------------|-----------------------------------|
F|------------------------|-------------|--------|------------------------------|-----------------------------------|
C|-------------------2----|--------2----|-5------|-5----------------------------|-----------------------------------|
G|---------9----9----2----|--------2----|-5------|-5----------------------------|-----------------------------------|
D|---------7----7----0----|--------0----|-3------|-3----------------------------|-7---------------------5-----------|
A|-----0------------------|-------------|--------|------0---0-------0-------0---|-----0-------0---5--7------0---0---|


D|---------------------------|-------------|-----------------|--------------------|
A|---------------------------|-------------|-----------------|--------------------|
F|---------------------------|-------------|-----------------|--------------------|
C|---------------------------|------2------|------2----5-----|-------5------------|
G|-----------------9----9----|-9----2------|------2----5-----|-------5------------|
D|-----------------7----7----|-7----0------|------0----3-----|-------3------------|
A|-----0-------0-------------|-------------|-----------------|------------0---0---|


D|---------------------------------|-----------------------------------|-----------------|
A|---------------------------------|-----------------------------------|-----------------|
F|---------------------------------|-----------------------------------|-----------------|
C|---------------------------------|-----------------------------------|-----------2-----|
G|---------------------------------|-----------------------------------|-9----9----2-----|
D|-----------------7---------------|-------5---------------------------|-7----7----0-----|
A|-----0-------0-------0-------0---|-5--7------0---0-------0-------0---|-----------------|


D|--------|--------|-------------|--------|----------------|-------------|--------|
A|--------|--------|-------------|--------|----------------|-------------|--------|
F|--------|--------|-------------|--------|----------------|-------------|--------|
C|--------|-2------|-------5-----|--------|-5------7---7---|-------------|--------|
G|--------|-2------|-------5-----|--------|-5------7---7---|-------------|--------|
D|--------|-0------|-------3-----|--------|-3------5---5---|-------------|--------|
A|--------|--------|-------------|--------|----------------|-------------|--------|


D|--------|--------|--------|--------|--------|--------|--------|--------|--------|
A|--------|--------|--------|--------|--------|--------|--------|--------|--------|
F|--------|--------|--------|--------|--------|--------|--------|--------|--------|
C|--------|--------|--------|--------|--------|--------|--------|--------|--------|
G|--------|--------|--------|--------|--------|--------|--------|--------|--------|
D|--------|--------|--------|--------|--------|--------|--------|--------|--------|
A|--------|--------|--------|--------|--------|--------|--------|--------|--------|


D|--------|--------|--------|--------|--------|--------|--------|--------|--------|
A|--------|--------|--------|--------|--------|--------|--------|--------|--------|
F|--------|--------|--------|--------|--------|--------|--------|--------|--------|
C|--------|--------|--------|--------|--------|--------|--------|--------|--------|
G|--------|--------|--------|--------|--------|--------|--------|--------|--------|
D|--------|--------|--------|--------|--------|--------|--------|--------|--------|
A|--------|--------|--------|--------|--------|--------|--------|--------|--------|


D|--------|--------|--------|----------------|---------------------------------|---------------------------------|
A|--------|--------|--------|----------------|---------------------------------|---------------------------------|
F|--------|--------|--------|----------------|---------------------------------|---------------------------------|
C|--------|--------|--------|----------------|---------------------------------|---------------------------------|
G|--------|--------|--------|----------------|-----5-----------4-----------5---|---------0---0---0---5---0---0---|
D|--------|--------|--------|--------3---3---|-3-------3---3-------3---3-------|-3---3---------------------------|
A|--------|--------|--------|----------------|---------------------------------|---------------------------------|


D|---------------------------------|---------------------------------|---------------------------------|
A|---------------------------------|---------------------------------|---------------------------------|
F|---------------------------------|---------------------------------|---------------------------------|
C|---------------------------------|---------------------------------|---------2-----------------------|
G|-4---0---0---5---0---0---2---2---|-2---5---2---2---4---2---2---5---|-2---2-------2---2---5---2---2---|
D|---------------------------------|---------------------------------|---------------------------------|
A|---------------------------------|---------------------------------|---------------------------------|


D|---------------------------------|---------------------------------|------------------------------|
A|---------------------------------|---------------------------------|------------------------------|
F|---------------------------------|---------------------------------|---------2----2---2---2---2---|
C|---------------------------------|---------------------------------|---------2----2---2---2---2---|
G|-4---2---2---5---2---2-----------|-----5-----------4-----------5---|---------0----0---0---0---0---|
D|-------------------------3---3---|-3-------3---3-------3---3-------|-3---3------------------------|
A|---------------------------------|---------------------------------|------------------------------|


D|---------------------------|------------------------------|------------------------------|
A|---------------------------|------------------------------|------------------------------|
F|-2----2---2---2---2--------|------------------------------|------------------------------|
C|-2----2---2---2---2---2----|-2---2---2---2---2----2---2---|-2---2---2----2---2---2---2---|
G|-0----0---0---0---0---2----|-2---2---2---2---2----2---2---|-2---2---2----2---2---2---2---|
D|----------------------0----|-0---0---0---0---0----0---0---|-0---0---0----0---0---0---0---|
A|---------------------------|------------------------------|------------------------------|


D|------------------|--------|-------------|-------------|--------|------3------|-------------|
A|------------------|--------|------3------|-------------|--------|------3------|-2-----------|
F|------------------|--------|------2------|--------2----|--------|------0------|-2-----------|
C|-2----------------|--------|------0------|--------0----|--------|------0------|-2-----------|
G|-2-----------2----|--------|------0------|-------------|--------|-------------|-0------2----|
D|-0-----------2----|--------|-------------|--------3----|--------|------3------|--------2----|
A|-------------0----|--------|------3------|-------------|--------|-------------|--------0----|


D|--------|-------------|-------------|-------------|------2------|-------------|--------|
A|--------|------3------|-------------|-------------|------0------|-------------|--------|
F|--------|------2------|-------------|-------------|-------------|-------------|--------|
C|--------|------0------|--------2----|-------4-----|------4------|-4-----------|--------|
G|--------|------0------|--------2----|-------2-----|------2------|-4------2----|--------|
D|--------|-------------|--------0----|-------0-----|------0------|-2------2----|--------|
A|--------|------3------|-------------|-------------|-------------|--------0----|--------|


D|-------------|-------------|--------|------3------|-------------|--------|-------------|
A|------3------|-------------|--------|------3------|-2-----------|--------|-------------|
F|------2------|--------2----|--------|------0------|-2-----------|--------|-------------|
C|------0------|--------0----|--------|------0------|-2------2----|--------|------2------|
G|------0------|-------------|--------|-------------|-0------2----|--------|------2------|
D|-------------|--------3----|--------|------3------|--------0----|--------|------0------|
A|------3------|-------------|--------|-------------|-------------|--------|-------------|


D|-------------|--------|-------------|-------------|--------|-------------|-------------|
A|-------------|--------|-------------|-------------|--------|------3------|-------------|
F|-------------|--------|-------------|-------------|--------|------2------|--------2----|
C|--------5----|--------|------5------|-7-----------|--------|------0------|--------0----|
G|--------5----|--------|------5------|-7------2----|--------|------0------|-------------|
D|--------3----|--------|------3------|-5------2----|--------|-------------|--------3----|
A|-------------|--------|-------------|--------0----|--------|------3------|-------------|


D|--------|------3------|-------------|--------|-------------|-------------|-------------|
A|--------|------3------|-2-----------|--------|------3------|-------------|-------------|
F|--------|------0------|-2-----------|--------|------2------|-------------|-------------|
C|--------|------0------|-2-----------|--------|------0------|--------2----|-------4-----|
G|--------|-------------|-0------2----|--------|------0------|--------2----|-------2-----|
D|--------|------3------|--------2----|--------|-------------|--------0----|-------0-----|
A|--------|-------------|--------0----|--------|------3------|-------------|-------------|


D|------2------|-------------|--------|-------------|-------------|--------|------3------|
A|------0------|-------------|--------|------3------|-------------|--------|------3------|
F|-------------|-------------|--------|------2------|--------2----|--------|------0------|
C|------4------|-4-----------|--------|------0------|--------0----|--------|------0------|
G|------2------|-4------2----|--------|------0------|-------------|--------|-------------|
D|------0------|-2------2----|--------|-------------|--------3----|--------|------3------|
A|-------------|--------0----|--------|------3------|-------------|--------|-------------|


D|-------------|--------|-------------|-------------|--------|-------------|----------------|
A|-2-----------|--------|-------------|-------------|--------|-------------|----------------|
F|-2-----------|--------|-------------|-------------|--------|-------------|----------------|
C|-2------2----|--------|------2------|--------5----|--------|------5------|-7--------------|
G|-0------2----|--------|------2------|--------5----|--------|------5------|-7--------------|
D|--------0----|--------|------0------|--------3----|--------|------3------|-5--------------|
A|-------------|--------|-------------|-------------|--------|-------------|--------0---0---|


D|---------------------------------|---------------------------------|---------------------------------|
A|---------------------------------|---------------------------------|---------------------------------|
F|---------------------------------|---------------------------------|---------------------------------|
C|---------------------------------|---------------------------------|---------------------------------|
G|---------------------------------|---------------------------------|---------------------------------|
D|-----------------7---------------|---------------------------------|-5-------------------------------|
A|-----0-------0-------0-------0---|-----0---0---0-------0-------0---|-----0-------0-------0---0---0---|


D|---------------------------------|---------------------------------|---------------------------------|
A|---------------------------------|---------------------------------|---------------------------------|
F|---------------------------------|---------------------------------|---------------------------------|
C|---------------------------------|---------------------------------|---------------------------------|
G|---------------------------------|---------------------------------|---------------------------------|
D|-----------------3---------------|---------------------------------|-2-------------------2-----------|
A|-----0-------0-------0-------0---|-----0---0---0-------0-------0---|-----0-------0---3-------0---0---|


D|---------------------------------|---------------------------------|---------------------------------|
A|---------------------------------|---------------------------------|---------------------------------|
F|---------------------------------|---------------------------------|---------------------------------|
C|---------------------------------|---------------------------------|---------------------------------|
G|---------------------------------|---------------------------------|---------------------------------|
D|-----------------7---------------|---------------------------------|-5-------------------------------|
A|-----0-------0-------0-------0---|-----0---0---0-------0-------0---|-----0-------0-------0---0---0---|


D|---------------------------------|---------------------------------|---------------------------------------------|
A|---------------------------------|---------------------------------|---------------------------------------------|
F|---------------------------------|---------------------------------|---------------------------------------------|
C|---------------------------------|---------------------------------|---------------------------------------------|
G|---------------------------------|---------------------------------|-9--10-9--7-----------------7--9--10---------|
D|-----------------3---------------|---------------------------------|-------------10-9--7--9--10------------------|
A|-----0-------0-------0-------0---|-----0---0---0-------0-------0---|-------------------------------------0---0---|


D|---------------------------------|---------------------------------|---------------------------------|
A|---------------------------------|---------------------------------|---------------------------------|
F|---------------------------------|---------------------------------|---------------------------------|
C|---------------------------------|---------------------------------|---------------------------------|
G|---------------------------------|---------------------------------|---------------------------------|
D|-----------------7---------------|---------------------------------|-5-------------------------------|
A|-----0-------0-------0-------0---|-----0---0---0-------0-------0---|-----0-------0-------0---0---0---|


D|---------------------------------|---------------------------------|---------------------------------|
A|---------------------------------|---------------------------------|---------------------------------|
F|---------------------------------|---------------------------------|---------------------------------|
C|---------------------------------|---------------------------------|---------------------------------|
G|---------------------------------|---------------------------------|---------------------------------|
D|-----------------3---------------|---------------------------------|-2-------------------2-----------|
A|-----0-------0-------0-------0---|-----0---0---0-------0-------0---|-----0-------0---3-------0---0---|


D|---------------------------------|---------------------------------|---------------------------------|
A|---------------------------------|---------------------------------|---------------------------------|
F|---------------------------------|---------------------------------|---------------------------------|
C|---------------------------------|---------------------------------|---------------------------------|
G|---------------------------------|---------------------------------|---------------------------------|
D|-----------------7---------------|---------------------------------|-5-------------------------------|
A|-----0-------0-------0-------0---|-----0---0---0-------0-------0---|-----0-------0-------0---0---0---|


D|---------------------------------|---------------------------------|---------------------|
A|---------------------------------|---------------------------------|---------------------|
F|---------------------------------|---------------------------------|---------------------|
C|---------------------------------|---------------------------------|-2----2----2---------|
G|---------------------------------|---------------------------------|-2----2----2---------|
D|-----------------3---------------|---------------------------------|-0----0----0---------|
A|-----0-------0-------0-------0---|-----0---0---0-------0-------0---|---------------------|





Track 2: Keyboard (Lead)

D|--------|--------|--------|--------|--------|--------|---------------------------------|
A|--------|--------|--------|--------|--------|--------|-12------------------12----------|
F|--------|--------|--------|--------|--------|--------|---------11--9-----------11------|
C|--------|--------|--------|--------|--------|--------|-----9-----------9-----------9---|
G|--------|--------|--------|--------|--------|--------|---------------------------------|
D|--------|--------|--------|--------|--------|--------|---------------------------------|
A|--------|--------|--------|--------|--------|--------|---------------------------------|


D|---------------------------------|---------------------------------|---------------------------------|
A|-------------10--12--------------|-----12----------------------10--|-12------------------12----------|
F|-9-------11--------------11--9---|---------11------9-------11------|---------11--9-----------11------|
C|-----9---------------9-----------|-9-----------9-------9-----------|-----9-----------9-----------9---|
G|---------------------------------|---------------------------------|---------------------------------|
D|---------------------------------|---------------------------------|---------------------------------|
A|---------------------------------|---------------------------------|---------------------------------|


D|-------------------------9-------|---------------------------------|---------------------------------|
A|-------------10--12----------10--|-----12----------------------10--|-12------------------12----------|
F|-9-------11----------------------|---------11------9-------11------|---------11--9-----------11------|
C|-----9---------------9-----------|-9-----------9-------9-----------|-----9-----------9-----------9---|
G|---------------------------------|---------------------------------|---------------------------------|
D|---------------------------------|---------------------------------|---------------------------------|
A|---------------------------------|---------------------------------|---------------------------------|


D|---------------------------------|---------------------------------|---------9-------------------9---|
A|-------------10--12--------------|-----12----------------------10--|-12----------10------12----------|
F|-9-------11--------------11--9---|---------11------9-------11------|-------------------------11------|
C|-----9---------------9-----------|-9-----------9-------9-----------|-----9-----------9---------------|
G|---------------------------------|---------------------------------|---------------------------------|
D|---------------------------------|---------------------------------|---------------------------------|
A|---------------------------------|---------------------------------|---------------------------------|


D|---------------------9-----------|---------9-----------------------|---------------------------------|
A|-10----------10--12----------10--|-----12----------------------10--|-12------------------12----------|
F|---------11----------------------|-----------------9-------11------|---------11--9-----------11------|
C|-----9-------------------9-------|-9-----------9-------9-----------|-----9-----------9-----------9---|
G|---------------------------------|---------------------------------|---------------------------------|
D|---------------------------------|---------------------------------|---------------------------------|
A|---------------------------------|---------------------------------|---------------------------------|


D|---------------------------------|---------------------------------|---------------------------------|
A|-------------10--12--------------|-----12----------------------10--|-12------------------12----------|
F|-9-------11--------------11--9---|---------11------9-------11------|---------11--9-----------11------|
C|-----9---------------9-----------|-9-----------9-------9-----------|-----9-----------9-----------9---|
G|---------------------------------|---------------------------------|---------------------------------|
D|---------------------------------|---------------------------------|---------------------------------|
A|---------------------------------|---------------------------------|---------------------------------|


D|-------------------------9-------|---------------------------------|--------|-------------|
A|-------------10--12----------10--|-----12--------------------------|--------|-------12----|
F|-9-------11----------------------|---------11------9---------------|--------|-------------|
C|-----9---------------9-----------|-9-----------9-------9---12--11--|-9------|-------------|
G|---------------------------------|---------------------------------|--------|-------------|
D|---------------------------------|---------------------------------|--------|-------------|
A|---------------------------------|---------------------------------|--------|-------------|


D|--------|--------|-------19----|------19---------|--------|--------|--------|--------|
A|--------|--------|-------------|-----------------|--------|--------|--------|--------|
F|--------|--------|-------------|-----------------|--------|--------|--------|--------|
C|--------|--------|-------------|-----------------|--------|--------|--------|--------|
G|--------|--------|-------------|-----------------|--------|--------|--------|--------|
D|--------|-7------|-------------|-----------------|--------|--------|--------|--------|
A|--------|--------|-------------|-----------------|--------|--------|--------|--------|


D|--------|--------|--------|--------|--------|--------|--------|--------|--------|
A|--------|--------|--------|--------|--------|--------|--------|--------|--------|
F|--------|--------|--------|--------|--------|--------|--------|--------|--------|
C|--------|--------|--------|--------|--------|--------|--------|--------|--------|
G|--------|--------|--------|--------|--------|--------|--------|--------|--------|
D|--------|--------|--------|--------|--------|--------|--------|--------|--------|
A|--------|--------|--------|--------|--------|--------|--------|--------|--------|


D|--------|--------|--------|--------|--------|--------|--------|--------|--------|
A|--------|--------|--------|--------|--------|--------|--------|--------|--------|
F|--------|--------|--------|--------|--------|--------|--------|--------|--------|
C|--------|--------|--------|--------|--------|--------|--------|--------|--------|
G|--------|--------|--------|--------|--------|--------|--------|--------|--------|
D|--------|--------|--------|--------|--------|--------|--------|--------|--------|
A|--------|--------|--------|--------|--------|--------|--------|--------|--------|


D|--------|--------|--------|--------|--------|--------|--------|--------|--------|
A|--------|--------|--------|--------|--------|--------|--------|--------|--------|
F|--------|--------|--------|--------|--------|--------|--------|--------|--------|
C|--------|--------|--------|--------|--------|--------|--------|--------|--------|
G|--------|--------|--------|--------|--------|--------|--------|--------|--------|
D|--------|--------|--------|--------|--------|--------|--------|--------|--------|
A|--------|--------|--------|--------|--------|--------|--------|--------|--------|


D|--------|--------|--------|--------|--------|--------|--------|--------|--------|
A|--------|--------|--------|--------|--------|--------|--------|--------|--------|
F|--------|--------|--------|--------|--------|--------|--------|--------|--------|
C|--------|--------|--------|--------|--------|--------|--------|--------|--------|
G|--------|--------|--------|--------|--------|--------|--------|--------|--------|
D|--------|--------|--------|--------|--------|--------|--------|--------|--------|
A|--------|--------|--------|--------|--------|--------|--------|--------|--------|


D|--------|--------|--------|--------|--------|--------|----------------|---------------------------------|
A|--------|--------|--------|--------|--------|--------|--------12------|-------------12------------------|
F|--------|--------|--------|--------|--------|--------|----------------|-11--9-----------11------9-------|
C|--------|--------|--------|--------|--------|--------|------------9---|---------9-----------9-------9---|
G|--------|--------|--------|--------|--------|--------|----------------|---------------------------------|
D|--------|--------|--------|--------|--------|--------|----------------|---------------------------------|
A|--------|--------|--------|--------|--------|--------|----------------|---------------------------------|


D|---------------------------------|---------------------------------|---------------------------------|
A|-----10--12------------------12--|---------------------10--12------|-------------12------------------|
F|-11--------------11--9-----------|-11------9-------11--------------|-11--9-----------11------9-------|
C|-------------9-----------9-------|-----9-------9---------------9---|---------9-----------9-------9---|
G|---------------------------------|---------------------------------|---------------------------------|
D|---------------------------------|---------------------------------|---------------------------------|
A|---------------------------------|---------------------------------|---------------------------------|


D|-----------------9---------------|---------------------------------|---------------------------------|
A|-----10--12----------10------12--|---------------------10--12------|-------------12------------------|
F|-11------------------------------|-11------9-------11--------------|-11--9-----------11------9-------|
C|-------------9-----------9-------|-----9-------9---------------9---|---------9-----------9-------9---|
G|---------------------------------|---------------------------------|---------------------------------|
D|---------------------------------|---------------------------------|---------------------------------|
A|---------------------------------|---------------------------------|---------------------------------|


D|---------------------------------|---------------------------------|-9-------------------9-----------|
A|-----10--12------------------12--|---------------------10--12------|-----10------12----------10------|
F|-11--------------11--9-----------|-11------9-------11--------------|-----------------11--------------|
C|-------------9-----------9-------|-----9-------9---------------9---|---------9-------------------9---|
G|---------------------------------|---------------------------------|---------------------------------|
D|---------------------------------|---------------------------------|---------------------------------|
A|---------------------------------|---------------------------------|---------------------------------|


D|-------------9-------------------|-9-------------------------------|---------------------------------|
A|-----10--12----------10------12--|---------------------10--12------|-------------12------------------|
F|-11------------------------------|---------9-------11--------------|-11--9-----------11------9-------|
C|-----------------9-------9-------|-----9-------9---------------9---|---------9-----------9-------9---|
G|---------------------------------|---------------------------------|---------------------------------|
D|---------------------------------|---------------------------------|---------------------------------|
A|---------------------------------|---------------------------------|---------------------------------|


D|---------------------------------|---------------------------------|---------------------------------|
A|-----10--12------------------12--|---------------------10--12------|-------------12------------------|
F|-11--------------11--9-----------|-11------9-------11--------------|-11--9-----------11------9-------|
C|-------------9-----------9-------|-----9-------9---------------9---|---------9-----------9-------9---|
G|---------------------------------|---------------------------------|---------------------------------|
D|---------------------------------|---------------------------------|---------------------------------|
A|---------------------------------|---------------------------------|---------------------------------|


D|-----------------9---------------|------------------------------|--------|-------------|
A|-----10--12----------10------12--|------------------------------|--------|------12-----|
F|-11------------------------------|-11------9--------------------|--------|-------------|
C|-------------9-----------9-------|-----9-------9---12--11--9----|--------|-------------|
G|---------------------------------|------------------------------|--------|-------------|
D|---------------------------------|------------------------------|--------|-------------|
A|---------------------------------|------------------------------|--------|-------------|


D|-------------|--------|------19-----|-19--------------|--------|--------|--------|
A|-------------|--------|-------------|-----------------|--------|--------|--------|
F|-------------|--------|-------------|-----------------|--------|--------|--------|
C|-------------|--------|-------------|-----------------|--------|--------|--------|
G|-------------|--------|-------------|-----------------|--------|--------|--------|
D|--------7----|--------|-------------|-----------------|--------|--------|--------|
A|-------------|--------|-------------|-----------------|--------|--------|--------|


D|--------|--------|--------|--------|--------|--------|--------|--------|--------|
A|--------|--------|--------|--------|--------|--------|--------|--------|--------|
F|--------|--------|--------|--------|--------|--------|--------|--------|--------|
C|--------|--------|--------|--------|--------|--------|--------|--------|--------|
G|--------|--------|--------|--------|--------|--------|--------|--------|--------|
D|--------|--------|--------|--------|--------|--------|--------|--------|--------|
A|--------|--------|--------|--------|--------|--------|--------|--------|--------|


D|--------|--------|--------|--------|--------|--------|--------|--------|--------|
A|--------|--------|--------|--------|--------|--------|--------|--------|--------|
F|--------|--------|--------|--------|--------|--------|--------|--------|--------|
C|--------|--------|--------|--------|--------|--------|--------|--------|--------|
G|--------|--------|--------|--------|--------|--------|--------|--------|--------|
D|--------|--------|--------|--------|--------|--------|--------|--------|--------|
A|--------|--------|--------|--------|--------|--------|--------|--------|--------|


D|--------|--------|--------|--------|--------|--------|--------|--------|--------|
A|--------|--------|--------|--------|--------|--------|--------|--------|--------|
F|--------|--------|--------|--------|--------|--------|--------|--------|--------|
C|--------|--------|--------|--------|--------|--------|--------|--------|--------|
G|--------|--------|--------|--------|--------|--------|--------|--------|--------|
D|--------|--------|--------|--------|--------|--------|--------|--------|--------|
A|--------|--------|--------|--------|--------|--------|--------|--------|--------|


D|--------|--------|--------|--------|--------|--------|--------|--------|--------|
A|--------|--------|--------|--------|--------|--------|--------|--------|--------|
F|--------|--------|--------|--------|--------|--------|--------|--------|--------|
C|--------|--------|--------|--------|--------|--------|--------|--------|--------|
G|--------|--------|--------|--------|--------|--------|--------|--------|--------|
D|--------|--------|--------|--------|--------|--------|--------|--------|--------|
A|--------|--------|--------|--------|--------|--------|--------|--------|--------|


D|--------|--------|--------|--------|--------|--------|-19-----19---|---------------------------|
A|--------|--------|--------|--------|--------|--------|-------------|-----------12--------------|
F|--------|--------|--------|--------|--------|--------|-16-----16---|-------------------11--9---|
C|--------|--------|--------|--------|--------|--------|-------------|---------------9-----------|
G|--------|--------|--------|--------|--------|--------|-------------|---------------------------|
D|--------|--------|--------|--------|--------|--------|-------------|---------------------------|
A|--------|--------|--------|--------|--------|--------|-------------|---------------------------|


D|---------------------------------|---------------------------------|---------------------------------|
A|-----12----------------------10--|-12------------------12----------|-------------10--12--------------|
F|---------11------9-------11------|---------11--9-----------11------|-9-------11--------------11--9---|
C|-9-----------9-------9-----------|-----9-----------9-----------9---|-----9---------------9-----------|
G|---------------------------------|---------------------------------|---------------------------------|
D|---------------------------------|---------------------------------|---------------------------------|
A|---------------------------------|---------------------------------|---------------------------------|


D|---------------------------------|---------9-----------------------|---------------------------------|
A|-----12----------------------10--|-12----------10------12----------|-------------10--12--------------|
F|---------11------9-------11------|-------------------------11------|-9-------11--------------11--9---|
C|-9-----------9-------9-----------|-----9-----------9-----------9---|-----9---------------9-----------|
G|---------------------------------|---------------------------------|---------------------------------|
D|---------------------------------|---------------------------------|---------------------------------|
A|---------------------------------|---------------------------------|---------------------------------|


D|---------------------------------|---------------------------------|-------------------------9-------|
A|-----12----------------------10--|-12------------------12----------|-------------10--12----------10--|
F|---------11------9-------11------|---------11--9-----------11------|-9-------11----------------------|
C|-9-----------9-------9-----------|-----9-----------9-----------9---|-----9---------------9-----------|
G|---------------------------------|---------------------------------|---------------------------------|
D|---------------------------------|---------------------------------|---------------------------------|
A|---------------------------------|---------------------------------|---------------------------------|


D|-------------9-------------------|-----9-------------------9-------|---------------------------------|
A|-----12----------10----------10--|-12----------10------12----------|-------------10--12--------------|
F|---------11--------------11------|---------------------------------|-9-------11--------------11--9---|
C|-9-------------------9-----------|---------9-------9-----------9---|-----9---------------9-----------|
G|---------------------------------|---------------------------------|---------------------------------|
D|---------------------------------|---------------------------------|---------------------------------|
A|---------------------------------|---------------------------------|---------------------------------|


D|---------------------------------|---------------------------------|---------------------------------|
A|-----12----------------------10--|-12------------------12----------|-------------10--12--------------|
F|---------11------9-------11------|---------11--9-----------11------|-9-------11--------------11--9---|
C|-9-----------9-------9-----------|-----9-----------9-----------9---|-----9---------------9-----------|
G|---------------------------------|---------------------------------|---------------------------------|
D|---------------------------------|---------------------------------|---------------------------------|
A|---------------------------------|---------------------------------|---------------------------------|


D|---------------------------------|---------9-----------------------|-----------------------|
A|-----12----------------------10--|-12----------10------12----------|-----------------------|
F|---------11------9-------11------|-------------------------11------|-9---------------------|
C|-9-----------9-------9-----------|-----9-----------9-----------9---|-----9---12--11--9-----|
G|---------------------------------|---------------------------------|-----------------------|
D|---------------------------------|---------------------------------|-----------------------|
A|---------------------------------|---------------------------------|-----------------------|


D|--------|--------|-------------|--------|-19-----19---|--------|--------|--------|
A|--------|-12-----|-------------|--------|-------------|--------|--------|--------|
F|--------|--------|-------------|--------|-------------|--------|--------|--------|
C|--------|--------|-------------|--------|-------------|--------|--------|--------|
G|--------|--------|-------------|--------|-------------|--------|--------|--------|
D|--------|--------|-------7-----|--------|-------------|--------|--------|--------|
A|--------|--------|-------------|--------|-------------|--------|--------|--------|


D|--------|--------|--------|--------|--------|--------|--------|--------|--------|
A|--------|--------|--------|--------|--------|--------|--------|--------|--------|
F|--------|--------|--------|--------|--------|--------|--------|--------|--------|
C|--------|--------|--------|--------|--------|--------|--------|--------|--------|
G|--------|--------|--------|--------|--------|--------|--------|--------|--------|
D|--------|--------|--------|--------|--------|--------|--------|--------|--------|
A|--------|--------|--------|--------|--------|--------|--------|--------|--------|


D|--------|--------|--------|--------|--------|--------|--------|--------|--------|
A|--------|--------|--------|--------|--------|--------|--------|--------|--------|
F|--------|--------|--------|--------|--------|--------|--------|--------|--------|
C|--------|--------|--------|--------|--------|--------|--------|--------|--------|
G|--------|--------|--------|--------|--------|--------|--------|--------|--------|
D|--------|--------|--------|--------|--------|--------|--------|--------|--------|
A|--------|--------|--------|--------|--------|--------|--------|--------|--------|


D|--------|--------|--------|--------|--------|--------|--------|--------|--------|
A|--------|--------|--------|--------|--------|--------|--------|--------|--------|
F|--------|--------|--------|--------|--------|--------|--------|--------|--------|
C|--------|--------|--------|--------|--------|--------|--------|--------|--------|
G|--------|--------|--------|--------|--------|--------|--------|--------|--------|
D|--------|--------|--------|--------|--------|--------|--------|--------|--------|
A|--------|--------|--------|--------|--------|--------|--------|--------|--------|


D|--------|--------|--------|--------|--------|--------|--------|--------|--------|
A|--------|--------|--------|--------|--------|--------|--------|--------|--------|
F|--------|--------|--------|--------|--------|--------|--------|--------|--------|
C|--------|--------|--------|--------|--------|--------|--------|--------|--------|
G|--------|--------|--------|--------|--------|--------|--------|--------|--------|
D|--------|--------|--------|--------|--------|--------|--------|--------|--------|
A|--------|--------|--------|--------|--------|--------|--------|--------|--------|


D|--------|--------|--------|--------|--------|--------|--------|--------|--------|
A|--------|--------|--------|--------|--------|--------|--------|--------|--------|
F|--------|--------|--------|--------|--------|--------|--------|--------|--------|
C|--------|--------|--------|--------|--------|--------|--------|--------|--------|
G|--------|--------|--------|--------|--------|--------|--------|--------|--------|
D|--------|--------|--------|--------|--------|--------|--------|--------|--------|
A|--------|--------|--------|--------|--------|--------|--------|--------|--------|


D|--------|--------|--------|--------|--------|--------|--------|--------|------19-----|
A|--------|--------|--------|--------|--------|--------|--------|--------|-------------|
F|--------|--------|--------|--------|--------|--------|--------|--------|------16-----|
C|--------|--------|--------|--------|--------|--------|--------|--------|-------------|
G|--------|--------|--------|--------|--------|--------|--------|--------|-------------|
D|--------|--------|--------|--------|--------|--------|--------|--------|-------------|
A|--------|--------|--------|--------|--------|--------|--------|--------|-------------|


D|-19------------------|---------------------------------|---------------------------------|
A|-------------12------|-------------12------------------|-----10--12------------------12--|
F|-16------------------|-11--9-----------11------9-------|-11--------------11--9-----------|
C|-----------------9---|---------9-----------9-------9---|-------------9-----------9-------|
G|---------------------|---------------------------------|---------------------------------|
D|---------------------|---------------------------------|---------------------------------|
A|---------------------|---------------------------------|---------------------------------|


D|---------------------------------|---------------------------------|-----------------9---------------|
A|---------------------10--12------|-------------12------------------|-----10--12----------10------12--|
F|-11------9-------11--------------|-11--9-----------11------9-------|-11------------------------------|
C|-----9-------9---------------9---|---------9-----------9-------9---|-------------9-----------9-------|
G|---------------------------------|---------------------------------|---------------------------------|
D|---------------------------------|---------------------------------|---------------------------------|
A|---------------------------------|---------------------------------|---------------------------------|


D|---------------------------------|---------------------------------|---------------------------------|
A|---------------------10--12------|-------------12------------------|-----10--12------------------12--|
F|-11------9-------11--------------|-11--9-----------11------9-------|-11--------------11--9-----------|
C|-----9-------9---------------9---|---------9-----------9-------9---|-------------9-----------9-------|
G|---------------------------------|---------------------------------|---------------------------------|
D|---------------------------------|---------------------------------|---------------------------------|
A|---------------------------------|---------------------------------|---------------------------------|


D|---------------------------------|-9-------------------9-----------|-------------9-------------------|
A|---------------------10--12------|-----10------12----------10------|-----10--12----------10------12--|
F|-11------9-------11--------------|-----------------11--------------|-11------------------------------|
C|-----9-------9---------------9---|---------9-------------------9---|-----------------9-------9-------|
G|---------------------------------|---------------------------------|---------------------------------|
D|---------------------------------|---------------------------------|---------------------------------|
A|---------------------------------|---------------------------------|---------------------------------|


D|-9-------------------------------|---------------------------------|---------------------------------|
A|---------------------10--12------|-------------12------------------|-----10--12------------------12--|
F|---------9-------11--------------|-11--9-----------11------9-------|-11--------------11--9-----------|
C|-----9-------9---------------9---|---------9-----------9-------9---|-------------9-----------9-------|
G|---------------------------------|---------------------------------|---------------------------------|
D|---------------------------------|---------------------------------|---------------------------------|
A|---------------------------------|---------------------------------|---------------------------------|


D|---------------------------------|---------------------------------|-----------------9---------------|
A|---------------------10--12------|-------------12------------------|-----10--12----------10------12--|
F|-11------9-------11--------------|-11--9-----------11------9-------|-11------------------------------|
C|-----9-------9---------------9---|---------9-----------9-------9---|-------------9-----------9-------|
G|---------------------------------|---------------------------------|---------------------------------|
D|---------------------------------|---------------------------------|---------------------------------|
A|---------------------------------|---------------------------------|---------------------------------|


D|---------------------------------|---------------------------------|---------------------------------|
A|---------------------10--12------|-------------12------------------|-----10--12------------------12--|
F|-11------9-------11--------------|-11--9-----------11------9-------|-11--------------11--9-----------|
C|-----9-------9---------------9---|---------9-----------9-------9---|-------------9-----------9-------|
G|---------------------------------|---------------------------------|---------------------------------|
D|---------------------------------|---------------------------------|---------------------------------|
A|---------------------------------|---------------------------------|---------------------------------|


D|---------------------------------|---------------------------------|---------------------------------|
A|---------------------10--12------|-------------12------------------|-----10--12--10------------------|
F|-11------9-------11--------------|-11--9-----------11------9-------|-11------------------11--9-------|
C|-----9-------9---------------9---|---------9-----------9-------9---|-----------------9-----------9---|
G|---------------------------------|---------------------------------|---------------------------------|
D|---------------------------------|---------------------------------|---------------------------------|
A|---------------------------------|---------------------------------|---------------------------------|


D|---------------------------------|---------------------------------|---------------------------------|
A|-------------------------12------|-------------12------------------|-----10--12------------------12--|
F|-----------------9---11----------|-11--9-----------11------9-------|-11--------------11--9-----------|
C|-12--9---11--9---------------9---|---------9-----------9-------9---|-------------9-----------9-------|
G|---------------------------------|---------------------------------|---------------------------------|
D|---------------------------------|---------------------------------|---------------------------------|
A|---------------------------------|---------------------------------|---------------------------------|


D|---------------------------------|---------------------------------|-----------------9---------------|
A|---------------------10--12------|-------------12------------------|-----10--12----------10------12--|
F|-11------9-------11--------------|-11--9-----------11------9-------|-11------------------------------|
C|-----9-------9---------------9---|---------9-----------9-------9---|-------------9-----------9-------|
G|---------------------------------|---------------------------------|---------------------------------|
D|---------------------------------|---------------------------------|---------------------------------|
A|---------------------------------|---------------------------------|---------------------------------|


D|---------------------------------|---------------------------------|---------------------------------|
A|---------------------10--12------|-------------12------------------|-----10--12------------------12--|
F|-11------9-------11--------------|-11--9-----------11------9-------|-11--------------11--9-----------|
C|-----9-------9---------------9---|---------9-----------9-------9---|-------------9-----------9-------|
G|---------------------------------|---------------------------------|---------------------------------|
D|---------------------------------|---------------------------------|---------------------------------|
A|---------------------------------|---------------------------------|---------------------------------|


D|---------------------------------|-9-------------------9-----------|-------------9-------------------|
A|---------------------10--12------|-----10------12----------10------|-----10--12----------10------12--|
F|-11------9-------11--------------|-----------------11--------------|-11------------------------------|
C|-----9-------9---------------9---|---------9-------------------9---|-----------------9-------9-------|
G|---------------------------------|---------------------------------|---------------------------------|
D|---------------------------------|---------------------------------|---------------------------------|
A|---------------------------------|---------------------------------|---------------------------------|


D|-9-------------------------------|---------------------------------|---------------------------------|
A|---------------------10--12------|-------------12------------------|-----10--12------------------12--|
F|---------9-------11--------------|-11--9-----------11------9-------|-11--------------11--9-----------|
C|-----9-------9---------------9---|---------9-----------9-------9---|-------------9-----------9-------|
G|---------------------------------|---------------------------------|---------------------------------|
D|---------------------------------|---------------------------------|---------------------------------|
A|---------------------------------|---------------------------------|---------------------------------|


D|---------------------------------|---------------------------------|-----------------9---------------|
A|---------------------10--12------|-------------12------------------|-----10--12----------10------12--|
F|-11------9-------11--------------|-11--9-----------11------9-------|-11------------------------------|
C|-----9-------9---------------9---|---------9-----------9-------9---|-------------9-----------9-------|
G|---------------------------------|---------------------------------|---------------------------------|
D|---------------------------------|---------------------------------|---------------------------------|
A|---------------------------------|---------------------------------|---------------------------------|


D|------------------------------|--------|-------------|-------------|-------------|
A|------------------------------|--------|-------------|--------12---|--------12---|
F|-11------9--------------------|--------|------9------|-------------|-------------|
C|-----9-------9---12--11--9----|--------|-------------|-------------|-------------|
G|------------------------------|--------|-------------|-------------|-------------|
D|------------------------------|--------|-------------|-------------|-------------|
A|------------------------------|--------|-------------|-------------|-------------|


D|---------19-----|------19---------|--------|--------|--------|--------|--------|
A|-----10---------|-----------------|--------|--------|--------|--------|--------|
F|----------------|-----------------|--------|--------|--------|--------|--------|
C|----------------|-----------------|--------|--------|--------|--------|--------|
G|----------------|-----------------|--------|--------|--------|--------|--------|
D|----------------|-----------------|--------|--------|--------|--------|--------|
A|----------------|-----------------|--------|--------|--------|--------|--------|


D|--------|--------|--------|--------|--------|--------|--------|--------|--------|
A|--------|--------|--------|--------|--------|--------|--------|--------|--------|
F|--------|--------|--------|--------|--------|--------|--------|--------|--------|
C|--------|--------|--------|--------|--------|--------|--------|--------|--------|
G|--------|--------|--------|--------|--------|--------|--------|--------|--------|
D|--------|--------|--------|--------|--------|--------|--------|--------|--------|
A|--------|--------|--------|--------|--------|--------|--------|--------|--------|


D|--------|--------|--------|--------|--------|--------|--------|--------|--------|
A|--------|--------|--------|--------|--------|--------|--------|--------|--------|
F|--------|--------|--------|--------|--------|--------|--------|--------|--------|
C|--------|--------|--------|--------|--------|--------|--------|--------|--------|
G|--------|--------|--------|--------|--------|--------|--------|--------|--------|
D|--------|--------|--------|--------|--------|--------|--------|--------|--------|
A|--------|--------|--------|--------|--------|--------|--------|--------|--------|


D|--------|
A|--------|
F|--------|
C|--------|
G|--------|
D|--------|
A|--------|





Track 3: Clean

D|--------|--------|--------|--------|--------|--------|--------|--------|--------|
A|--------|--------|--------|--------|--------|--------|--------|--------|--------|
F|--------|--------|--------|--------|--------|--------|--------|--------|--------|
C|--------|--------|--------|--------|--------|--------|--------|--------|--------|
G|--------|--------|--------|--------|--------|--------|--------|--------|--------|
D|--------|--------|--------|--------|--------|--------|--------|--------|--------|
A|--------|--------|--------|--------|--------|--------|--------|--------|--------|


D|--------|--------|--------|--------|--------|--------|--------|--------|--------|
A|--------|--------|--------|--------|--------|--------|--------|--------|--------|
F|--------|--------|--------|--------|--------|--------|--------|--------|--------|
C|--------|--------|--------|--------|--------|--------|--------|--------|--------|
G|--------|--------|--------|--------|--------|--------|--------|--------|--------|
D|--------|--------|--------|--------|--------|--------|--------|--------|--------|
A|--------|--------|--------|--------|--------|--------|--------|--------|--------|


D|--------|--------|--------|--------|--------|--------|--------|--------|--------|
A|--------|--------|--------|--------|--------|--------|--------|--------|--------|
F|--------|--------|--------|--------|--------|--------|--------|--------|--------|
C|--------|--------|--------|--------|--------|--------|--------|--------|--------|
G|--------|--------|--------|--------|--------|--------|--------|--------|--------|
D|--------|--------|--------|--------|--------|--------|--------|--------|--------|
A|--------|--------|--------|--------|--------|--------|--------|--------|--------|


D|--------|--------|--------|------------------|-----------------|------------------|
A|--------|--------|--------|-7-----------0----|-----------------|------0-----------|
F|--------|--------|--------|-------7----------|-----7-----6-----|------------6-----|
C|--------|--------|--------|------------------|-----------------|------------------|
G|--------|--------|--------|------------------|-----------------|------------------|
D|--------|--------|--------|-7----------------|-----------7-----|------------------|
A|--------|--------|--------|------------------|-----------------|------------------|


D|----------------0----|-----------------0---|---------------------|-----------------|
A|-----------0---------|-0-------------------|------0--------------|-------0---------|
F|------0--------------|------0----0---------|-----------6----7----|-------------7---|
C|---------------------|---------------------|---------------------|-----------------|
G|---------------------|---------------------|---------------------|-----------------|
D|-7-------------------|-----------7---------|----------------7----|-----------------|
A|---------------------|---------------------|---------------------|-----------------|


D|-------------|------------------|---------------------|------------------|---------------------|
A|-------------|-0----------------|---------------------|------------------|-----------7---------|
F|------6------|-------6----------|-----------4---------|------------------|-----------------7---|
C|-------------|------------------|------4---------4----|------------0-----|------0--------------|
G|-------------|------------------|-5-------------------|-5----------------|---------------------|
D|------7------|-------------3----|---------------------|------3-----------|-5---------7---------|
A|-------------|------------------|---------------------|------------------|---------------------|


D|------------------|-------------|---------------------|------0--------------|-------0----------|
A|------0-----------|--------0----|---------------------|-0---------0---------|-------------0----|
F|------------7-----|-6-----------|-----6----------0----|----------------0----|-0----------------|
C|------------------|-------------|---------------------|---------------------|------------------|
G|------------------|-------------|---------------------|---------------------|------------------|
D|------------------|-7-----------|-----------7---------|---------------------|-7----------------|
A|------------------|-------------|---------------------|---------------------|------------------|


D|-------------|------------------|-----------------|---------------------|---------------------|
A|-------------|-0----------------|-------0---------|---------------------|---------------------|
F|-6----7------|-------7-----6----|-------------6---|---------------------|-4-------------------|
C|-------------|------------------|-----------------|----------------4----|------4--------------|
G|-------------|------------------|-----------------|-----------5---------|-----------5---------|
D|------7------|-------------7----|-----------------|------3--------------|----------------3----|
A|-------------|------------------|-----------------|---------------------|---------------------|


D|---------------------|------------------|-----------------|------------------|----------------0----|
A|---------------------|-7-----------0----|-----------------|------0-----------|-----------0---------|
F|---------------------|-------7----------|-----7-----6-----|------------6-----|------0--------------|
C|-----0----------0----|------------------|-----------------|------------------|---------------------|
G|---------------------|------------------|-----------------|------------------|---------------------|
D|-----------5---------|-7----------------|-----------7-----|------------------|-7-------------------|
A|---------------------|------------------|-----------------|------------------|---------------------|


D|-----------------0---|---------------------|-----------------|-------------|------------------|
A|-0-------------------|------0--------------|-------0---------|-------------|-0----------------|
F|------0----0---------|-----------6----7----|-------------7---|------6------|-------6----------|
C|---------------------|---------------------|-----------------|-------------|------------------|
G|---------------------|---------------------|-----------------|-------------|------------------|
D|-----------7---------|----------------7----|-----------------|------7------|-------------3----|
A|---------------------|---------------------|-----------------|-------------|------------------|


D|---------------------|---------------------|---------------------|--------|--------|
A|---------------------|---------------------|---------------------|--------|--------|
F|-----------4---------|---------------------|---------------------|--------|--------|
C|------4---------4----|----------------4----|-----------4---------|--------|--------|
G|-5-------------------|-5---------5---------|------5--------------|--------|--------|
D|---------------------|------3--------------|-5-------------------|--------|--------|
A|---------------------|---------------------|---------------------|--------|--------|


D|--------|--------|--------|--------|--------|--------|--------|--------|--------|
A|--------|--------|--------|--------|--------|--------|--------|--------|--------|
F|--------|--------|--------|--------|--------|--------|--------|--------|--------|
C|--------|--------|--------|--------|--------|--------|--------|--------|--------|
G|--------|--------|--------|--------|--------|--------|--------|--------|--------|
D|--------|--------|--------|--------|--------|--------|--------|--------|--------|
A|--------|--------|--------|--------|--------|--------|--------|--------|--------|


D|--------|--------|--------|--------|--------|--------|--------|--------|--------|
A|--------|--------|--------|--------|--------|--------|--------|--------|--------|
F|--------|--------|--------|--------|--------|--------|--------|--------|--------|
C|--------|--------|--------|--------|--------|--------|--------|--------|--------|
G|--------|--------|--------|--------|--------|--------|--------|--------|--------|
D|--------|--------|--------|--------|--------|--------|--------|--------|--------|
A|--------|--------|--------|--------|--------|--------|--------|--------|--------|


D|--------|--------|--------|--------|--------|--------|--------|--------|--------|
A|--------|--------|--------|--------|--------|--------|--------|--------|--------|
F|--------|--------|--------|--------|--------|--------|--------|--------|--------|
C|--------|--------|--------|--------|--------|--------|--------|--------|--------|
G|--------|--------|--------|--------|--------|--------|--------|--------|--------|
D|--------|--------|--------|--------|--------|--------|--------|--------|--------|
A|--------|--------|--------|--------|--------|--------|--------|--------|--------|


D|--------|--------|--------|--------|--------|--------|-------------|---------------------|
A|--------|--------|--------|--------|--------|--------|--------7----|-----------0---------|
F|--------|--------|--------|--------|--------|--------|-------------|-----7-----------7---|
C|--------|--------|--------|--------|--------|--------|-------------|---------------------|
G|--------|--------|--------|--------|--------|--------|-------------|---------------------|
D|--------|--------|--------|--------|--------|--------|--------7----|---------------------|
A|--------|--------|--------|--------|--------|--------|-------------|---------------------|


D|-------------|------------------|-----------0---------|------------0-----|-----------------|
A|-------------|-0----------------|------0---------0----|------------------|-0---------------|
F|------6------|-------6----------|-0-------------------|-0----0-----------|------6----7-----|
C|-------------|------------------|---------------------|------------------|-----------------|
G|-------------|------------------|---------------------|------------------|-----------------|
D|------7------|-------------7----|---------------------|------7-----------|-----------7-----|
A|-------------|------------------|---------------------|------------------|-----------------|


D|------------------|-------------|---------------------|---------------------|------------------|
A|------0-----------|--------0----|---------------------|---------------------|------------------|
F|------------7-----|-6-----------|-----6---------------|------4--------------|------------------|
C|------------------|-------------|---------------------|-4---------4---------|-------0----------|
G|------------------|-------------|----------------5----|----------------5----|------------------|
D|------------------|-7-----------|-----------3---------|---------------------|-3-----------5----|
A|------------------|-------------|---------------------|---------------------|------------------|


D|------------------|------------------|-----------------|---------------------|-0-------------------|
A|------7-----------|-0----------------|-------0---------|----------------0----|------0--------------|
F|------------7-----|-------7-----6----|-------------6---|-----------0---------|-----------0----0----|
C|-0----------------|------------------|-----------------|---------------------|---------------------|
G|------------------|------------------|-----------------|---------------------|---------------------|
D|------7-----------|-------------7----|-----------------|------7--------------|----------------7----|
A|------------------|------------------|-----------------|---------------------|---------------------|


D|-----0---------------|-------------|-----------------|------------------|---------------------|
A|-----------0---------|--------0----|-----------------|------0-----------|---------------------|
F|----------------6----|-7-----------|-----7-----6-----|------------6-----|----------------4----|
C|---------------------|-------------|-----------------|------------------|-----------4---------|
G|---------------------|-------------|-----------------|------------------|------5--------------|
D|---------------------|-7-----------|-----------7-----|------------------|-3-------------------|
A|---------------------|-------------|-----------------|------------------|---------------------|


D|---------------------|---------------------|---------------------|-------------|
A|---------------------|----------------7----|-----------0---------|-------------|
F|---------------------|---------------------|-----7-----------7---|------6------|
C|-4---------------0---|-----------0---------|---------------------|-------------|
G|------5--------------|---------------------|---------------------|-------------|
D|-----------3---------|------5---------7----|---------------------|------7------|
A|---------------------|---------------------|---------------------|-------------|


D|------------------|-----------0---------|------------0-----|-----------------|------------------|
A|-0----------------|------0---------0----|------------------|-0---------------|------0-----------|
F|-------6----------|-0-------------------|-0----0-----------|------6----7-----|------------7-----|
C|------------------|---------------------|------------------|-----------------|------------------|
G|------------------|---------------------|------------------|-----------------|------------------|
D|-------------7----|---------------------|------7-----------|-----------7-----|------------------|
A|------------------|---------------------|------------------|-----------------|------------------|


D|-------------|---------------------|---------------------|---------------------|
A|--------0----|---------------------|---------------------|---------------------|
F|-6-----------|-----6---------------|------4--------------|---------------------|
C|-------------|---------------------|-4---------4---------|-----------4---------|
G|-------------|----------------5----|----------------5----|------5--------------|
D|-7-----------|-----------3---------|---------------------|-3--------------5----|
A|-------------|---------------------|---------------------|---------------------|


D|-----------------|--------|--------|--------|--------|--------|--------|--------|
A|-----------------|--------|--------|--------|--------|--------|--------|--------|
F|-----------------|--------|--------|--------|--------|--------|--------|--------|
C|------4----------|--------|--------|--------|--------|--------|--------|--------|
G|-5---------------|--------|--------|--------|--------|--------|--------|--------|
D|-----------------|--------|--------|--------|--------|--------|--------|--------|
A|-----------------|--------|--------|--------|--------|--------|--------|--------|


D|--------|--------|--------|--------|--------|--------|--------|--------|--------|
A|--------|--------|--------|--------|--------|--------|--------|--------|--------|
F|--------|--------|--------|--------|--------|--------|--------|--------|--------|
C|--------|--------|--------|--------|--------|--------|--------|--------|--------|
G|--------|--------|--------|--------|--------|--------|--------|--------|--------|
D|--------|--------|--------|--------|--------|--------|--------|--------|--------|
A|--------|--------|--------|--------|--------|--------|--------|--------|--------|


D|--------|--------|--------|--------|--------|--------|--------|--------|--------|
A|--------|--------|--------|--------|--------|--------|--------|--------|--------|
F|--------|--------|--------|--------|--------|--------|--------|--------|--------|
C|--------|--------|--------|--------|--------|--------|--------|--------|--------|
G|--------|--------|--------|--------|--------|--------|--------|--------|--------|
D|--------|--------|--------|--------|--------|--------|--------|--------|--------|
A|--------|--------|--------|--------|--------|--------|--------|--------|--------|


D|--------|--------|--------|--------|--------|--------|--------|--------|--------|
A|--------|--------|--------|--------|--------|--------|--------|--------|--------|
F|--------|--------|--------|--------|--------|--------|--------|--------|--------|
C|--------|--------|--------|--------|--------|--------|--------|--------|--------|
G|--------|--------|--------|--------|--------|--------|--------|--------|--------|
D|--------|--------|--------|--------|--------|--------|--------|--------|--------|
A|--------|--------|--------|--------|--------|--------|--------|--------|--------|


D|--------|--------|--------|--------|--------|--------|--------|--------|--------|
A|--------|--------|--------|--------|--------|--------|--------|--------|--------|
F|--------|--------|--------|--------|--------|--------|--------|--------|--------|
C|--------|--------|--------|--------|--------|--------|--------|--------|--------|
G|--------|--------|--------|--------|--------|--------|--------|--------|--------|
D|--------|--------|--------|--------|--------|--------|--------|--------|--------|
A|--------|--------|--------|--------|--------|--------|--------|--------|--------|


D|--------|--------|--------|--------|--------|--------|--------|--------|--------|
A|--------|--------|--------|--------|--------|--------|--------|--------|--------|
F|--------|--------|--------|--------|--------|--------|--------|--------|--------|
C|--------|--------|--------|--------|--------|--------|--------|--------|--------|
G|--------|--------|--------|--------|--------|--------|--------|--------|--------|
D|--------|--------|--------|--------|--------|--------|--------|--------|--------|
A|--------|--------|--------|--------|--------|--------|--------|--------|--------|


D|--------|--------|--------|--------|--------|--------|--------|--------|--------|
A|--------|--------|--------|--------|--------|--------|--------|--------|--------|
F|--------|--------|--------|--------|--------|--------|--------|--------|--------|
C|--------|--------|--------|--------|--------|--------|--------|--------|--------|
G|--------|--------|--------|--------|--------|--------|--------|--------|--------|
D|--------|--------|--------|--------|--------|--------|--------|--------|--------|
A|--------|--------|--------|--------|--------|--------|--------|--------|--------|


D|--------|--------|--------|--------|--------|--------|--------|--------|--------|
A|--------|--------|--------|--------|--------|--------|--------|--------|--------|
F|--------|--------|--------|--------|--------|--------|--------|--------|--------|
C|--------|--------|--------|--------|--------|--------|--------|--------|--------|
G|--------|--------|--------|--------|--------|--------|--------|--------|--------|
D|--------|--------|--------|--------|--------|--------|--------|--------|--------|
A|--------|--------|--------|--------|--------|--------|--------|--------|--------|


D|--------|--------|--------|--------|--------|--------|--------|--------|--------|
A|--------|--------|--------|--------|--------|--------|--------|--------|--------|
F|--------|--------|--------|--------|--------|--------|--------|--------|--------|
C|--------|--------|--------|--------|--------|--------|--------|--------|--------|
G|--------|--------|--------|--------|--------|--------|--------|--------|--------|
D|--------|--------|--------|--------|--------|--------|--------|--------|--------|
A|--------|--------|--------|--------|--------|--------|--------|--------|--------|


D|--------|--------|--------|--------|--------|--------|--------|--------|--------|
A|--------|--------|--------|--------|--------|--------|--------|--------|--------|
F|--------|--------|--------|--------|--------|--------|--------|--------|--------|
C|--------|--------|--------|--------|--------|--------|--------|--------|--------|
G|--------|--------|--------|--------|--------|--------|--------|--------|--------|
D|--------|--------|--------|--------|--------|--------|--------|--------|--------|
A|--------|--------|--------|--------|--------|--------|--------|--------|--------|


D|--------|--------|--------|--------|--------|--------|--------|--------|--------|
A|--------|--------|--------|--------|--------|--------|--------|--------|--------|
F|--------|--------|--------|--------|--------|--------|--------|--------|--------|
C|--------|--------|--------|--------|--------|--------|--------|--------|--------|
G|--------|--------|--------|--------|--------|--------|--------|--------|--------|
D|--------|--------|--------|--------|--------|--------|--------|--------|--------|
A|--------|--------|--------|--------|--------|--------|--------|--------|--------|


D|--------|--------|--------|--------|--------|--------|--------|--------|--------|
A|--------|--------|--------|--------|--------|--------|--------|--------|--------|
F|--------|--------|--------|--------|--------|--------|--------|--------|--------|
C|--------|--------|--------|--------|--------|--------|--------|--------|--------|
G|--------|--------|--------|--------|--------|--------|--------|--------|--------|
D|--------|--------|--------|--------|--------|--------|--------|--------|--------|
A|--------|--------|--------|--------|--------|--------|--------|--------|--------|


D|--------|--------|--------|--------|--------|--------|--------|--------|--------|
A|--------|--------|--------|--------|--------|--------|--------|--------|--------|
F|--------|--------|--------|--------|--------|--------|--------|--------|--------|
C|--------|--------|--------|--------|--------|--------|--------|--------|--------|
G|--------|--------|--------|--------|--------|--------|--------|--------|--------|
D|--------|--------|--------|--------|--------|--------|--------|--------|--------|
A|--------|--------|--------|--------|--------|--------|--------|--------|--------|


D|--------|--------|--------|--------|--------|--------|--------|--------|--------|
A|--------|--------|--------|--------|--------|--------|--------|--------|--------|
F|--------|--------|--------|--------|--------|--------|--------|--------|--------|
C|--------|--------|--------|--------|--------|--------|--------|--------|--------|
G|--------|--------|--------|--------|--------|--------|--------|--------|--------|
D|--------|--------|--------|--------|--------|--------|--------|--------|--------|
A|--------|--------|--------|--------|--------|--------|--------|--------|--------|


D|--------|--------|--------|--------|--------|--------|--------|--------|--------|
A|--------|--------|--------|--------|--------|--------|--------|--------|--------|
F|--------|--------|--------|--------|--------|--------|--------|--------|--------|
C|--------|--------|--------|--------|--------|--------|--------|--------|--------|
G|--------|--------|--------|--------|--------|--------|--------|--------|--------|
D|--------|--------|--------|--------|--------|--------|--------|--------|--------|
A|--------|--------|--------|--------|--------|--------|--------|--------|--------|


D|--------|--------|--------|--------|--------|--------|--------|--------|--------|
A|--------|--------|--------|--------|--------|--------|--------|--------|--------|
F|--------|--------|--------|--------|--------|--------|--------|--------|--------|
C|--------|--------|--------|--------|--------|--------|--------|--------|--------|
G|--------|--------|--------|--------|--------|--------|--------|--------|--------|
D|--------|--------|--------|--------|--------|--------|--------|--------|--------|
A|--------|--------|--------|--------|--------|--------|--------|--------|--------|


D|--------|--------|--------|--------|--------|--------|--------|--------|--------|
A|--------|--------|--------|--------|--------|--------|--------|--------|--------|
F|--------|--------|--------|--------|--------|--------|--------|--------|--------|
C|--------|--------|--------|--------|--------|--------|--------|--------|--------|
G|--------|--------|--------|--------|--------|--------|--------|--------|--------|
D|--------|--------|--------|--------|--------|--------|--------|--------|--------|
A|--------|--------|--------|--------|--------|--------|--------|--------|--------|


D|--------|--------|--------|--------|--------|--------|--------|--------|--------|
A|--------|--------|--------|--------|--------|--------|--------|--------|--------|
F|--------|--------|--------|--------|--------|--------|--------|--------|--------|
C|--------|--------|--------|--------|--------|--------|--------|--------|--------|
G|--------|--------|--------|--------|--------|--------|--------|--------|--------|
D|--------|--------|--------|--------|--------|--------|--------|--------|--------|
A|--------|--------|--------|--------|--------|--------|--------|--------|--------|


D|--------|--------|--------|--------|--------|
A|--------|--------|--------|--------|--------|
F|--------|--------|--------|--------|--------|
C|--------|--------|--------|--------|--------|
G|--------|--------|--------|--------|--------|
D|--------|--------|--------|--------|--------|
A|--------|--------|--------|--------|--------|





Track 4: Keyboard (Piano)

D|--------|--------|--------|--------|--------|--------|--------|--------|--------|
A|--------|--------|--------|--------|--------|--------|--------|--------|--------|
F|--------|--------|--------|--------|--------|--------|--------|--------|--------|
C|--------|--------|--------|--------|--------|--------|--------|--------|--------|
G|--------|--------|--------|--------|--------|--------|--------|--------|--------|
D|--------|--------|--------|--------|--------|--------|--------|--------|--------|
A|--------|--------|--------|--------|--------|--------|--------|--------|--------|


D|--------|--------|--------|--------|--------|--------|--------|--------|--------|
A|--------|--------|--------|--------|--------|--------|--------|--------|--------|
F|--------|--------|--------|--------|--------|--------|--------|--------|--------|
C|--------|--------|--------|--------|--------|--------|--------|--------|--------|
G|--------|--------|--------|--------|--------|--------|--------|--------|--------|
D|--------|--------|--------|--------|--------|--------|--------|--------|--------|
A|--------|--------|--------|--------|--------|--------|--------|--------|--------|


D|--------|--------|--------|--------|--------|--------|--------|--------|--------|
A|--------|--------|--------|--------|--------|--------|--------|--------|--------|
F|--------|--------|--------|--------|--------|--------|--------|--------|--------|
C|--------|--------|--------|--------|--------|--------|--------|--------|--------|
G|--------|--------|--------|--------|--------|--------|--------|--------|--------|
D|--------|--------|--------|--------|--------|--------|--------|--------|--------|
A|--------|--------|--------|--------|--------|--------|--------|--------|--------|


D|--------|--------|--------|-------------|-------------|------5------|--------|-------------|
A|--------|--------|--------|-7-----------|-------5-----|-------------|-7------|-------7-----|
F|--------|--------|--------|--------7----|-------------|-------------|--------|-------------|
C|--------|--------|--------|-------------|-------------|-------------|--------|-------------|
G|--------|--------|--------|-------------|-------------|-------------|--------|-------------|
D|--------|--------|--------|-------------|-------------|-------------|--------|-------------|
A|--------|--------|--------|-------------|-------------|-------------|--------|-------------|


D|---------------------|-------------|-------------|-5-----------|--------|-------------|
A|-----------5----7----|-------------|------5------|--------7----|--------|-------------|
F|------7--------------|-------7-----|-------------|-------------|--------|-------------|
C|---------------------|-------------|-------------|-------------|--------|-------------|
G|---------------------|-------------|-------------|-------------|--------|-------------|
D|---------------------|-------------|-------------|-------------|--------|-------------|
A|---------------------|-------------|-------------|-------------|--------|-------------|


D|-------------|-------------|--------7----|-----------------|-----7---------------|
A|-------7-----|-------------|-5-----------|-------7-----8---|-----------8----7----|
F|-------------|------7------|-------------|-----------------|---------------------|
C|-------------|-------------|-------------|-----------------|---------------------|
G|-------------|-------------|-------------|-----------------|---------------------|
D|-------------|-------------|-------------|-----------------|---------------------|
A|-------------|-------------|-------------|-----------------|---------------------|


D|-14----12---------|-9----10----------|------------------|-------------|-------------|
A|-------------12---|------------12----|-------12----10---|-------10----|------7------|
F|------------------|------------------|-11---------------|-------------|-------------|
C|------------------|------------------|------------------|-------------|-------------|
G|------------------|------------------|------------------|-------------|-------------|
D|------------------|------------------|------------------|-------------|-------------|
A|------------------|------------------|------------------|-------------|-------------|


D|-------------|----------------7----|-------10----7----|-----10----12----|------------------|
A|--------7----|-----8-----10--------|-7----------------|-----------------|------------10----|
F|-------------|---------------------|------------------|-----------------|------9-----------|
C|-------------|---------------------|------------------|-----------------|------------------|
G|-------------|---------------------|------------------|-----------------|------------------|
D|-------------|---------------------|------------------|-----------------|------------------|
A|-------------|---------------------|------------------|-----------------|------------------|


D|-------------|-----------14----12--|-----------9----10---|-----7-----------7---|
A|-12----------|-----12--------------|------12-------------|-----------7---------|
F|--------12---|---------------------|---------------------|---------------------|
C|-------------|---------------------|---------------------|---------------------|
G|-------------|---------------------|---------------------|---------------------|
D|-------------|---------------------|---------------------|---------------------|
A|-------------|---------------------|---------------------|---------------------|


D|-------------|-------------|--------|-------------|-10----9---------|--------|--------|
A|-------------|-10-----7----|--------|------12-----|-----------------|--------|--------|
F|------9------|-------------|--------|-------------|-----------------|--------|--------|
C|-------------|-------------|--------|-------------|-----------------|--------|--------|
G|-------------|-------------|--------|-------------|-----------------|--------|--------|
D|-------------|-------------|--------|-------------|-----------------|--------|--------|
A|-------------|-------------|--------|-------------|-----------------|--------|--------|


D|--------|--------|--------|--------|--------|--------|--------|--------|--------|
A|--------|--------|--------|--------|--------|--------|--------|--------|--------|
F|--------|--------|--------|--------|--------|--------|--------|--------|--------|
C|--------|--------|--------|--------|--------|--------|--------|--------|--------|
G|--------|--------|--------|--------|--------|--------|--------|--------|--------|
D|--------|--------|--------|--------|--------|--------|--------|--------|--------|
A|--------|--------|--------|--------|--------|--------|--------|--------|--------|


D|--------|--------|--------|--------|--------|--------|--------|--------|--------|
A|--------|--------|--------|--------|--------|--------|--------|--------|--------|
F|--------|--------|--------|--------|--------|--------|--------|--------|--------|
C|--------|--------|--------|--------|--------|--------|--------|--------|--------|
G|--------|--------|--------|--------|--------|--------|--------|--------|--------|
D|--------|--------|--------|--------|--------|--------|--------|--------|--------|
A|--------|--------|--------|--------|--------|--------|--------|--------|--------|


D|--------|--------|--------|--------|--------|--------|--------|--------|--------|
A|--------|--------|--------|--------|--------|--------|--------|--------|--------|
F|--------|--------|--------|--------|--------|--------|--------|--------|--------|
C|--------|--------|--------|--------|--------|--------|--------|--------|--------|
G|--------|--------|--------|--------|--------|--------|--------|--------|--------|
D|--------|--------|--------|--------|--------|--------|--------|--------|--------|
A|--------|--------|--------|--------|--------|--------|--------|--------|--------|


D|--------|--------|--------|--------|--------|--------|-------------|-------------|
A|--------|--------|--------|--------|--------|--------|--------7----|-------------|
F|--------|--------|--------|--------|--------|--------|-------------|-------7-----|
C|--------|--------|--------|--------|--------|--------|-------------|-------------|
G|--------|--------|--------|--------|--------|--------|-------------|-------------|
D|--------|--------|--------|--------|--------|--------|-------------|-------------|
A|--------|--------|--------|--------|--------|--------|-------------|-------------|


D|-------------|-5-----------|--------|-------------|-----------------|-------------|
A|------5------|--------7----|--------|------7------|------5----7-----|-------------|
F|-------------|-------------|--------|-------------|-7---------------|------7------|
C|-------------|-------------|--------|-------------|-----------------|-------------|
G|-------------|-------------|--------|-------------|-----------------|-------------|
D|-------------|-------------|--------|-------------|-----------------|-------------|
A|-------------|-------------|--------|-------------|-----------------|-------------|


D|--------5----|-------------|--------|--------|------------------|-14---------------|
A|-5-----------|-------7-----|--------|--------|------------12----|-------12---------|
F|-------------|-------------|--------|--------|------11----------|-------------9----|
C|-------------|-------------|--------|--------|------------------|------------------|
G|-------------|-------------|--------|--------|------------------|------------------|
D|-------------|-------------|--------|--------|------------------|------------------|
A|-------------|-------------|--------|--------|------------------|------------------|


D|-----------12----|------7------|--------14---|-----12--------------|-------------14---|
A|-----10----------|-------------|-8-----------|-----------12---14---|-------12---------|
F|-----------------|-------------|-------------|---------------------|-11---------------|
C|-----------------|-------------|-------------|---------------------|------------------|
G|-----------------|-------------|-------------|---------------------|------------------|
D|-----------------|-------------|-------------|---------------------|------------------|
A|-----------------|-------------|-------------|---------------------|------------------|


D|-----------------|------12-----|------------10---|-9---------------7---|-----------7---------|
A|-15--------------|-------------|-------10--------|------12-------------|------10-------------|
F|------16---14----|-------------|-11--------------|-----------11--------|----------------11---|
C|-----------------|-------------|-----------------|---------------------|---------------------|
G|-----------------|-------------|-----------------|---------------------|---------------------|
D|-----------------|-------------|-----------------|---------------------|---------------------|
A|-----------------|-------------|-----------------|---------------------|---------------------|


D|---------------------|-------------|-12---------------|-------------|------14----12----|
A|-----12----------12--|-------------|-------14----12---|-------------|------------------|
F|-----------11--------|-------------|------------------|-------12----|------------------|
C|---------------------|------14-----|------------------|-------------|------------------|
G|---------------------|-------------|------------------|-------------|------------------|
D|---------------------|-------------|------------------|-------------|------------------|
A|---------------------|-------------|------------------|-------------|------------------|


D|-----------10--------|------------------|-------------12---|-----------------|------10---------|
A|-12---14---------12--|------------12----|-10---------------|-----10----------|-12--------12----|
F|---------------------|------11----------|-------9----------|-----------12----|-----------------|
C|---------------------|------------------|------------------|-----------------|-----------------|
G|---------------------|------------------|------------------|-----------------|-----------------|
D|---------------------|------------------|------------------|-----------------|-----------------|
A|---------------------|------------------|------------------|-----------------|-----------------|


D|------------------|-----------------|--------|--------|--------|--------|--------|
A|------------------|-----------------|--------|--------|--------|--------|--------|
F|-11----9-----7----|-----6-----------|--------|--------|--------|--------|--------|
C|------------------|-----------------|--------|--------|--------|--------|--------|
G|------------------|-----------------|--------|--------|--------|--------|--------|
D|------------------|-----------------|--------|--------|--------|--------|--------|
A|------------------|-----------------|--------|--------|--------|--------|--------|


D|--------|--------|--------|--------|--------|--------|--------|--------|--------|
A|--------|--------|--------|--------|--------|--------|--------|--------|--------|
F|--------|--------|--------|--------|--------|--------|--------|--------|--------|
C|--------|--------|--------|--------|--------|--------|--------|--------|--------|
G|--------|--------|--------|--------|--------|--------|--------|--------|--------|
D|--------|--------|--------|--------|--------|--------|--------|--------|--------|
A|--------|--------|--------|--------|--------|--------|--------|--------|--------|


D|--------|--------|--------|--------|--------|--------|--------|--------|--------|
A|--------|--------|--------|--------|--------|--------|--------|--------|--------|
F|--------|--------|--------|--------|--------|--------|--------|--------|--------|
C|--------|--------|--------|--------|--------|--------|--------|--------|--------|
G|--------|--------|--------|--------|--------|--------|--------|--------|--------|
D|--------|--------|--------|--------|--------|--------|--------|--------|--------|
A|--------|--------|--------|--------|--------|--------|--------|--------|--------|


D|--------|--------|--------|--------|--------|--------|--------|--------|--------|
A|--------|--------|--------|--------|--------|--------|--------|--------|--------|
F|--------|--------|--------|--------|--------|--------|--------|--------|--------|
C|--------|--------|--------|--------|--------|--------|--------|--------|--------|
G|--------|--------|--------|--------|--------|--------|--------|--------|--------|
D|--------|--------|--------|--------|--------|--------|--------|--------|--------|
A|--------|--------|--------|--------|--------|--------|--------|--------|--------|


D|--------|--------|--------|-------------|------7----9----10---|-----9---------------|
A|--------|--------|--------|-------------|---------------------|-----------10---7----|
F|--------|--------|--------|-------9-----|-----------9----12---|----------------12---|
C|--------|--------|--------|-------9-----|-----------9----12---|----------------12---|
G|--------|--------|--------|-------7-----|-----------7----10---|----------------10---|
D|--------|--------|--------|-------7-----|-----------7----10---|----------------10---|
A|--------|--------|--------|-------------|---------------------|---------------------|


D|------------------|-----------------|---------------------|-------7----9----|-10----9-----10---|
A|-------10---------|-----------------|---------------------|-----------------|------------------|
F|-------------11---|-----------------|-----------11---9----|------------9----|-12---------------|
C|-9----------------|-------9-----11--|------12--------9----|------------9----|-12---------------|
G|-9----------------|-------9---------|-----------9----7----|------------7----|-10---------------|
D|-7----------------|-------7---------|-----------7----7----|------------7----|-10---------------|
A|------------------|-----------------|---------------------|-----------------|------------------|


D|------12----10---9---|----------------|---------------------|-------------|-19---21---22----21--|
A|---------------------|-12-------------|---------------------|-------------|-17---19---20----19--|
F|-12------------------|--------9---11--|-11--9-----7---------|------9------|------9----12--------|
C|-12------------------|----------------|----------------9----|-9----9------|------9----12--------|
G|-10---9--------------|--------9-------|---------------------|------7------|------7----10--------|
D|-10---7--------------|--------7-------|---------------------|------7------|------7----10--------|
A|---------------------|----------------|---------------------|-------------|---------------------|


D|------17---14--------|-----------------|------------------|-----------------|------7------|
A|------17---15--------|-----10----------|------------------|-----------9-----|------9------|
F|-----------12--------|-----------11----|------------------|------11---9-----|------9------|
C|-----------12---9----|-----------------|------9-----11----|-12--------9-----|------9------|
G|-----------10---9----|-----------------|------9-----------|------9----7-----|------7------|
D|-----------10---7----|-----------------|------7-----------|------7----0-----|------0------|
A|---------------------|-----------------|------------------|-----------------|-------------|


D|-------------|-----------5-----|------7------|-------------|-------2---------|------2-----------|
A|-9-----------|-7----9----8-----|------8------|-8------10---|-------3-----3---|------------3-----|
F|-9------9----|-9----9----7-----|------7------|-7------9----|-------4---------|------------------|
C|-9------9----|-9----9----5-----|------5------|-5------7----|-------4---------|------------------|
G|-7------7----|-7----7----------|-------------|--------0----|-------2---------|------------------|
D|-0------0----|-0----0----3-----|------3------|-3-----------|-----------------|------------------|
A|-------------|-----------------|-------------|-------------|-----------------|------------------|


D|-0-----------0----|-----------2---------|------7-----------|-14----12---------|------10-----|
A|-2-----2----------|-----2-----3-----3---|------------7-----|-------------12---|-14----------|
F|-4----------------|-----------4---------|------------------|-4----------------|-4----4------|
C|-4----------------|-----------4---------|------------------|-4----------------|-4----4------|
G|-2----------------|-----------2---------|------------------|-2----------------|-2----2------|
D|------------------|---------------------|------------------|------------------|-------------|
A|------------------|---------------------|------------------|------------------|-------------|


D|--------5----|-----------9---------|------3-----------|-7-----------3----|-------3----5----|
A|-12-----5----|-----5-----------5---|------3-----3-----|-------3-----3----|-------3----5----|
F|--------4----|---------------------|------------------|------------------|-----------------|
C|--------4----|---------------------|------5-----------|-------------5----|------------7----|
G|--------2----|---------------------|------5-----------|-------------5----|------------7----|
D|-------------|---------------------|------3-----------|-------------3----|------------5----|
A|-------------|---------------------|------------------|------------------|-----------------|


D|-2------2----|-------0-----|------5------|-2------2----|-------2-----|------5----0----2----|
A|-3------3----|-------2-----|------5------|-3------0----|-------3-----|------5----2----3----|
F|-4-----------|-------4-----|-------------|-4-----------|-------4-----|----------------4----|
C|-4-----------|-------4-----|-------------|-4-----------|-------4-----|-----------7----4----|
G|-2-----------|-------2-----|-------------|-2-----------|-------2-----|-----------7----2----|
D|-------------|-------------|-------------|-------------|-------------|-----------5---------|
A|-------------|-------------|-------------|-------------|-------------|---------------------|


D|-------2-----|------0------|-5------7----|-------10----|------14-----|-19----------|
A|-------3-----|------2------|-5------7----|-------12----|------15-----|-19----------|
F|-------------|------4------|--------7----|-------11----|------16-----|-19----------|
C|-------------|------4------|--------5----|-------------|------5------|-------------|
G|-------------|------2------|--------5----|-------------|------5------|-------------|
D|-------------|-------------|--------3----|-------------|------3------|-------------|
A|-------------|-------------|-------------|-------------|-------------|-------------|


D|--------|--------|--------|--------|--------|--------|--------|--------|--------|
A|--------|--------|--------|--------|--------|--------|--------|--------|--------|
F|--------|--------|--------|--------|--------|--------|--------|--------|--------|
C|--------|--------|--------|--------|--------|--------|--------|--------|--------|
G|--------|--------|--------|--------|--------|--------|--------|--------|--------|
D|--------|--------|--------|--------|--------|--------|--------|--------|--------|
A|--------|--------|--------|--------|--------|--------|--------|--------|--------|


D|--------|--------|--------|--------|--------|--------|--------|--------|--------|
A|--------|--------|--------|--------|--------|--------|--------|--------|--------|
F|--------|--------|--------|--------|--------|--------|--------|--------|--------|
C|--------|--------|--------|--------|--------|--------|--------|--------|--------|
G|--------|--------|--------|--------|--------|--------|--------|--------|--------|
D|--------|--------|--------|--------|--------|--------|--------|--------|--------|
A|--------|--------|--------|--------|--------|--------|--------|--------|--------|


D|--------|--------|--------|--------|--------|--------|--------|--------|--------|
A|--------|--------|--------|--------|--------|--------|--------|--------|--------|
F|--------|--------|--------|--------|--------|--------|--------|--------|--------|
C|--------|--------|--------|--------|--------|--------|--------|--------|--------|
G|--------|--------|--------|--------|--------|--------|--------|--------|--------|
D|--------|--------|--------|--------|--------|--------|--------|--------|--------|
A|--------|--------|--------|--------|--------|--------|--------|--------|--------|


D|--------|--------|--------|--------|--------|--------|--------|--------|--------|
A|--------|--------|--------|--------|--------|--------|--------|--------|--------|
F|--------|--------|--------|--------|--------|--------|--------|--------|--------|
C|--------|--------|--------|--------|--------|--------|--------|--------|--------|
G|--------|--------|--------|--------|--------|--------|--------|--------|--------|
D|--------|--------|--------|--------|--------|--------|--------|--------|--------|
A|--------|--------|--------|--------|--------|--------|--------|--------|--------|


D|--------|--------|--------|--------|--------|--------|--------|--------|--------|
A|--------|--------|--------|--------|--------|--------|--------|--------|--------|
F|--------|--------|--------|--------|--------|--------|--------|--------|--------|
C|--------|--------|--------|--------|--------|--------|--------|--------|--------|
G|--------|--------|--------|--------|--------|--------|--------|--------|--------|
D|--------|--------|--------|--------|--------|--------|--------|--------|--------|
A|--------|--------|--------|--------|--------|--------|--------|--------|--------|


D|--------|--------|--------|--------|--------|--------|--------|--------|--------|
A|--------|--------|--------|--------|--------|--------|--------|--------|--------|
F|--------|--------|--------|--------|--------|--------|--------|--------|--------|
C|--------|--------|--------|--------|--------|--------|--------|--------|--------|
G|--------|--------|--------|--------|--------|--------|--------|--------|--------|
D|--------|--------|--------|--------|--------|--------|--------|--------|--------|
A|--------|--------|--------|--------|--------|--------|--------|--------|--------|


D|--------|--------|--------|--------|--------|--------|--------|--------|--------|
A|--------|--------|--------|--------|--------|--------|--------|--------|--------|
F|--------|--------|--------|--------|--------|--------|--------|--------|--------|
C|--------|--------|--------|--------|--------|--------|--------|--------|--------|
G|--------|--------|--------|--------|--------|--------|--------|--------|--------|
D|--------|--------|--------|--------|--------|--------|--------|--------|--------|
A|--------|--------|--------|--------|--------|--------|--------|--------|--------|


D|--------|--------|--------|--------|--------|--------|--------|--------|--------|
A|--------|--------|--------|--------|--------|--------|--------|--------|--------|
F|--------|--------|--------|--------|--------|--------|--------|--------|--------|
C|--------|--------|--------|--------|--------|--------|--------|--------|--------|
G|--------|--------|--------|--------|--------|--------|--------|--------|--------|
D|--------|--------|--------|--------|--------|--------|--------|--------|--------|
A|--------|--------|--------|--------|--------|--------|--------|--------|--------|


D|--------|--------|--------|--------|--------|--------|--------|--------|--------|
A|--------|--------|--------|--------|--------|--------|--------|--------|--------|
F|--------|--------|--------|--------|--------|--------|--------|--------|--------|
C|--------|--------|--------|--------|--------|--------|--------|--------|--------|
G|--------|--------|--------|--------|--------|--------|--------|--------|--------|
D|--------|--------|--------|--------|--------|--------|--------|--------|--------|
A|--------|--------|--------|--------|--------|--------|--------|--------|--------|


D|--------|--------|--------|
A|--------|--------|--------|
F|--------|--------|--------|
C|--------|--------|--------|
G|--------|--------|--------|
D|--------|--------|--------|
A|--------|--------|--------|





Track 5: Distortion 1

D|--------|--------|--------|--------|--------|--------|--------|--------|--------|
A|--------|--------|--------|--------|--------|--------|--------|--------|--------|
F|--------|--------|--------|--------|--------|--------|--------|--------|--------|
C|--------|--------|--------|--------|--------|--------|--------|--------|--------|
G|--------|--------|--------|--------|--------|--------|--------|--------|--------|
D|--------|--------|--------|--------|--------|--------|--------|--------|--------|
A|--------|--------|--------|--------|--------|--------|--------|--------|--------|


D|--------|--------|--------|--------|--------|--------|--------|--------|--------|
A|--------|--------|--------|--------|--------|--------|--------|--------|--------|
F|--------|--------|--------|--------|--------|--------|--------|--------|--------|
C|--------|--------|--------|--------|--------|--------|--------|--------|--------|
G|--------|--------|--------|--------|--------|--------|--------|--------|--------|
D|--------|--------|--------|--------|--------|--------|--------|--------|--------|
A|--------|--------|--------|--------|--------|--------|--------|--------|--------|


D|--------|--------|--------|--------|--------|--------|--------|--------|--------|
A|--------|--------|--------|--------|--------|--------|--------|--------|--------|
F|--------|--------|--------|--------|--------|--------|--------|--------|--------|
C|--------|--------|--------|--------|--------|--------|--------|--------|--------|
G|--------|--------|--------|--------|--------|--------|--------|--------|--------|
D|--------|--------|--------|--------|--------|--------|--------|--------|--------|
A|--------|--------|--------|--------|--------|--------|--------|--------|--------|


D|--------|--------|--------|--------|--------|--------|--------|--------|--------|
A|--------|--------|--------|--------|--------|--------|--------|--------|--------|
F|--------|--------|--------|--------|--------|--------|--------|--------|--------|
C|--------|--------|--------|--------|--------|--------|--------|--------|--------|
G|--------|--------|--------|--------|--------|--------|--------|--------|--------|
D|--------|--------|--------|--------|--------|--------|--------|--------|--------|
A|--------|--------|--------|--------|--------|--------|--------|--------|--------|


D|--------|--------|--------|--------|--------|--------|--------|--------|--------|
A|--------|--------|--------|--------|--------|--------|--------|--------|--------|
F|--------|--------|--------|--------|--------|--------|--------|--------|--------|
C|--------|--------|--------|--------|--------|--------|--------|--------|--------|
G|--------|--------|--------|--------|--------|--------|--------|--------|--------|
D|--------|--------|--------|--------|--------|--------|--------|--------|--------|
A|--------|--------|--------|--------|--------|--------|--------|--------|--------|


D|--------|--------|--------|--------|--------|--------|--------|--------|--------|
A|--------|--------|--------|--------|--------|--------|--------|--------|--------|
F|--------|--------|--------|--------|--------|--------|--------|--------|--------|
C|--------|--------|--------|--------|--------|--------|--------|--------|--------|
G|--------|--------|--------|--------|--------|--------|--------|--------|--------|
D|--------|--------|--------|--------|--------|--------|--------|--------|--------|
A|--------|--------|--------|--------|--------|--------|--------|--------|--------|


D|--------|--------|--------|--------|--------|--------|--------|--------|--------|
A|--------|--------|--------|--------|--------|--------|--------|--------|--------|
F|--------|--------|--------|--------|--------|--------|--------|--------|--------|
C|--------|--------|--------|--------|--------|--------|--------|--------|--------|
G|--------|--------|--------|--------|--------|--------|--------|--------|--------|
D|--------|--------|--------|--------|--------|--------|--------|--------|--------|
A|--------|--------|--------|--------|--------|--------|--------|--------|--------|


D|--------|--------|--------|--------|--------|--------|--------|--------|--------|
A|--------|--------|--------|--------|--------|--------|--------|--------|--------|
F|--------|--------|--------|--------|--------|--------|--------|--------|--------|
C|--------|--------|--------|--------|--------|--------|--------|--------|--------|
G|--------|--------|--------|--------|--------|--------|--------|--------|--------|
D|--------|--------|--------|--------|--------|--------|--------|--------|--------|
A|--------|--------|--------|--------|--------|--------|--------|--------|--------|


D|--------|--------|--------|--------|--------|--------|--------|--------|--------|
A|--------|--------|--------|--------|--------|--------|--------|--------|--------|
F|--------|--------|--------|--------|--------|--------|--------|--------|--------|
C|--------|--------|--------|--------|--------|--------|--------|--------|--------|
G|--------|--------|--------|--------|--------|--------|--------|--------|--------|
D|--------|--------|--------|--------|--------|--------|--------|--------|--------|
A|--------|--------|--------|--------|--------|--------|--------|--------|--------|


D|--------|--------|--------|--------|--------|--------|--------|--------|--------|
A|--------|--------|--------|--------|--------|--------|--------|--------|--------|
F|--------|--------|--------|--------|--------|--------|--------|--------|--------|
C|--------|--------|--------|--------|--------|--------|--------|--------|--------|
G|--------|--------|--------|--------|--------|--------|--------|--------|--------|
D|--------|--------|--------|--------|--------|--------|--------|--------|--------|
A|--------|--------|--------|--------|--------|--------|--------|--------|--------|


D|--------|--------|--------|--------|--------|--------|--------|--------|--------|
A|--------|--------|--------|--------|--------|--------|--------|--------|--------|
F|--------|--------|--------|--------|--------|--------|--------|--------|--------|
C|--------|--------|--------|--------|--------|--------|--------|--------|--------|
G|--------|--------|--------|--------|--------|--------|--------|--------|--------|
D|--------|--------|--------|--------|--------|--------|--------|--------|--------|
A|--------|--------|--------|--------|--------|--------|--------|--------|--------|


D|--------|--------|--------|--------|--------|--------|--------|--------|--------|
A|--------|--------|--------|--------|--------|--------|--------|--------|--------|
F|--------|--------|--------|--------|--------|--------|--------|--------|--------|
C|--------|--------|--------|--------|--------|--------|--------|--------|--------|
G|--------|--------|--------|--------|--------|--------|--------|--------|--------|
D|--------|--------|--------|--------|--------|--------|--------|--------|--------|
A|--------|--------|--------|--------|--------|--------|--------|--------|--------|


D|--------|--------|--------|--------|--------|--------|--------|--------|--------|
A|--------|--------|--------|--------|--------|--------|--------|--------|--------|
F|--------|--------|--------|--------|--------|--------|--------|--------|--------|
C|--------|--------|--------|--------|--------|--------|--------|--------|--------|
G|--------|--------|--------|--------|--------|--------|--------|--------|--------|
D|--------|--------|--------|--------|--------|--------|--------|--------|--------|
A|--------|--------|--------|--------|--------|--------|--------|--------|--------|


D|--------|--------|--------|--------|--------|--------|--------|--------|--------|
A|--------|--------|--------|--------|--------|--------|--------|--------|--------|
F|--------|--------|--------|--------|--------|--------|--------|--------|--------|
C|--------|--------|--------|--------|--------|--------|--------|--------|--------|
G|--------|--------|--------|--------|--------|--------|--------|--------|--------|
D|--------|--------|--------|--------|--------|--------|--------|--------|--------|
A|--------|--------|--------|--------|--------|--------|--------|--------|--------|


D|--------|--------|--------|--------|--------|--------|--------|--------|--------|
A|--------|--------|--------|--------|--------|--------|--------|--------|--------|
F|--------|--------|--------|--------|--------|--------|--------|--------|--------|
C|--------|--------|--------|--------|--------|--------|--------|--------|--------|
G|--------|--------|--------|--------|--------|--------|--------|--------|--------|
D|--------|--------|--------|--------|--------|--------|--------|--------|--------|
A|--------|--------|--------|--------|--------|--------|--------|--------|--------|


D|-------------10--|------9-----10----|-------10----9----|-----10----7-----10--|------9-----10----|
A|-------8---------|------------------|-10---------------|-----------7---------|------7-----------|
F|-------7---------|------7-----------|-9-----------9----|-----------7---------|------7-----------|
C|-------9---------|------9-----------|-11----------11---|-----------9---------|------9-----------|
G|-------10--------|------10----------|-12----------12---|---------------------|------------------|
D|-----------------|------------------|------------------|---------------------|------------------|
A|-----------------|------------------|------------------|---------------------|------------------|


D|-12----14----9----|-----10----------10--|------9-----10----|-12----14----9----|-----10----0-----|
A|-------------7----|-----------8---------|------------------|------------------|-----------0-----|
F|-11----------7----|-----------7---------|------7-----------|-9-----------9----|-----------------|
C|-12----------9----|-----------9---------|------9-----------|-11----------11---|-----------2-----|
G|-14---------------|-----------10--------|------10----------|-12----------12---|-----------2-----|
D|------------------|---------------------|------------------|------------------|-----------0-----|
A|------------------|---------------------|------------------|------------------|-----------------|


D|------12-----|--------|--------|--------|--------|--------|--------|--------|--------|
A|------12-----|--------|--------|--------|--------|--------|--------|--------|--------|
F|-------------|--------|--------|--------|--------|--------|--------|--------|--------|
C|------14-----|--------|--------|--------|--------|--------|--------|--------|--------|
G|------14-----|--------|--------|--------|--------|--------|--------|--------|--------|
D|------12-----|--------|--------|--------|--------|--------|--------|--------|--------|
A|-------------|--------|--------|--------|--------|--------|--------|--------|--------|


D|--------|--------|--------|--------|--------|--------|--------|--------|--------|
A|--------|--------|--------|--------|--------|--------|--------|--------|--------|
F|--------|--------|--------|--------|--------|--------|--------|--------|--------|
C|--------|--------|--------|--------|--------|--------|--------|--------|--------|
G|--------|--------|--------|--------|--------|--------|--------|--------|--------|
D|--------|--------|--------|--------|--------|--------|--------|--------|--------|
A|--------|--------|--------|--------|--------|--------|--------|--------|--------|


D|--------|--------|--------|--------|--------|--------|--------|--------|--------|
A|--------|--------|--------|--------|--------|--------|--------|--------|--------|
F|--------|--------|--------|--------|--------|--------|--------|--------|--------|
C|--------|--------|--------|--------|--------|--------|--------|--------|--------|
G|--------|--------|--------|--------|--------|--------|--------|--------|--------|
D|--------|--------|--------|--------|--------|--------|--------|--------|--------|
A|--------|--------|--------|--------|--------|--------|--------|--------|--------|


D|--------|--------|--------|--------|--------|--------|--------|--------|--------|
A|--------|--------|--------|--------|--------|--------|--------|--------|--------|
F|--------|--------|--------|--------|--------|--------|--------|--------|--------|
C|--------|--------|--------|--------|--------|--------|--------|--------|--------|
G|--------|--------|--------|--------|--------|--------|--------|--------|--------|
D|--------|--------|--------|--------|--------|--------|--------|--------|--------|
A|--------|--------|--------|--------|--------|--------|--------|--------|--------|


D|--------|--------|--------|--------|--------|--------|--------|--------|--------|
A|--------|--------|--------|--------|--------|--------|--------|--------|--------|
F|--------|--------|--------|--------|--------|--------|--------|--------|--------|
C|--------|--------|--------|--------|--------|--------|--------|--------|--------|
G|--------|--------|--------|--------|--------|--------|--------|--------|--------|
D|--------|--------|--------|--------|--------|--------|--------|--------|--------|
A|--------|--------|--------|--------|--------|--------|--------|--------|--------|


D|--------|--------|--------|--------|--------|--------|--------|--------|--------|
A|--------|--------|--------|--------|--------|--------|--------|--------|--------|
F|--------|--------|--------|--------|--------|--------|--------|--------|--------|
C|--------|--------|--------|--------|--------|--------|--------|--------|--------|
G|--------|--------|--------|--------|--------|--------|--------|--------|--------|
D|--------|--------|--------|--------|--------|--------|--------|--------|--------|
A|--------|--------|--------|--------|--------|--------|--------|--------|--------|


D|--------|--------|--------|--------|--------|--------|--------|--------|--------|
A|--------|--------|--------|--------|--------|--------|--------|--------|--------|
F|--------|--------|--------|--------|--------|--------|--------|--------|--------|
C|--------|--------|--------|--------|--------|--------|--------|--------|--------|
G|--------|--------|--------|--------|--------|--------|--------|--------|--------|
D|--------|--------|--------|--------|--------|--------|--------|--------|--------|
A|--------|--------|--------|--------|--------|--------|--------|--------|--------|


D|--------|--------|--------|--------|--------|--------|--------|--------|--------|
A|--------|--------|--------|--------|--------|--------|--------|--------|--------|
F|--------|--------|--------|--------|--------|--------|--------|--------|--------|
C|--------|--------|--------|--------|--------|--------|--------|--------|--------|
G|--------|--------|--------|--------|--------|--------|--------|--------|--------|
D|--------|--------|--------|--------|--------|--------|--------|--------|--------|
A|--------|--------|--------|--------|--------|--------|--------|--------|--------|


D|--------|--------|--------|--------|--------|--------|--------|--------|--------|
A|--------|--------|--------|--------|--------|--------|--------|--------|--------|
F|--------|--------|--------|--------|--------|--------|--------|--------|--------|
C|--------|--------|--------|--------|--------|--------|--------|--------|--------|
G|--------|--------|--------|--------|--------|--------|--------|--------|--------|
D|--------|--------|--------|--------|--------|--------|--------|--------|--------|
A|--------|--------|--------|--------|--------|--------|--------|--------|--------|


D|--------|--------|--------|--------|--------|--------|--------|--------|--------|
A|--------|--------|--------|--------|--------|--------|--------|--------|--------|
F|--------|--------|--------|--------|--------|--------|--------|--------|--------|
C|--------|--------|--------|--------|--------|--------|--------|--------|--------|
G|--------|--------|--------|--------|--------|--------|--------|--------|--------|
D|--------|--------|--------|--------|--------|--------|--------|--------|--------|
A|--------|--------|--------|--------|--------|--------|--------|--------|--------|


D|--------|--------|--------|--------|--------|--------|--------|--------|--------|
A|--------|--------|--------|--------|--------|--------|--------|--------|--------|
F|--------|--------|--------|--------|--------|--------|--------|--------|--------|
C|--------|--------|--------|--------|--------|--------|--------|--------|--------|
G|--------|--------|--------|--------|--------|--------|--------|--------|--------|
D|--------|--------|--------|--------|--------|--------|--------|--------|--------|
A|--------|--------|--------|--------|--------|--------|--------|--------|--------|


D|--------|--------|--------|--------|--------|--------|--------|--------|--------|
A|--------|--------|--------|--------|--------|--------|--------|--------|--------|
F|--------|--------|--------|--------|--------|--------|--------|--------|--------|
C|--------|--------|--------|--------|--------|--------|--------|--------|--------|
G|--------|--------|--------|--------|--------|--------|--------|--------|--------|
D|--------|--------|--------|--------|--------|--------|--------|--------|--------|
A|--------|--------|--------|--------|--------|--------|--------|--------|--------|


D|--------|--------|--------|--------|--------|--------|--------|--------|--------|
A|--------|--------|--------|--------|--------|--------|--------|--------|--------|
F|--------|--------|--------|--------|--------|--------|--------|--------|--------|
C|--------|--------|--------|--------|--------|--------|--------|--------|--------|
G|--------|--------|--------|--------|--------|--------|--------|--------|--------|
D|--------|--------|--------|--------|--------|--------|--------|--------|--------|
A|--------|--------|--------|--------|--------|--------|--------|--------|--------|


D|--------|--------|--------|--------|--------|--------|--------|--------|--------|
A|--------|--------|--------|--------|--------|--------|--------|--------|--------|
F|--------|--------|--------|--------|--------|--------|--------|--------|--------|
C|--------|--------|--------|--------|--------|--------|--------|--------|--------|
G|--------|--------|--------|--------|--------|--------|--------|--------|--------|
D|--------|--------|--------|--------|--------|--------|--------|--------|--------|
A|--------|--------|--------|--------|--------|--------|--------|--------|--------|


D|--------|--------|--------|--------|--------|--------|--------|--------|--------|
A|--------|--------|--------|--------|--------|--------|--------|--------|--------|
F|--------|--------|--------|--------|--------|--------|--------|--------|--------|
C|--------|--------|--------|--------|--------|--------|--------|--------|--------|
G|--------|--------|--------|--------|--------|--------|--------|--------|--------|
D|--------|--------|--------|--------|--------|--------|--------|--------|--------|
A|--------|--------|--------|--------|--------|--------|--------|--------|--------|


D|--------|--------|--------|--------|--------|--------|--------|--------|--------|
A|--------|--------|--------|--------|--------|--------|--------|--------|--------|
F|--------|--------|--------|--------|--------|--------|--------|--------|--------|
C|--------|--------|--------|--------|--------|--------|--------|--------|--------|
G|--------|--------|--------|--------|--------|--------|--------|--------|--------|
D|--------|--------|--------|--------|--------|--------|--------|--------|--------|
A|--------|--------|--------|--------|--------|--------|--------|--------|--------|


D|--------|--------|--------|--------|--------|--------|--------|--------|--------|
A|--------|--------|--------|--------|--------|--------|--------|--------|--------|
F|--------|--------|--------|--------|--------|--------|--------|--------|--------|
C|--------|--------|--------|--------|--------|--------|--------|--------|--------|
G|--------|--------|--------|--------|--------|--------|--------|--------|--------|
D|--------|--------|--------|--------|--------|--------|--------|--------|--------|
A|--------|--------|--------|--------|--------|--------|--------|--------|--------|


D|--------|--------|--------|
A|--------|--------|--------|
F|--------|--------|--------|
C|--------|--------|--------|
G|--------|--------|--------|
D|--------|--------|--------|
A|--------|--------|--------|





Track 6: Distortion 2

D|--------|--------|--------|--------|--------|--------|--------|--------|--------|
A|--------|--------|--------|--------|--------|--------|--------|--------|--------|
F|--------|--------|--------|--------|--------|--------|--------|--------|--------|
C|--------|--------|--------|--------|--------|--------|--------|--------|--------|
G|--------|--------|--------|--------|--------|--------|--------|--------|--------|
D|--------|--------|--------|--------|--------|--------|--------|--------|--------|
A|--------|--------|--------|--------|--------|--------|--------|--------|--------|


D|--------|--------|--------|--------|--------|--------|--------|--------|--------|
A|--------|--------|--------|--------|--------|--------|--------|--------|--------|
F|--------|--------|--------|--------|--------|--------|--------|--------|--------|
C|--------|--------|--------|--------|--------|--------|--------|--------|--------|
G|--------|--------|--------|--------|--------|--------|--------|--------|--------|
D|--------|--------|--------|--------|--------|--------|--------|--------|--------|
A|--------|--------|--------|--------|--------|--------|--------|--------|--------|


D|--------|--------|--------|--------|--------|--------|--------|--------|--------|
A|--------|--------|--------|--------|--------|--------|--------|--------|--------|
F|--------|--------|--------|--------|--------|--------|--------|--------|--------|
C|--------|--------|--------|--------|--------|--------|--------|--------|--------|
G|--------|--------|--------|--------|--------|--------|--------|--------|--------|
D|--------|--------|--------|--------|--------|--------|--------|--------|--------|
A|--------|--------|--------|--------|--------|--------|--------|--------|--------|


D|--------|--------|--------|--------|--------|--------|--------|--------|--------|
A|--------|--------|--------|--------|--------|--------|--------|--------|--------|
F|--------|--------|--------|--------|--------|--------|--------|--------|--------|
C|--------|--------|--------|--------|--------|--------|--------|--------|--------|
G|--------|--------|--------|--------|--------|--------|--------|--------|--------|
D|--------|--------|--------|--------|--------|--------|--------|--------|--------|
A|--------|--------|--------|--------|--------|--------|--------|--------|--------|


D|--------|--------|--------|--------|--------|--------|--------|--------|--------|
A|--------|--------|--------|--------|--------|--------|--------|--------|--------|
F|--------|--------|--------|--------|--------|--------|--------|--------|--------|
C|--------|--------|--------|--------|--------|--------|--------|--------|--------|
G|--------|--------|--------|--------|--------|--------|--------|--------|--------|
D|--------|--------|--------|--------|--------|--------|--------|--------|--------|
A|--------|--------|--------|--------|--------|--------|--------|--------|--------|


D|--------|--------|--------|--------|--------|--------|--------|--------|--------|
A|--------|--------|--------|--------|--------|--------|--------|--------|--------|
F|--------|--------|--------|--------|--------|--------|--------|--------|--------|
C|--------|--------|--------|--------|--------|--------|--------|--------|--------|
G|--------|--------|--------|--------|--------|--------|--------|--------|--------|
D|--------|--------|--------|--------|--------|--------|--------|--------|--------|
A|--------|--------|--------|--------|--------|--------|--------|--------|--------|


D|--------|--------|--------|--------|--------|--------|--------|--------|--------|
A|--------|--------|--------|--------|--------|--------|--------|--------|--------|
F|--------|--------|--------|--------|--------|--------|--------|--------|--------|
C|--------|--------|--------|--------|--------|--------|--------|--------|--------|
G|--------|--------|--------|--------|--------|--------|--------|--------|--------|
D|--------|--------|--------|--------|--------|--------|--------|--------|--------|
A|--------|--------|--------|--------|--------|--------|--------|--------|--------|


D|--------|--------|--------|--------|--------|--------|--------|--------|--------|
A|--------|--------|--------|--------|--------|--------|--------|--------|--------|
F|--------|--------|--------|--------|--------|--------|--------|--------|--------|
C|--------|--------|--------|--------|--------|--------|--------|--------|--------|
G|--------|--------|--------|--------|--------|--------|--------|--------|--------|
D|--------|--------|--------|--------|--------|--------|--------|--------|--------|
A|--------|--------|--------|--------|--------|--------|--------|--------|--------|


D|--------|--------|--------|--------|--------|--------|--------|--------|--------|
A|--------|--------|--------|--------|--------|--------|--------|--------|--------|
F|--------|--------|--------|--------|--------|--------|--------|--------|--------|
C|--------|--------|--------|--------|--------|--------|--------|--------|--------|
G|--------|--------|--------|--------|--------|--------|--------|--------|--------|
D|--------|--------|--------|--------|--------|--------|--------|--------|--------|
A|--------|--------|--------|--------|--------|--------|--------|--------|--------|


D|--------|--------|--------|--------|--------|--------|--------|--------|--------|
A|--------|--------|--------|--------|--------|--------|--------|--------|--------|
F|--------|--------|--------|--------|--------|--------|--------|--------|--------|
C|--------|--------|--------|--------|--------|--------|--------|--------|--------|
G|--------|--------|--------|--------|--------|--------|--------|--------|--------|
D|--------|--------|--------|--------|--------|--------|--------|--------|--------|
A|--------|--------|--------|--------|--------|--------|--------|--------|--------|


D|--------|--------|--------|--------|--------|--------|--------|--------|--------|
A|--------|--------|--------|--------|--------|--------|--------|--------|--------|
F|--------|--------|--------|--------|--------|--------|--------|--------|--------|
C|--------|--------|--------|--------|--------|--------|--------|--------|--------|
G|--------|--------|--------|--------|--------|--------|--------|--------|--------|
D|--------|--------|--------|--------|--------|--------|--------|--------|--------|
A|--------|--------|--------|--------|--------|--------|--------|--------|--------|


D|--------|--------|--------|--------|--------|--------|--------|--------|--------|
A|--------|--------|--------|--------|--------|--------|--------|--------|--------|
F|--------|--------|--------|--------|--------|--------|--------|--------|--------|
C|--------|--------|--------|--------|--------|--------|--------|--------|--------|
G|--------|--------|--------|--------|--------|--------|--------|--------|--------|
D|--------|--------|--------|--------|--------|--------|--------|--------|--------|
A|--------|--------|--------|--------|--------|--------|--------|--------|--------|


D|--------|--------|--------|--------|--------|--------|--------|--------|--------|
A|--------|--------|--------|--------|--------|--------|--------|--------|--------|
F|--------|--------|--------|--------|--------|--------|--------|--------|--------|
C|--------|--------|--------|--------|--------|--------|--------|--------|--------|
G|--------|--------|--------|--------|--------|--------|--------|--------|--------|
D|--------|--------|--------|--------|--------|--------|--------|--------|--------|
A|--------|--------|--------|--------|--------|--------|--------|--------|--------|


D|--------|--------|--------|--------|--------|--------|--------|--------|--------|
A|--------|--------|--------|--------|--------|--------|--------|--------|--------|
F|--------|--------|--------|--------|--------|--------|--------|--------|--------|
C|--------|--------|--------|--------|--------|--------|--------|--------|--------|
G|--------|--------|--------|--------|--------|--------|--------|--------|--------|
D|--------|--------|--------|--------|--------|--------|--------|--------|--------|
A|--------|--------|--------|--------|--------|--------|--------|--------|--------|


D|--------|--------|--------|--------|--------|--------|--------|--------|--------|
A|--------|--------|--------|--------|--------|--------|--------|--------|--------|
F|--------|--------|--------|--------|--------|--------|--------|--------|--------|
C|--------|--------|--------|--------|--------|--------|--------|--------|--------|
G|--------|--------|--------|--------|--------|--------|--------|--------|--------|
D|--------|--------|--------|--------|--------|--------|--------|--------|--------|
A|--------|--------|--------|--------|--------|--------|--------|--------|--------|


D|--------|--------|--------|--------|--------|--------|--------|--------|--------|
A|--------|--------|--------|--------|--------|--------|--------|--------|--------|
F|--------|--------|--------|--------|--------|--------|--------|--------|--------|
C|--------|--------|--------|--------|--------|--------|--------|--------|--------|
G|--------|--------|--------|--------|--------|--------|--------|--------|--------|
D|--------|--------|--------|--------|--------|--------|--------|--------|--------|
A|--------|--------|--------|--------|--------|--------|--------|--------|--------|


D|--------|--------|--------|--------|--------|--------|--------|--------|--------|
A|--------|--------|--------|--------|--------|--------|--------|--------|--------|
F|--------|--------|--------|--------|--------|--------|--------|--------|--------|
C|--------|--------|--------|--------|--------|--------|--------|--------|--------|
G|--------|--------|--------|--------|--------|--------|--------|--------|--------|
D|--------|--------|--------|--------|--------|--------|--------|--------|--------|
A|--------|--------|--------|--------|--------|--------|--------|--------|--------|


D|--------|--------|--------|--------|--------|--------|--------|--------|--------|
A|--------|--------|--------|--------|--------|--------|--------|--------|--------|
F|--------|--------|--------|--------|--------|--------|--------|--------|--------|
C|--------|--------|--------|--------|--------|--------|--------|--------|--------|
G|--------|--------|--------|--------|--------|--------|--------|--------|--------|
D|--------|--------|--------|--------|--------|--------|--------|--------|--------|
A|--------|--------|--------|--------|--------|--------|--------|--------|--------|


D|--------|--------|--------|--------|--------|--------|--------|--------|--------|
A|--------|--------|--------|--------|--------|--------|--------|--------|--------|
F|--------|--------|--------|--------|--------|--------|--------|--------|--------|
C|--------|--------|--------|--------|--------|--------|--------|--------|--------|
G|--------|--------|--------|--------|--------|--------|--------|--------|--------|
D|--------|--------|--------|--------|--------|--------|--------|--------|--------|
A|--------|--------|--------|--------|--------|--------|--------|--------|--------|


D|--------|--------|--------|--------|--------|--------|--------|--------|--------|
A|--------|--------|--------|--------|--------|--------|--------|--------|--------|
F|--------|--------|--------|--------|--------|--------|--------|--------|--------|
C|--------|--------|--------|--------|--------|--------|--------|--------|--------|
G|--------|--------|--------|--------|--------|--------|--------|--------|--------|
D|--------|--------|--------|--------|--------|--------|--------|--------|--------|
A|--------|--------|--------|--------|--------|--------|--------|--------|--------|


D|--------|--------|--------|--------|--------|--------|--------|--------|--------|
A|--------|--------|--------|--------|--------|--------|--------|--------|--------|
F|--------|--------|--------|--------|--------|--------|--------|--------|--------|
C|--------|--------|--------|--------|--------|--------|--------|--------|--------|
G|--------|--------|--------|--------|--------|--------|--------|--------|--------|
D|--------|--------|--------|--------|--------|--------|--------|--------|--------|
A|--------|--------|--------|--------|--------|--------|--------|--------|--------|


D|--------|--------|--------|--------|--------------------|-------------|-------------|
A|--------|--------|--------|--------|--------------------|------12-----|--------10---|
F|--------|--------|--------|--------|-------9---11--11---|-------------|-9-----------|
C|--------|--------|--------|--------|--------------------|-------------|-------------|
G|--------|--------|--------|--------|--------------------|-------------|-------------|
D|--------|--------|--------|--------|--------------------|-------------|-------------|
A|--------|--------|--------|--------|--------------------|-------------|-------------|


D|-----------------|--------|-----------------|--------------------|-------------|
A|-----------------|--------|-----------------|--------------------|-12----------|
F|-------9---11----|-11-----|-11----11---7----|-9----9---11--11----|--------9----|
C|-----------------|--------|-----------------|--------------------|-------------|
G|-----------------|--------|-----------------|--------------------|-------------|
D|-----------------|--------|-----------------|--------------------|-------------|
A|-----------------|--------|-----------------|--------------------|-------------|


D|-------------|---------------------|-------------|-----------10---12---|-14-----17---|
A|-------10----|---------------------|-------------|---------------------|-------------|
F|-------------|------9----9----9----|--------9----|------9--------------|-------------|
C|-------------|---------------------|-------------|---------------------|-------------|
G|-------------|---------------------|-------------|---------------------|-------------|
D|-------------|---------------------|-------------|---------------------|-------------|
A|-------------|---------------------|-------------|---------------------|-------------|


D|------17--17--------|------17-----|-14-----|---------------------------------|--------------12---14---|
A|--------------17----|-------------|--------|-14--14--14--14--14--14--14--14--|-14--14--15-------------|
F|--------------------|-------------|--------|---------------------------------|------------------------|
C|--------------------|-------------|--------|---------------------------------|------------------------|
G|--------------------|-------------|--------|---------------------------------|------------------------|
D|--------------------|-------------|--------|---------------------------------|------------------------|
A|--------------------|-------------|--------|---------------------------------|------------------------|


D|-------17----|-17--17---------|-17-----17---|-------17----|------17--17--14--12--14--12--|
A|-------------|---------17-----|-------------|-------------|------------------------------|
F|-------------|----------------|-------------|-------------|------------------------------|
C|-------------|----------------|-------------|-------------|------------------------------|
G|-------------|----------------|-------------|-------------|------------------------------|
D|-------------|----------------|-------------|-------------|------------------------------|
A|-------------|----------------|-------------|-------------|------------------------------|


D|-12----12--------|--------|--------|--------|--------|--------|--------|--------|
A|-----------------|--------|--------|--------|--------|--------|--------|--------|
F|-----------------|--------|--------|--------|--------|--------|--------|--------|
C|-----------------|--------|--------|--------|--------|--------|--------|--------|
G|-----------------|--------|--------|--------|--------|--------|--------|--------|
D|-----------------|--------|--------|--------|--------|--------|--------|--------|
A|-----------------|--------|--------|--------|--------|--------|--------|--------|


D|--------|--------|--------|--------|--------|--------|--------|--------|--------|
A|--------|--------|--------|--------|--------|--------|--------|--------|--------|
F|--------|--------|--------|--------|--------|--------|--------|--------|--------|
C|--------|--------|--------|--------|--------|--------|--------|--------|--------|
G|--------|--------|--------|--------|--------|--------|--------|--------|--------|
D|--------|--------|--------|--------|--------|--------|--------|--------|--------|
A|--------|--------|--------|--------|--------|--------|--------|--------|--------|


D|--------|--------|--------|--------|--------|--------|--------|--------|--------|
A|--------|--------|--------|--------|--------|--------|--------|--------|--------|
F|--------|--------|--------|--------|--------|--------|--------|--------|--------|
C|--------|--------|--------|--------|--------|--------|--------|--------|--------|
G|--------|--------|--------|--------|--------|--------|--------|--------|--------|
D|--------|--------|--------|--------|--------|--------|--------|--------|--------|
A|--------|--------|--------|--------|--------|--------|--------|--------|--------|


D|--------|--------|--------|--------|--------|--------|--------|--------|--------|
A|--------|--------|--------|--------|--------|--------|--------|--------|--------|
F|--------|--------|--------|--------|--------|--------|--------|--------|--------|
C|--------|--------|--------|--------|--------|--------|--------|--------|--------|
G|--------|--------|--------|--------|--------|--------|--------|--------|--------|
D|--------|--------|--------|--------|--------|--------|--------|--------|--------|
A|--------|--------|--------|--------|--------|--------|--------|--------|--------|


D|--------|----------------|-------------|-------------|----------------|-------------|
A|--------|----------------|-------12----|-------------|-10-------------|-------------|
F|--------|--------9---11--|-11----------|------9------|--------9---11--|------11-----|
C|--------|----------------|-------------|-------------|----------------|-------------|
G|--------|----------------|-------------|-------------|----------------|-------------|
D|--------|----------------|-------------|-------------|----------------|-------------|
A|--------|----------------|-------------|-------------|----------------|-------------|


D|-------------|------------------------|-------------|-------------|-------------|
A|-------------|------------------------|-------12----|-------------|-10----------|
F|------11-----|------7----9----9---11--|-11----------|------9------|--------9----|
C|-------------|------------------------|-------------|-------------|-------------|
G|-------------|------------------------|-------------|-------------|-------------|
D|-------------|------------------------|-------------|-------------|-------------|
A|-------------|------------------------|-------------|-------------|-------------|


D|-------------|-------------|------10---12---14---|-------17----|-17--17---------|
A|-------------|-------------|---------------------|-------------|---------17-----|
F|-9----9------|------9------|---------------------|-------------|----------------|
C|-------------|-------------|---------------------|-------------|----------------|
G|-------------|-------------|---------------------|-------------|----------------|
D|-------------|-------------|---------------------|-------------|----------------|
A|-------------|-------------|---------------------|-------------|----------------|


D|-17-----14---|--------|------14-----|-----------14---12---|-------------|-------------|
A|-------------|--------|-------------|------15-------------|-------12----|------12-----|
F|-------------|--------|-------------|---------------------|-------------|-------------|
C|-------------|--------|-------------|---------------------|-------------|-------------|
G|-------------|--------|-------------|---------------------|-------------|-------------|
D|-------------|--------|-------------|---------------------|-------------|-------------|
A|-------------|--------|-------------|---------------------|-------------|-------------|


D|-----------14---12---|-------------|-------------10--------|-------------|--------|
A|------15-------------|-------12----|-12--10--12------12----|-12----------|--------|
F|---------------------|-------------|-----------------------|-------------|--------|
C|---------------------|-------------|-----------------------|-------------|--------|
G|---------------------|-------------|-----------------------|-------------|--------|
D|---------------------|-------------|-----------------------|-------------|--------|
A|---------------------|-------------|-----------------------|-------------|--------|


D|--------|--------|--------|--------|--------|--------|--------|--------|--------|
A|--------|--------|--------|--------|--------|--------|--------|--------|--------|
F|--------|--------|--------|--------|--------|--------|--------|--------|--------|
C|--------|--------|--------|--------|--------|--------|--------|--------|--------|
G|--------|--------|--------|--------|--------|--------|--------|--------|--------|
D|--------|--------|--------|--------|--------|--------|--------|--------|--------|
A|--------|--------|--------|--------|--------|--------|--------|--------|--------|


D|--------|--------|--------|--------|--------|--------|--------|--------|--------|
A|--------|--------|--------|--------|--------|--------|--------|--------|--------|
F|--------|--------|--------|--------|--------|--------|--------|--------|--------|
C|--------|--------|--------|--------|--------|--------|--------|--------|--------|
G|--------|--------|--------|--------|--------|--------|--------|--------|--------|
D|--------|--------|--------|--------|--------|--------|--------|--------|--------|
A|--------|--------|--------|--------|--------|--------|--------|--------|--------|


D|--------|--------|--------|--------|--------|
A|--------|--------|--------|--------|--------|
F|--------|--------|--------|--------|--------|
C|--------|--------|--------|--------|--------|
G|--------|--------|--------|--------|--------|
D|--------|--------|--------|--------|--------|
A|--------|--------|--------|--------|--------|





Track 7: Distortion 1

D|--------|--------|--------|--------|--------|--------|--------|--------|--------|
A|--------|--------|--------|--------|--------|--------|--------|--------|--------|
F|--------|--------|--------|--------|--------|--------|--------|--------|--------|
C|--------|--------|--------|--------|--------|--------|--------|--------|--------|
G|--------|--------|--------|--------|--------|--------|--------|--------|--------|
D|--------|--------|--------|--------|--------|--------|--------|--------|--------|
A|--------|--------|--------|--------|--------|--------|--------|--------|--------|


D|--------|--------|--------|--------|--------|--------|--------|--------|--------|
A|--------|--------|--------|--------|--------|--------|--------|--------|--------|
F|--------|--------|--------|--------|--------|--------|--------|--------|--------|
C|--------|--------|--------|--------|--------|--------|--------|--------|--------|
G|--------|--------|--------|--------|--------|--------|--------|--------|--------|
D|--------|--------|--------|--------|--------|--------|--------|--------|--------|
A|--------|--------|--------|--------|--------|--------|--------|--------|--------|


D|--------|--------|--------|--------|--------|--------|--------|--------|--------|
A|--------|--------|--------|--------|--------|--------|--------|--------|--------|
F|--------|--------|--------|--------|--------|--------|--------|--------|--------|
C|--------|--------|--------|--------|--------|--------|--------|--------|--------|
G|--------|--------|--------|--------|--------|--------|--------|--------|--------|
D|--------|--------|--------|--------|--------|--------|--------|--------|--------|
A|--------|--------|--------|--------|--------|--------|--------|--------|--------|


D|--------|--------|--------|--------|--------|--------|--------|--------|--------|
A|--------|--------|--------|--------|--------|--------|--------|--------|--------|
F|--------|--------|--------|--------|--------|--------|--------|--------|--------|
C|--------|--------|--------|--------|--------|--------|--------|--------|--------|
G|--------|--------|--------|--------|--------|--------|--------|--------|--------|
D|--------|--------|--------|--------|--------|--------|--------|--------|--------|
A|--------|--------|--------|--------|--------|--------|--------|--------|--------|


D|--------|--------|--------|--------|--------|--------|--------|--------|--------|
A|--------|--------|--------|--------|--------|--------|--------|--------|--------|
F|--------|--------|--------|--------|--------|--------|--------|--------|--------|
C|--------|--------|--------|--------|--------|--------|--------|--------|--------|
G|--------|--------|--------|--------|--------|--------|--------|--------|--------|
D|--------|--------|--------|--------|--------|--------|--------|--------|--------|
A|--------|--------|--------|--------|--------|--------|--------|--------|--------|


D|--------|--------|--------|--------|--------|--------|--------|--------|--------|
A|--------|--------|--------|--------|--------|--------|--------|--------|--------|
F|--------|--------|--------|--------|--------|--------|--------|--------|--------|
C|--------|--------|--------|--------|--------|--------|--------|--------|--------|
G|--------|--------|--------|--------|--------|--------|--------|--------|--------|
D|--------|--------|--------|--------|--------|--------|--------|--------|--------|
A|--------|--------|--------|--------|--------|--------|--------|--------|--------|


D|--------|--------|--------|--------|--------|--------|--------|--------|--------|
A|--------|--------|--------|--------|--------|--------|--------|--------|--------|
F|--------|--------|--------|--------|--------|--------|--------|--------|--------|
C|--------|--------|--------|--------|--------|--------|--------|--------|--------|
G|--------|--------|--------|--------|--------|--------|--------|--------|--------|
D|--------|--------|--------|--------|--------|--------|--------|--------|--------|
A|--------|--------|--------|--------|--------|--------|--------|--------|--------|


D|--------|--------|--------|--------|--------|--------|--------|--------|--------|
A|--------|--------|--------|--------|--------|--------|--------|--------|--------|
F|--------|--------|--------|--------|--------|--------|--------|--------|--------|
C|--------|--------|--------|--------|--------|--------|--------|--------|--------|
G|--------|--------|--------|--------|--------|--------|--------|--------|--------|
D|--------|--------|--------|--------|--------|--------|--------|--------|--------|
A|--------|--------|--------|--------|--------|--------|--------|--------|--------|


D|--------|--------|--------|--------|--------|--------|--------|--------|--------|
A|--------|--------|--------|--------|--------|--------|--------|--------|--------|
F|--------|--------|--------|--------|--------|--------|--------|--------|--------|
C|--------|--------|--------|--------|--------|--------|--------|--------|--------|
G|--------|--------|--------|--------|--------|--------|--------|--------|--------|
D|--------|--------|--------|--------|--------|--------|--------|--------|--------|
A|--------|--------|--------|--------|--------|--------|--------|--------|--------|


D|--------|--------|--------|--------|--------|--------|--------|--------|--------|
A|--------|--------|--------|--------|--------|--------|--------|--------|--------|
F|--------|--------|--------|--------|--------|--------|--------|--------|--------|
C|--------|--------|--------|--------|--------|--------|--------|--------|--------|
G|--------|--------|--------|--------|--------|--------|--------|--------|--------|
D|--------|--------|--------|--------|--------|--------|--------|--------|--------|
A|--------|--------|--------|--------|--------|--------|--------|--------|--------|


D|--------|--------|--------|--------|--------|--------|--------|--------|--------|
A|--------|--------|--------|--------|--------|--------|--------|--------|--------|
F|--------|--------|--------|--------|--------|--------|--------|--------|--------|
C|--------|--------|--------|--------|--------|--------|--------|--------|--------|
G|--------|--------|--------|--------|--------|--------|--------|--------|--------|
D|--------|--------|--------|--------|--------|--------|--------|--------|--------|
A|--------|--------|--------|--------|--------|--------|--------|--------|--------|


D|--------|--------|--------|--------|--------|--------|--------|--------|--------|
A|--------|--------|--------|--------|--------|--------|--------|--------|--------|
F|--------|--------|--------|--------|--------|--------|--------|--------|--------|
C|--------|--------|--------|--------|--------|--------|--------|--------|--------|
G|--------|--------|--------|--------|--------|--------|--------|--------|--------|
D|--------|--------|--------|--------|--------|--------|--------|--------|--------|
A|--------|--------|--------|--------|--------|--------|--------|--------|--------|


D|--------|--------|--------|--------|--------|--------|--------|--------|--------|
A|--------|--------|--------|--------|--------|--------|--------|--------|--------|
F|--------|--------|--------|--------|--------|--------|--------|--------|--------|
C|--------|--------|--------|--------|--------|--------|--------|--------|--------|
G|--------|--------|--------|--------|--------|--------|--------|--------|--------|
D|--------|--------|--------|--------|--------|--------|--------|--------|--------|
A|--------|--------|--------|--------|--------|--------|--------|--------|--------|


D|--------|--------|--------|--------|--------|--------|--------|--------|--------|
A|--------|--------|--------|--------|--------|--------|--------|--------|--------|
F|--------|--------|--------|--------|--------|--------|--------|--------|--------|
C|--------|--------|--------|--------|--------|--------|--------|--------|--------|
G|--------|--------|--------|--------|--------|--------|--------|--------|--------|
D|--------|--------|--------|--------|--------|--------|--------|--------|--------|
A|--------|--------|--------|--------|--------|--------|--------|--------|--------|


D|--------|--------|--------|--------|--------|--------|--------|--------|--------|
A|--------|--------|--------|--------|--------|--------|--------|--------|--------|
F|--------|--------|--------|--------|--------|--------|--------|--------|--------|
C|--------|--------|--------|--------|--------|--------|--------|--------|--------|
G|--------|--------|--------|--------|--------|--------|--------|--------|--------|
D|--------|--------|--------|--------|--------|--------|--------|--------|--------|
A|--------|--------|--------|--------|--------|--------|--------|--------|--------|


D|--------|--------|--------|--------|--------|--------|--------|--------|--------|
A|--------|--------|--------|--------|--------|--------|--------|--------|--------|
F|--------|--------|--------|--------|--------|--------|--------|--------|--------|
C|--------|--------|--------|--------|--------|--------|--------|--------|--------|
G|--------|--------|--------|--------|--------|--------|--------|--------|--------|
D|--------|--------|--------|--------|--------|--------|--------|--------|--------|
A|--------|--------|--------|--------|--------|--------|--------|--------|--------|


D|--------|--------|--------|--------|--------|--------|--------|--------|--------|
A|--------|--------|--------|--------|--------|--------|--------|--------|--------|
F|--------|--------|--------|--------|--------|--------|--------|--------|--------|
C|--------|--------|--------|--------|--------|--------|--------|--------|--------|
G|--------|--------|--------|--------|--------|--------|--------|--------|--------|
D|--------|--------|--------|--------|--------|--------|--------|--------|--------|
A|--------|--------|--------|--------|--------|--------|--------|--------|--------|


D|--------|--------|--------|--------|--------|--------|--------|--------|--------|
A|--------|--------|--------|--------|--------|--------|--------|--------|--------|
F|--------|--------|--------|--------|--------|--------|--------|--------|--------|
C|--------|--------|--------|--------|--------|--------|--------|--------|--------|
G|--------|--------|--------|--------|--------|--------|--------|--------|--------|
D|--------|--------|--------|--------|--------|--------|--------|--------|--------|
A|--------|--------|--------|--------|--------|--------|--------|--------|--------|


D|--------|--------|--------|--------|--------|--------|--------|--------|--------|
A|--------|--------|--------|--------|--------|--------|--------|--------|--------|
F|--------|--------|--------|--------|--------|--------|--------|--------|--------|
C|--------|--------|--------|--------|--------|--------|--------|--------|--------|
G|--------|--------|--------|--------|--------|--------|--------|--------|--------|
D|--------|--------|--------|--------|--------|--------|--------|--------|--------|
A|--------|--------|--------|--------|--------|--------|--------|--------|--------|


D|--------|--------|--------|--------|--------|--------|--------|--------|--------|
A|--------|--------|--------|--------|--------|--------|--------|--------|--------|
F|--------|--------|--------|--------|--------|--------|--------|--------|--------|
C|--------|--------|--------|--------|--------|--------|--------|--------|--------|
G|--------|--------|--------|--------|--------|--------|--------|--------|--------|
D|--------|--------|--------|--------|--------|--------|--------|--------|--------|
A|--------|--------|--------|--------|--------|--------|--------|--------|--------|


D|--------|--------|--------|--------|--------|--------|--------|--------|--------|
A|--------|--------|--------|--------|--------|--------|--------|--------|--------|
F|--------|--------|--------|--------|--------|--------|--------|--------|--------|
C|--------|--------|--------|--------|--------|--------|--------|--------|--------|
G|--------|--------|--------|--------|--------|--------|--------|--------|--------|
D|--------|--------|--------|--------|--------|--------|--------|--------|--------|
A|--------|--------|--------|--------|--------|--------|--------|--------|--------|


D|--------|--------|--------|--------|--------|--------|--------|--------|--------|
A|--------|--------|--------|--------|--------|--------|--------|--------|--------|
F|--------|--------|--------|--------|--------|--------|--------|--------|--------|
C|--------|--------|--------|--------|--------|--------|--------|--------|--------|
G|--------|--------|--------|--------|--------|--------|--------|--------|--------|
D|--------|--------|--------|--------|--------|--------|--------|--------|--------|
A|--------|--------|--------|--------|--------|--------|--------|--------|--------|


D|--------|--------|--------|--------|--------|--------|--------|--------|--------|
A|--------|--------|--------|--------|--------|--------|--------|--------|--------|
F|--------|--------|--------|--------|--------|--------|--------|--------|--------|
C|--------|--------|--------|--------|--------|--------|--------|--------|--------|
G|--------|--------|--------|--------|--------|--------|--------|--------|--------|
D|--------|--------|--------|--------|--------|--------|--------|--------|--------|
A|--------|--------|--------|--------|--------|--------|--------|--------|--------|


D|--------|--------|--------|--------|--------|--------|--------|--------|--------|
A|--------|--------|--------|--------|--------|--------|--------|--------|--------|
F|--------|--------|--------|--------|--------|--------|--------|--------|--------|
C|--------|--------|--------|--------|--------|--------|--------|--------|--------|
G|--------|--------|--------|--------|--------|--------|--------|--------|--------|
D|--------|--------|--------|--------|--------|--------|--------|--------|--------|
A|--------|--------|--------|--------|--------|--------|--------|--------|--------|


D|-------------|-----10----9-----10--|------------10----|-9-----10---------|-----10----9-----10--|
A|--------8----|---------------------|------10----------|-------------12---|---------------------|
F|-------------|-----7-----6-----7---|------------7-----|-6-----7----------|-----7-----6-----7---|
C|--------5----|---------------------|------7-----------|-------------9----|---------------------|
G|--------5----|---------------------|------7-----------|-------------9----|---------------------|
D|--------3----|---------------------|------5-----------|-------------7----|---------------------|
A|-------------|---------------------|------------------|------------------|---------------------|


D|------12----14----|-9-----10---------|-----10----9-----10--|------12----14----|-9-----10----7----|
A|------------------|-------------8----|---------------------|------------------|-------------9----|
F|------9-----11----|-6-----7----------|-----7-----6-----7---|------9-----11----|-6-----7-----9----|
C|------------------|-------------5----|---------------------|------------------|-------------9----|
G|------9-----------|-------------5----|---------------------|------7-----------|-------------7----|
D|------7-----------|-------------3----|---------------------|------5-----------|------------------|
A|------------------|------------------|---------------------|------------------|------------------|


D|-------12----|--------|--------|--------|--------|--------|--------|--------|--------|
A|-------12----|--------|--------|--------|--------|--------|--------|--------|--------|
F|-------13----|--------|--------|--------|--------|--------|--------|--------|--------|
C|-------14----|--------|--------|--------|--------|--------|--------|--------|--------|
G|-------14----|--------|--------|--------|--------|--------|--------|--------|--------|
D|-------12----|--------|--------|--------|--------|--------|--------|--------|--------|
A|-------------|--------|--------|--------|--------|--------|--------|--------|--------|


D|--------|--------|--------|--------|--------|--------|--------|--------|--------|
A|--------|--------|--------|--------|--------|--------|--------|--------|--------|
F|--------|--------|--------|--------|--------|--------|--------|--------|--------|
C|--------|--------|--------|--------|--------|--------|--------|--------|--------|
G|--------|--------|--------|--------|--------|--------|--------|--------|--------|
D|--------|--------|--------|--------|--------|--------|--------|--------|--------|
A|--------|--------|--------|--------|--------|--------|--------|--------|--------|


D|--------|--------|--------|--------|--------|--------|--------|--------|--------|
A|--------|--------|--------|--------|--------|--------|--------|--------|--------|
F|--------|--------|--------|--------|--------|--------|--------|--------|--------|
C|--------|--------|--------|--------|--------|--------|--------|--------|--------|
G|--------|--------|--------|--------|--------|--------|--------|--------|--------|
D|--------|--------|--------|--------|--------|--------|--------|--------|--------|
A|--------|--------|--------|--------|--------|--------|--------|--------|--------|


D|--------|--------|--------|--------|--------|--------|--------|--------|--------|
A|--------|--------|--------|--------|--------|--------|--------|--------|--------|
F|--------|--------|--------|--------|--------|--------|--------|--------|--------|
C|--------|--------|--------|--------|--------|--------|--------|--------|--------|
G|--------|--------|--------|--------|--------|--------|--------|--------|--------|
D|--------|--------|--------|--------|--------|--------|--------|--------|--------|
A|--------|--------|--------|--------|--------|--------|--------|--------|--------|


D|--------|--------|--------|--------|--------|--------|--------|--------|--------|
A|--------|--------|--------|--------|--------|--------|--------|--------|--------|
F|--------|--------|--------|--------|--------|--------|--------|--------|--------|
C|--------|--------|--------|--------|--------|--------|--------|--------|--------|
G|--------|--------|--------|--------|--------|--------|--------|--------|--------|
D|--------|--------|--------|--------|--------|--------|--------|--------|--------|
A|--------|--------|--------|--------|--------|--------|--------|--------|--------|


D|--------|--------|--------|--------|--------|--------|--------|--------|--------|
A|--------|--------|--------|--------|--------|--------|--------|--------|--------|
F|--------|--------|--------|--------|--------|--------|--------|--------|--------|
C|--------|--------|--------|--------|--------|--------|--------|--------|--------|
G|--------|--------|--------|--------|--------|--------|--------|--------|--------|
D|--------|--------|--------|--------|--------|--------|--------|--------|--------|
A|--------|--------|--------|--------|--------|--------|--------|--------|--------|


D|--------|--------|--------|--------|--------|--------|--------|--------|--------|
A|--------|--------|--------|--------|--------|--------|--------|--------|--------|
F|--------|--------|--------|--------|--------|--------|--------|--------|--------|
C|--------|--------|--------|--------|--------|--------|--------|--------|--------|
G|--------|--------|--------|--------|--------|--------|--------|--------|--------|
D|--------|--------|--------|--------|--------|--------|--------|--------|--------|
A|--------|--------|--------|--------|--------|--------|--------|--------|--------|


D|--------|--------|--------|--------|--------|--------|--------|--------|--------|
A|--------|--------|--------|--------|--------|--------|--------|--------|--------|
F|--------|--------|--------|--------|--------|--------|--------|--------|--------|
C|--------|--------|--------|--------|--------|--------|--------|--------|--------|
G|--------|--------|--------|--------|--------|--------|--------|--------|--------|
D|--------|--------|--------|--------|--------|--------|--------|--------|--------|
A|--------|--------|--------|--------|--------|--------|--------|--------|--------|


D|--------|--------|--------|
A|--------|--------|--------|
F|--------|--------|--------|
C|--------|--------|--------|
G|--------|--------|--------|
D|--------|--------|--------|
A|--------|--------|--------|





Track 8: Keyboard (Strings)

D|--------|--------|--------|--------|--------|--------|--------|--------|--------|
A|--------|--------|--------|--------|--------|--------|--------|--------|--------|
F|--------|--------|--------|--------|--------|--------|--------|--------|--------|
C|--------|--------|--------|--------|--------|--------|--------|--------|--------|
G|--------|--------|--------|--------|--------|--------|--------|--------|--------|
D|--------|--------|--------|--------|--------|--------|--------|--------|--------|
A|--------|--------|--------|--------|--------|--------|--------|--------|--------|


D|--------|--------|--------|--------|--------|--------|--------|--------|--------|
A|--------|--------|--------|--------|--------|--------|--------|--------|--------|
F|--------|--------|--------|--------|--------|--------|--------|--------|--------|
C|--------|--------|--------|--------|--------|--------|--------|--------|--------|
G|--------|--------|--------|--------|--------|--------|--------|--------|--------|
D|--------|--------|--------|--------|--------|--------|--------|--------|--------|
A|--------|--------|--------|--------|--------|--------|--------|--------|--------|


D|--------|--------|--------|--------|--------|--------|--------|--------|--------|
A|--------|--------|--------|--------|--------|--------|--------|--------|--------|
F|--------|--------|--------|--------|--------|--------|--------|--------|--------|
C|--------|--------|--------|--------|--------|--------|--------|--------|--------|
G|--------|--------|--------|--------|--------|--------|--------|--------|--------|
D|--------|--------|--------|--------|--------|--------|--------|--------|--------|
A|--------|--------|--------|--------|--------|--------|--------|--------|--------|


D|--------|--------|--------|--------|--------|--------|--------|--------|--------|
A|--------|--------|--------|--------|--------|--------|--------|--------|--------|
F|--------|--------|--------|--------|--------|--------|--------|--------|--------|
C|--------|--------|--------|--------|--------|--------|--------|--------|--------|
G|--------|--------|--------|--------|--------|--------|--------|--------|--------|
D|--------|--------|--------|--------|--------|--------|--------|--------|--------|
A|--------|--------|--------|--------|--------|--------|--------|--------|--------|


D|--------|--------|--------|--------|--------|--------|--------|--------|--------|
A|--------|--------|--------|--------|--------|--------|--------|--------|--------|
F|--------|--------|--------|--------|--------|--------|--------|--------|--------|
C|--------|--------|--------|--------|--------|--------|--------|--------|--------|
G|--------|--------|--------|--------|--------|--------|--------|--------|--------|
D|--------|--------|--------|--------|--------|--------|--------|--------|--------|
A|--------|--------|--------|--------|--------|--------|--------|--------|--------|


D|--------|--------|--------|--------|--------|--------|--------|--------|--------|
A|--------|--------|--------|--------|--------|--------|--------|--------|--------|
F|--------|--------|--------|--------|--------|--------|--------|--------|--------|
C|--------|--------|--------|--------|--------|--------|--------|--------|--------|
G|--------|--------|--------|--------|--------|--------|--------|--------|--------|
D|--------|--------|--------|--------|--------|--------|--------|--------|--------|
A|--------|--------|--------|--------|--------|--------|--------|--------|--------|


D|--------|--------|--------|--------|--------|--------|--------|--------|--------|
A|--------|--------|--------|--------|--------|--------|--------|--------|--------|
F|--------|--------|--------|--------|--------|--------|--------|--------|--------|
C|--------|--------|--------|--------|--------|--------|--------|--------|--------|
G|--------|--------|--------|--------|--------|--------|--------|--------|--------|
D|--------|--------|--------|--------|--------|--------|--------|--------|--------|
A|--------|--------|--------|--------|--------|--------|--------|--------|--------|


D|--------|--------|--------|--------|--------|--------|--------|--------|--------|
A|--------|--------|--------|--------|--------|--------|--------|--------|--------|
F|--------|--------|--------|--------|--------|--------|--------|--------|--------|
C|--------|--------|--------|--------|--------|--------|--------|--------|--------|
G|--------|--------|--------|--------|--------|--------|--------|--------|--------|
D|--------|--------|--------|--------|--------|--------|--------|--------|--------|
A|--------|--------|--------|--------|--------|--------|--------|--------|--------|


D|--------|--------|--------|--------|--------|--------|--------|--------|--------|
A|--------|--------|--------|--------|--------|--------|--------|--------|--------|
F|--------|--------|--------|--------|--------|--------|--------|--------|--------|
C|--------|--------|--------|--------|--------|--------|--------|--------|--------|
G|--------|--------|--------|--------|--------|--------|--------|--------|--------|
D|--------|--------|--------|--------|--------|--------|--------|--------|--------|
A|--------|--------|--------|--------|--------|--------|--------|--------|--------|


D|--------|--------|--------|--------|--------|--------|--------|--------|--------|
A|--------|--------|--------|--------|--------|--------|--------|--------|--------|
F|--------|--------|--------|--------|--------|--------|--------|--------|--------|
C|--------|--------|--------|--------|--------|--------|--------|--------|--------|
G|--------|--------|--------|--------|--------|--------|--------|--------|--------|
D|--------|--------|--------|--------|--------|--------|--------|--------|--------|
A|--------|--------|--------|--------|--------|--------|--------|--------|--------|


D|--------|--------|--------|--------|--------|--------|--------|--------|--------|
A|--------|--------|--------|--------|--------|--------|--------|--------|--------|
F|--------|--------|--------|--------|--------|--------|--------|--------|--------|
C|--------|--------|--------|--------|--------|--------|--------|--------|--------|
G|--------|--------|--------|--------|--------|--------|--------|--------|--------|
D|--------|--------|--------|--------|--------|--------|--------|--------|--------|
A|--------|--------|--------|--------|--------|--------|--------|--------|--------|


D|--------|--------|--------|--------|--------|--------|--------|--------|--------|
A|--------|--------|--------|--------|--------|--------|--------|--------|--------|
F|--------|--------|--------|--------|--------|--------|--------|--------|--------|
C|--------|--------|--------|--------|--------|--------|--------|--------|--------|
G|--------|--------|--------|--------|--------|--------|--------|--------|--------|
D|--------|--------|--------|--------|--------|--------|--------|--------|--------|
A|--------|--------|--------|--------|--------|--------|--------|--------|--------|


D|--------|--------|--------|--------|--------|--------|--------|--------|--------|
A|--------|--------|--------|--------|--------|--------|--------|--------|--------|
F|--------|--------|--------|--------|--------|--------|--------|--------|--------|
C|--------|--------|--------|--------|--------|--------|--------|--------|--------|
G|--------|--------|--------|--------|--------|--------|--------|--------|--------|
D|--------|--------|--------|--------|--------|--------|--------|--------|--------|
A|--------|--------|--------|--------|--------|--------|--------|--------|--------|


D|--------|--------|--------|--------|--------|--------|--------|--------|--------|
A|--------|--------|--------|--------|--------|--------|--------|--------|--------|
F|--------|--------|--------|--------|--------|--------|--------|--------|--------|
C|--------|--------|--------|--------|--------|--------|--------|--------|--------|
G|--------|--------|--------|--------|--------|--------|--------|--------|--------|
D|--------|--------|--------|--------|--------|--------|--------|--------|--------|
A|--------|--------|--------|--------|--------|--------|--------|--------|--------|


D|--------|--------|--------|--------|--------|--------|--------|--------|--------|
A|--------|--------|--------|--------|--------|--------|--------|--------|--------|
F|--------|--------|--------|--------|--------|--------|--------|--------|--------|
C|--------|--------|--------|--------|--------|--------|--------|--------|--------|
G|--------|--------|--------|--------|--------|--------|--------|--------|--------|
D|--------|--------|--------|--------|--------|--------|--------|--------|--------|
A|--------|--------|--------|--------|--------|--------|--------|--------|--------|


D|--------|--------|--------|--------|--------|--------|--------|--------|--------|
A|--------|--------|--------|--------|--------|--------|--------|--------|--------|
F|--------|--------|--------|--------|--------|--------|--------|--------|--------|
C|--------|--------|--------|--------|--------|--------|--------|--------|--------|
G|--------|--------|--------|--------|--------|--------|--------|--------|--------|
D|--------|--------|--------|--------|--------|--------|--------|--------|--------|
A|--------|--------|--------|--------|--------|--------|--------|--------|--------|


D|--------|--------|--------|--------|--------|--------|--------|--------|--------|
A|--------|--------|--------|--------|--------|--------|--------|--------|--------|
F|--------|--------|--------|--------|--------|--------|--------|--------|--------|
C|--------|--------|--------|--------|--------|--------|--------|--------|--------|
G|--------|--------|--------|--------|--------|--------|--------|--------|--------|
D|--------|--------|--------|--------|--------|--------|--------|--------|--------|
A|--------|--------|--------|--------|--------|--------|--------|--------|--------|


D|--------|--------|--------|--------|--------|--------|--------|--------|--------|
A|--------|--------|--------|--------|--------|--------|--------|--------|--------|
F|--------|--------|--------|--------|--------|--------|--------|--------|--------|
C|--------|--------|--------|--------|--------|--------|--------|--------|--------|
G|--------|--------|--------|--------|--------|--------|--------|--------|--------|
D|--------|--------|--------|--------|--------|--------|--------|--------|--------|
A|--------|--------|--------|--------|--------|--------|--------|--------|--------|


D|--------|--------|--------|--------|--------|--------|--------|--------|--------|
A|--------|--------|--------|--------|--------|--------|--------|--------|--------|
F|--------|--------|--------|--------|--------|--------|--------|--------|--------|
C|--------|--------|--------|--------|--------|--------|--------|--------|--------|
G|--------|--------|--------|--------|--------|--------|--------|--------|--------|
D|--------|--------|--------|--------|--------|--------|--------|--------|--------|
A|--------|--------|--------|--------|--------|--------|--------|--------|--------|


D|--------|--------|--------|--------|--------|--------|--------|--------|--------|
A|--------|--------|--------|--------|--------|--------|--------|--------|--------|
F|--------|--------|--------|--------|--------|--------|--------|--------|--------|
C|--------|--------|--------|--------|--------|--------|--------|--------|--------|
G|--------|--------|--------|--------|--------|--------|--------|--------|--------|
D|--------|--------|--------|--------|--------|--------|--------|--------|--------|
A|--------|--------|--------|--------|--------|--------|--------|--------|--------|


D|--------|--------|--------|--------|--------|--------|--------|--------|--------|
A|--------|--------|--------|--------|--------|--------|--------|--------|--------|
F|--------|--------|--------|--------|--------|--------|--------|--------|--------|
C|--------|--------|--------|--------|--------|--------|--------|--------|--------|
G|--------|--------|--------|--------|--------|--------|--------|--------|--------|
D|--------|--------|--------|--------|--------|--------|--------|--------|--------|
A|--------|--------|--------|--------|--------|--------|--------|--------|--------|


D|--------|--------|--------|--------|--------|--------|--------|--------|--------|
A|--------|--------|--------|--------|--------|--------|--------|--------|--------|
F|--------|--------|--------|--------|--------|--------|--------|--------|--------|
C|--------|--------|--------|--------|--------|--------|--------|--------|--------|
G|--------|--------|--------|--------|--------|--------|--------|--------|--------|
D|--------|--------|--------|--------|--------|--------|--------|--------|--------|
A|--------|--------|--------|--------|--------|--------|--------|--------|--------|


D|--------|--------|--------|--------|--------|--------|--------|--------|--------|
A|--------|--------|--------|--------|--------|--------|--------|--------|--------|
F|--------|--------|--------|--------|--------|--------|--------|--------|--------|
C|--------|--------|--------|--------|--------|--------|--------|--------|--------|
G|--------|--------|--------|--------|--------|--------|--------|--------|--------|
D|--------|--------|--------|--------|--------|--------|--------|--------|--------|
A|--------|--------|--------|--------|--------|--------|--------|--------|--------|


D|--------|--------|--------|--------|--------|--------|--------|--------|--------|
A|--------|--------|--------|--------|--------|--------|--------|--------|--------|
F|--------|--------|--------|--------|--------|--------|--------|--------|--------|
C|--------|--------|--------|--------|--------|--------|--------|--------|--------|
G|--------|--------|--------|--------|--------|--------|--------|--------|--------|
D|--------|--------|--------|--------|--------|--------|--------|--------|--------|
A|--------|--------|--------|--------|--------|--------|--------|--------|--------|


D|--------|--------|--------|--------|--------|--------|--------|--------|--------|
A|--------|--------|--------|--------|--------|--------|--------|--------|--------|
F|--------|--------|--------|--------|--------|--------|--------|--------|--------|
C|--------|--------|--------|--------|--------|--------|--------|--------|--------|
G|--------|--------|--------|--------|--------|--------|--------|--------|--------|
D|--------|--------|--------|--------|--------|--------|--------|--------|--------|
A|--------|--------|--------|--------|--------|--------|--------|--------|--------|


D|--------|--------|--------|--------|--------|--------|--------|--------|--------|
A|--------|--------|--------|--------|--------|--------|--------|--------|--------|
F|--------|--------|--------|--------|--------|--------|--------|--------|--------|
C|--------|--------|--------|--------|--------|--------|--------|--------|--------|
G|--------|--------|--------|--------|--------|--------|--------|--------|--------|
D|--------|--------|--------|--------|--------|--------|--------|--------|--------|
A|--------|--------|--------|--------|--------|--------|--------|--------|--------|


D|--------|--------|--------|--------|--------|--------|--------|--------|--------|
A|--------|--------|--------|--------|--------|--------|--------|--------|--------|
F|--------|--------|--------|--------|--------|--------|--------|--------|--------|
C|--------|--------|--------|--------|--------|--------|--------|--------|--------|
G|--------|--------|--------|--------|--------|--------|--------|--------|--------|
D|--------|--------|--------|--------|--------|--------|--------|--------|--------|
A|--------|--------|--------|--------|--------|--------|--------|--------|--------|


D|--------|--------|--------|--------|--------|--------|--------|--------|--------|
A|--------|--------|--------|--------|--------|--------|--------|--------|--------|
F|--------|--------|--------|--------|--------|--------|--------|--------|--------|
C|--------|--------|--------|--------|--------|--------|--------|--------|--------|
G|--------|--------|--------|--------|--------|--------|--------|--------|--------|
D|--------|--------|--------|--------|--------|--------|--------|--------|--------|
A|--------|--------|--------|--------|--------|--------|--------|--------|--------|


D|--------|--------|--------|--------|--------|--------|--------|--------|--------|
A|--------|--------|--------|--------|--------|--------|--------|--------|--------|
F|--------|--------|--------|--------|--------|--------|--------|--------|--------|
C|--------|--------|--------|--------|--------|--------|--------|--------|--------|
G|--------|--------|--------|--------|--------|--------|--------|--------|--------|
D|--------|--------|--------|--------|--------|--------|--------|--------|--------|
A|--------|--------|--------|--------|--------|--------|--------|--------|--------|


D|--------|--------|--------|--------|--------|--------|--------|--------|--------|
A|--------|--------|--------|--------|--------|--------|--------|--------|--------|
F|--------|--------|--------|--------|--------|--------|--------|--------|--------|
C|--------|--------|--------|--------|--------|--------|--------|--------|--------|
G|--------|--------|--------|--------|--------|--------|--------|--------|--------|
D|--------|--------|--------|--------|--------|--------|--------|--------|--------|
A|--------|--------|--------|--------|--------|--------|--------|--------|--------|


D|--------|--------|--------|--------|--------|--------|----------------|-----------------19--------------|
A|--------|--------|--------|--------|--------|--------|----------------|-----------------12--------------|
F|--------|--------|--------|--------|--------|--------|----------------|---------------------------------|
C|--------|--------|--------|--------|--------|--------|--------9---9---|-----9-------9---9---9-------9---|
G|--------|--------|--------|--------|--------|--------|----------------|---------------------------------|
D|--------|--------|--------|--------|--------|--------|--------7---7---|-----7-------7-------7-------7---|
A|--------|--------|--------|--------|--------|--------|----------------|---------------------------------|


D|---------------------------------|-17------------------------------|-----------------15--------------|
A|---------------------------------|-10------------------------------|-----------------8---------------|
F|---------------------------------|---------------------------------|---------------------------------|
C|-----9---9---9-------9-------9---|-7---9-------9-------9---9---9---|-----9-------9---5---9-------9---|
G|---------------------------------|---------------------------------|---------------------------------|
D|-----7---7---7-------7-------7---|-----7-------7-------7---7---7---|-----7-------7-------7-------7---|
A|---------------------------------|---------------------------------|---------------------------------|


D|---------------------------------|-14------------------------------|-----------------19--------------|
A|---------------------------------|-7-------------------------------|-----------------12--------------|
F|---------------------------------|---------------------11----------|---------------------------------|
C|-----9---9---9-------9-------9---|-4---9-------9---12------9---9---|-----9-------9---9---9-------9---|
G|---------------------------------|---------------------9-----------|---------------------------------|
D|-----7---7---7-------7-------7---|-----7-------7---10------7---7---|-----7-------7-------7-------7---|
A|---------------------------------|---------------------------------|---------------------------------|


D|---------------------------------|-17------------------------------|-----------------15--------------|
A|---------------------------------|-10------------------------------|-----------------8---------------|
F|---------------------------------|---------------------------------|---------------------------------|
C|-----9---9---9-------9-------9---|-7---9-------9-------9---9---9---|-----9-------9---5---9-------9---|
G|---------------------------------|---------------------------------|---------------------------------|
D|-----7---7---7-------7-------7---|-----7-------7-------7---7---7---|-----7-------7-------7-------7---|
A|---------------------------------|---------------------------------|---------------------------------|


D|---------------------------------|------------------------------------------|-------19--21--22--19--|
A|---------------------------------|------------------------------------------|-----------------------|
F|---------------------------------|-11-12-11-9-----------------9--11-12-11---|-----------------------|
C|-----9---9---9-------9-------9---|-------------12-11-9--11-12----------12---|-----------------------|
G|---------------------------------|-------------------------------------14---|-----------------------|
D|-----7---7---7-------7-------7---|------------------------------------------|-----------------------|
A|---------------------------------|------------------------------------------|-----------------------|


D|-------------|-17---21---17--------|-------19--21--22--19--|-------------|-21---24---21--------|
A|-------------|---------------------|-------8---10--12--8---|-------------|---------------------|
F|-------------|-6----9----6----7----|-----------------------|-------------|-11---14---11---11---|
C|------14-----|----------------9----|-----------------------|------14-----|----------------12---|
G|------16-----|----------------10---|-----------------------|------16-----|----------------14---|
D|------17-----|---------------------|-----------------------|------17-----|---------------------|
A|-------------|---------------------|-----------------------|-------------|---------------------|


D|-------22--24--26--22--|-------------|-21---24---21--------|-------22--24--26--22--|
A|-------12--14--15--12--|-------------|---------------------|-------12--14--15--12--|
F|-----------------------|-------------|-14---18---14---7----|-----------------------|
C|-----------------------|------14-----|----------------9----|-----------------------|
G|-----------------------|------16-----|----------------10---|-----------------------|
D|-----------------------|------17-----|---------------------|-----------------------|
A|-----------------------|-------------|---------------------|-----------------------|


D|-------------|-17---17---17--------|
A|-------------|-17---17---17--------|
F|-------------|-16---16---16--------|
C|------14-----|---------------------|
G|------16-----|---------------------|
D|------17-----|---------------------|
A|-------------|---------------------|





Track 9: Bass

A#|--------|--------|--------|--------|--------|--------|---------------------------------|
 F|--------|--------|--------|--------|--------|--------|---------------------------------|
 C|--------|--------|--------|--------|--------|--------|---------------------------------|
 G|--------|--------|--------|--------|--------|--------|---------------------------------|
 D|--------|--------|--------|--------|--------|--------|---------------------------------|
 A|--------|--------|--------|--------|--------|--------|-0---0---0---0---0---0---0---0---|


A#|---------------------------------|---------------------------------|---------------------------------|
 F|---------------------------------|---------------------------------|---------------------------------|
 C|---------------------------------|---------------------------------|---------------------------------|
 G|---------------------------------|---------------------------------|---------------------------------|
 D|---------------------------------|---------------------------------|-3---3---3---3---3---3---3---3---|
 A|-0---0---0---0---3---3---3---3---|-3---3---3---3---3---3---3---3---|---------------------------------|


A#|---------------------------------|---------------------------------|---------------------------------|
 F|---------------------------------|---------------------------------|---------------------------------|
 C|---------------------------------|---------------------------------|---------------------------------|
 G|---------------------------------|---------------------------------|---------------------------------|
 D|-3---3---3---3---3---3---3---3---|-3---3---5---5---5---5---5---5---|---------------------------------|
 A|---------------------------------|---------------------------------|-0---0---0---0---0---0---0---0---|


A#|---------------------------------|---------------------------------|---------------------------------|
 F|---------------------------------|---------------------------------|---------------------------------|
 C|---------------------------------|---------------------------------|---------------------------------|
 G|---------------------------------|---------------------------------|---------------------------------|
 D|---------------------------------|---------------------------------|-0---0---0---0---0---0---0---0---|
 A|-0---0---0---0---3---3---3---3---|-3---3---3---3---3---3---3---3---|---------------------------------|


A#|---------------------------------|---------------------------------|---------------------------------|
 F|---------------------------------|---------------------------------|---------------------------------|
 C|---------------------------------|---------------------------------|---------------------------------|
 G|---------------------------------|---------------------------------|---------------------------------|
 D|-0---0---0---0---0---0---0---0---|-0---0---2---2---2---2---2---2---|---------------------------------|
 A|---------------------------------|---------------------------------|-0---0---0---0---0---0---0---0---|


A#|---------------------------------|---------------------------------|---------------------------------|
 F|---------------------------------|---------------------------------|---------------------------------|
 C|---------------------------------|---------------------------------|---------------------------------|
 G|---------------------------------|---------------------------------|---------------------------------|
 D|---------------------------------|---------------------------------|-3---3---3---3---3---3---3---3---|
 A|-0---0---0---0---3---3---3---3---|-3---3---3---3---3---3---3---3---|---------------------------------|


A#|---------------------------------|---------------------------------|---------------------------------|
 F|---------------------------------|---------------------------------|---------------------------------|
 C|---------------------------------|---------------------------------|---------------------------------|
 G|---------------------------------|---------------------------------|---------------------------------|
 D|-3---3---3---3---3---3---3---3---|-3---3---5---5---5---5---5---5---|-0---0---0---0---0---0---0---0---|
 A|---------------------------------|---------------------------------|---------------------------------|


A#|---------------------------------|---------------------------------|---------------------------------|
 F|---------------------------------|---------------------------------|---------------------------------|
 C|---------------------------------|---------------------------------|---------------------------------|
 G|---------------------------------|---------------------------------|---------------------------------|
 D|-0---0---0---0---0---0---0---0---|-0---0---0---0---0---0---0---0---|-3---3---3---3---3---3---3---3---|
 A|---------------------------------|---------------------------------|---------------------------------|


A#|---------------------------------|--------------------|--------|-------------|--------|
 F|---------------------------------|--------------------|--------|-------------|--------|
 C|---------------------------------|--------------------|--------|-------------|--------|
 G|---------------------------------|--------------------|--------|-------------|--------|
 D|-3---3---3---3---3---3---3---3---|-3---3---5----------|-7------|-------7-----|--------|
 A|---------------------------------|--------------------|--------|-------------|--------|


A#|--------|-------------|--------|--------|--------|--------|--------|-------------|
 F|--------|-------------|--------|--------|--------|--------|--------|-------------|
 C|--------|-------------|--------|--------|--------|--------|--------|-------------|
 G|--------|-------------|--------|--------|--------|--------|--------|-------------|
 D|-7------|-------------|--------|--------|--------|--------|--------|-------------|
 A|--------|-------------|--------|--------|--------|--------|--------|-------------|


A#|-----------------|------------------------|------------------|------------------------|
 F|-----------------|------------------------|------------------|------------------------|
 C|-----------------|----------------7---9---|------------------|------7---9-------------|
 G|-----------------|------------------------|------------------|------------------------|
 D|-------7-----7---|------7----7------------|-7-----7-----7----|-7------------7-----7---|
 A|-----------------|------------------------|------------------|------------------------|


A#|------------------------|------------------|------------------|------------------------|
 F|------------------------|------------------|------------------|------------------------|
 C|------9---------7---9---|------------------|------------------|-----------7---9--------|
 G|------------------------|-------------5----|-7----------------|------------------------|
 D|-----------7------------|-7-----7----------|------7-----7-----|-7----7------------7----|
 A|------------------------|------------------|------------------|------------------------|


A#|-----------------|------------------|---------------------|---------------------|
 F|-----------------|------------------|---------------------|---------------------|
 C|-----------9-----|------------------|------5--------------|---------------------|
 G|-----------------|------------------|-5---------5---------|---------------------|
 D|-----7-----------|------3-----3-----|----------------3----|-----3-----5----5----|
 A|-----------------|------------------|---------------------|---------------------|


A#|------------------|------------------------|------------------------|------------------|
 F|------------------|------------------------|------------------------|------------------|
 C|------------------|------7---9-------------|----------------7---9---|-------------9----|
 G|------------------|------------------------|------------------------|------------------|
 D|-7-----7-----7----|-7------------7-----7---|------7----7------------|-7-----7----------|
 A|------------------|------------------------|------------------------|------------------|


A#|------------------------|---------------------|---------------------|---------------------|
 F|------------------------|---------------------|---------------------|---------------------|
 C|------7---9-------------|---------------------|---------------------|-7---9---------------|
 G|------------------------|------5----7---------|---------------------|---------------------|
 D|-7------------7-----7---|----------------7----|-----7-----7----7----|---------7-----7-----|
 A|------------------------|---------------------|---------------------|---------------------|


A#|-------------|---------------------|------------------|---------------------|------------------------------|
 F|-------------|---------------------|------------------|---------------------|------------------------------|
 C|-9-----------|----------------5----|------------------|---------------------|------------------------------|
 G|-------------|-----------5---------|-5----------------|---------------------|------------------------------|
 D|--------3----|-----3---------------|------3-----3-----|-5----5----5----3----|-3---3---3---3---3----3---3---|
 A|-------------|---------------------|------------------|---------------------|------------------------------|


A#|------------------------------|---------------------------|------------------------------|
 F|------------------------------|---------------------------|------------------------------|
 C|------------------------------|---------------------------|------------------------------|
 G|---------0----0---0---0---0---|-0----0---0---0---0---2----|-2---2---2---2---2----2---2---|
 D|-3---3------------------------|---------------------------|------------------------------|
 A|------------------------------|---------------------------|------------------------------|


A#|------------------------------|---------------------------|------------------------------|
 F|------------------------------|---------------------------|------------------------------|
 C|------------------------------|---------------------------|------------------------------|
 G|-2---2---2----2---2---2---2---|-2----2---2---2---2--------|------------------------------|
 D|------------------------------|----------------------3----|-3---3---3---3---3----3---3---|
 A|------------------------------|---------------------------|------------------------------|


A#|------------------------------|---------------------------|------------------------------|
 F|------------------------------|---------------------------|------------------------------|
 C|------------------------------|---------------------------|------------------------------|
 G|---------0----0---0---0---0---|-0----0---0---0---0--------|------------------------------|
 D|-3---3------------------------|----------------------0----|-0---0---0---0---0----0---0---|
 A|------------------------------|---------------------------|------------------------------|


A#|------------------------------|---------------------|---------------------------------|
 F|------------------------------|---------------------|---------------------------------|
 C|------------------------------|---------------------|---------------------------------|
 G|------------------------------|---------------------|---------------------------------|
 D|-0---0---0----0---0---0---0---|-0-------------------|---------------------------------|
 A|------------------------------|-------------0---0---|-0---0---0---0---0---0---0---0---|


A#|---------------------------------|---------------------------------|---------------------------------|
 F|---------------------------------|---------------------------------|---------------------------------|
 C|---------------------------------|---------------------------------|---------------------------------|
 G|---------------------------------|---------------------------------|---------------------------------|
 D|---------------------------------|-------------------------3---3---|-3---3---3---3---3---3---3---3---|
 A|-0---0---3---3---3---3---3---3---|-3---3---3---3---3---3-----------|---------------------------------|


A#|---------------------------------|---------------------------------|---------------------------------|
 F|---------------------------------|---------------------------------|---------------------------------|
 C|---------------------------------|---------------------------------|---------------------------------|
 G|---------------------------------|---------------------------------|---------------------------------|
 D|-3---3---3---3---3---3---3---3---|-5---5---5---5---5---5-----------|---------------------------------|
 A|---------------------------------|-------------------------0---0---|-0---0---0---0---0---0---0---0---|


A#|---------------------------------|---------------------------------|---------------------------------|
 F|---------------------------------|---------------------------------|---------------------------------|
 C|---------------------------------|---------------------------------|---------------------------------|
 G|---------------------------------|---------------------------------|---------------------------------|
 D|---------------------------------|-------------------------0---0---|-0---0---0---0---0---0---0---0---|
 A|-0---0---3---3---3---3---3---3---|-3---3---3---3---3---3-----------|---------------------------------|


A#|---------------------------------|---------------------------------|---------------------------------|
 F|---------------------------------|---------------------------------|---------------------------------|
 C|---------------------------------|---------------------------------|---------------------------------|
 G|---------------------------------|---------------------------------|---------------------------------|
 D|-0---0---0---0---0---0---0---0---|-2---2---2---2---2---2-----------|---------------------------------|
 A|---------------------------------|-------------------------0---0---|-0---0---0---0---0---0---0---0---|


A#|---------------------------------|---------------------------------|---------------------------------|
 F|---------------------------------|---------------------------------|---------------------------------|
 C|---------------------------------|---------------------------------|---------------------------------|
 G|---------------------------------|---------------------------------|---------------------------------|
 D|---------------------------------|-------------------------3---3---|-3---3---3---3---3---3---3---3---|
 A|-0---0---3---3---3---3---3---3---|-3---3---3---3---3---3-----------|---------------------------------|


A#|---------------------------------|---------------------------------|---------------------------------|
 F|---------------------------------|---------------------------------|---------------------------------|
 C|---------------------------------|---------------------------------|---------------------------------|
 G|---------------------------------|---------------------------------|---------------------------------|
 D|-3---3---3---3---3---3---3---3---|-5---5---5---5---5---5---0---0---|-0---0---0---0---0---0---0---0---|
 A|---------------------------------|---------------------------------|---------------------------------|


A#|---------------------------------|---------------------------------|---------------------------------|
 F|---------------------------------|---------------------------------|---------------------------------|
 C|---------------------------------|---------------------------------|---------------------------------|
 G|---------------------------------|---------------------------------|---------------------------------|
 D|-0---0---0---0---0---0---0---0---|-0---0---0---0---0---0---3---3---|-3---3---3---3---3---3---3---3---|
 A|---------------------------------|---------------------------------|---------------------------------|


A#|---------------------------------|-----------------|---------------------|---------------------|
 F|---------------------------------|-----------------|---------------------|---------------------|
 C|---------------------------------|-----------------|---------------------|-7---9---------------|
 G|---------------------------------|-----------------|---------------------|---------------------|
 D|-3---3---3---3---3---3---3---3---|-5----------7----|-----7-----7----7----|---------7-----7-----|
 A|---------------------------------|-----------------|---------------------|---------------------|


A#|------------------------|---------------------|---------------------|---------------------|
 F|------------------------|---------------------|---------------------|---------------------|
 C|-----------7---9--------|-----------9---------|-7---9---------------|---------------------|
 G|------------------------|---------------------|---------------------|-5----7--------------|
 D|-7----7------------7----|-----7----------7----|---------7-----7-----|-----------7-----7---|
 A|------------------------|---------------------|---------------------|---------------------|


A#|------------------------|------------------|-----------------|---------------------|
 F|------------------------|------------------|-----------------|---------------------|
 C|----------------7---9---|-------------9----|-----------------|-----------5---------|
 G|------------------------|------------------|-----------------|------5---------5----|
 D|------7----7------------|-7-----7----------|-------3-----3---|---------------------|
 A|------------------------|------------------|-----------------|---------------------|


A#|------------------|------------------|------------------------|---------------------|
 F|------------------|------------------|------------------------|---------------------|
 C|------------------|------------------|-9---------7---9--------|---------------------|
 G|------------------|------------------|------------------------|---------------------|
 D|-3-----3-----5----|-5----7-----7-----|------7------------7----|-----7-----7----7----|
 A|------------------|------------------|------------------------|---------------------|


A#|---------------------|------------------------|---------------------|------------------|
 F|---------------------|------------------------|---------------------|------------------|
 C|-7---9---------------|-9---------7---9--------|---------------------|-------------9----|
 G|---------------------|------------------------|-----------5----7----|------------------|
 D|---------7-----7-----|------7------------7----|-----7---------------|-7-----7----------|
 A|---------------------|------------------------|---------------------|------------------|


A#|------------------------|----------------|------------------|---------------------|
 F|------------------------|----------------|------------------|---------------------|
 C|------7---9-------------|---------9------|------------------|-5-------------------|
 G|------------------------|-----9----------|-------------5----|------5--------------|
 D|-7------------7-----7---|----------------|-3-----3----------|-----------3-----3---|
 A|------------------------|----------------|------------------|---------------------|


A#|---------------------|---------------------|---------------------|------------------------|
 F|---------------------|---------------------|---------------------|------------------------|
 C|---------------------|-----------9---------|-7---9---------------|-----------7---9--------|
 G|---------------------|---------------------|---------------------|------------------------|
 D|------5----5----7----|-----7----------7----|---------7-----7-----|-7----7------------7----|
 A|---------------------|---------------------|---------------------|------------------------|


A#|---------------------|---------------------|---------------------|------------------------|
 F|---------------------|---------------------|---------------------|------------------------|
 C|-----------9---------|-7---9---------------|---------------------|------9---------7---9---|
 G|---------------------|---------------------|-5----7--------------|------------------------|
 D|-----7----------7----|---------7-----7-----|-----------7-----7---|-----------7------------|
 A|---------------------|---------------------|---------------------|------------------------|


A#|---------------------|-----------------|---------------------|------------------|
 F|---------------------|-----------------|---------------------|------------------|
 C|----------------9----|-----------------|-----------5---------|------------------|
 G|------------9--------|-----------------|------5---------5----|------------------|
 D|-7-----7-------------|-------3-----3---|---------------------|-3-----3-----5----|
 A|---------------------|-----------------|---------------------|------------------|


A#|------------------------|------------------------------|---------------------------|
 F|------------------------|------------------------------|---------------------------|
 C|------------------------|------------------------------|---------------------------|
 G|------------------------|------------------------------|-0----0---0---0---0---0----|
 D|-5----5----3----3---3---|-3---3---3----3---3---3---3---|---------------------------|
 A|------------------------|------------------------------|---------------------------|


A#|------------------------------|------------------------------|---------------------------|
 F|------------------------------|------------------------------|---------------------------|
 C|------------------------------|------------------------------|---------------------------|
 G|-0---0---0---0---2----2---2---|-2---2---2----2---2---2---2---|-2----2---2---2---2---2----|
 D|------------------------------|------------------------------|---------------------------|
 A|------------------------------|------------------------------|---------------------------|


A#|------------------------------|------------------------------|---------------------------|
 F|------------------------------|------------------------------|---------------------------|
 C|------------------------------|------------------------------|---------------------------|
 G|-2---2---2---2----------------|------------------------------|-0----0---0---0---0---0----|
 D|-----------------3----3---3---|-3---3---3----3---3---3---3---|---------------------------|
 A|------------------------------|------------------------------|---------------------------|


A#|------------------------------|------------------------------|---------------------------|
 F|------------------------------|------------------------------|---------------------------|
 C|------------------------------|------------------------------|---------------------------|
 G|-0---0---0---0----------------|------------------------------|---------------------------|
 D|-----------------0----0---0---|-0---0---0----0---0---0---0---|-0----0---0---0---0---0----|
 A|------------------------------|------------------------------|---------------------------|


A#|---------------------------|---------------------------------|---------------------------------|
 F|---------------------------|---------------------------------|---------------------------------|
 C|---------------------------|---------------------------------|---------------------------------|
 G|---------------------------|---------------------------------|---------------------------------|
 D|---------------------------|---------------------------------|---------------------------------|
 A|-----------0---0---0---0---|-0---0---0---0---0---0---0---0---|-3---3---3---3---3---3---3---3---|


A#|---------------------------------|---------------------------------|---------------------------------|
 F|---------------------------------|---------------------------------|---------------------------------|
 C|---------------------------------|---------------------------------|---------------------------------|
 G|---------------------------------|---------------------------------|---------------------------------|
 D|-----------------3---3---3---3---|-3---3---3---3---3---3---3---3---|-3---3---3---3---3---3---5---5---|
 A|-3---3---3---3-------------------|---------------------------------|---------------------------------|


A#|---------------------------------|---------------------------------|---------------------------------|
 F|---------------------------------|---------------------------------|---------------------------------|
 C|---------------------------------|---------------------------------|---------------------------------|
 G|---------------------------------|---------------------------------|---------------------------------|
 D|-5---5---5---5-------------------|---------------------------------|---------------------------------|
 A|-----------------0---0---0---0---|-0---0---0---0---0---0---0---0---|-3---3---3---3---3---3---3---3---|


A#|---------------------------------|---------------------------------|---------------------------------|
 F|---------------------------------|---------------------------------|---------------------------------|
 C|---------------------------------|---------------------------------|---------------------------------|
 G|---------------------------------|---------------------------------|---------------------------------|
 D|-----------------0---0---0---0---|-0---0---0---0---0---0---0---0---|-0---0---0---0---0---0---2---2---|
 A|-3---3---3---3-------------------|---------------------------------|---------------------------------|


A#|---------------------------------|---------------------------------|---------------------------------|
 F|---------------------------------|---------------------------------|---------------------------------|
 C|---------------------------------|---------------------------------|---------------------------------|
 G|---------------------------------|---------------------------------|---------------------------------|
 D|-2---2---2---2-------------------|---------------------------------|---------------------------------|
 A|-----------------0---0---0---0---|-0---0---0---0---0---0---0---0---|-3---3---3---3---3---3---3---3---|


A#|---------------------------------|---------------------------------|---------------------------------|
 F|---------------------------------|---------------------------------|---------------------------------|
 C|---------------------------------|---------------------------------|---------------------------------|
 G|---------------------------------|---------------------------------|---------------------------------|
 D|-----------------3---3---3---3---|-3---3---3---3---3---3---3---3---|-3---3---3---3---3---3---5---5---|
 A|-3---3---3---3-------------------|---------------------------------|---------------------------------|


A#|---------------------------------|---------------------------------|---------------------------------|
 F|---------------------------------|---------------------------------|---------------------------------|
 C|---------------------------------|---------------------------------|---------------------------------|
 G|---------------------------------|---------------------------------|---------------------------------|
 D|-5---5---5---5---0---0---0---0---|-0---0---0---0---0---0---0---0---|-0---0---0---0---0---0---0---0---|
 A|---------------------------------|---------------------------------|---------------------------------|


A#|---------------------------------|---------------------------------|---------------------------------|
 F|---------------------------------|---------------------------------|---------------------------------|
 C|---------------------------------|---------------------------------|---------------------------------|
 G|---------------------------------|---------------------------------|---------------------------------|
 D|-0---0---0---0---3---3---3---3---|-3---3---3---3---3---3---3---3---|-3---3---3---3---3---3---5---5---|
 A|---------------------------------|---------------------------------|---------------------------------|


A#|---------------------------------|---------------------------------|---------------------------------|
 F|---------------------------------|---------------------------------|---------------------------------|
 C|---------------------------------|---------------------------------|---------------------------------|
 G|---------------------------------|---------------------------------|---------------------------------|
 D|-5---5---5---5---0---0---0---0---|-0---0---0---0---0---0---3---3---|-3---3---3---3---3---3---3---3---|
 A|---------------------------------|---------------------------------|---------------------------------|


A#|---------------------------------|-----------------------------------|---------------------------|
 F|---------------------------------|-----------------------------------|---------------------------|
 C|---------------------------------|-----------------------------------|---------------------------|
 G|---------------------------------|-----------------------------------|---------------------------|
 D|-------------------------7-------|---------------5-------------------|---------7----7----0---0---|
 A|-0---0-------0-------0-------0---|-----0---5--7------0---0-------0---|-----0---------------------|


A#|---------------------------------|---------------------------------|---------------------------------|
 F|---------------------------------|---------------------------------|---------------------------------|
 C|---------------------------------|---------------------------------|---------------------------------|
 G|---------------------------------|---------------------------------|---------------------------------|
 D|-0---0---0---0---0---0---0---0---|-3---3---3---3---3---3---3---3---|-3---3---------------------------|
 A|---------------------------------|---------------------------------|---------0---0-------0-------0---|


A#|-----------------------------------|---------------------------|------------------------------|
 F|-----------------------------------|---------------------------|------------------------------|
 C|-----------------------------------|---------------------------|------------------------------|
 G|-----------------------------------|---------------------------|------------------------------|
 D|-7---------------------5-----------|-----------------7----7----|-7----0---0---0---0---0---0---|
 A|-----0-------0---5--7------0---0---|-----0-------0-------------|------------------------------|


A#|---------------------------------|---------------------------------|---------------------------------|
 F|---------------------------------|---------------------------------|---------------------------------|
 C|---------------------------------|---------------------------------|---------------------------------|
 G|---------------------------------|---------------------------------|---------------------------------|
 D|-0---0---0---0---3---3---3---3---|-3---3---3---3---3---3-----------|-----------------7---------------|
 A|---------------------------------|-------------------------0---0---|-----0-------0-------0-------0---|


A#|-----------------------------------|---------------------------|---------------------------------|
 F|-----------------------------------|---------------------------|---------------------------------|
 C|-----------------------------------|---------------------------|---------------------------------|
 G|-----------------------------------|---------------------------|---------------------------------|
 D|-------5---------------------------|-7----7----0---0---0---0---|-0---0---0---0---0---0---0---0---|
 A|-5--7------0---0-------0-------0---|---------------------------|---------------------------------|


A#|---------------------------------|---------------------------------|---------------------------------|
 F|---------------------------------|---------------------------------|---------------------------------|
 C|---------------------------------|---------------------------------|---------------------------------|
 G|---------------------------------|---------------------------------|---------------------------------|
 D|-0---0---0---0---0---0---0---0---|-0---0---0---0---3---3---3---3---|-3---3---3---3---3---3---3---3---|
 A|---------------------------------|---------------------------------|---------------------------------|


A#|---------------------------------|---------------------|------------------------|
 F|---------------------------------|---------------------|------------------------|
 C|---------------------------------|---------------------|------9---------7---9---|
 G|---------------------------------|---------------------|------------------------|
 D|-3---3---3---3---3---3---5---5---|-5---------7-----7---|-----------7------------|
 A|---------------------------------|---------------------|------------------------|


A#|------------------|------------------------|------------------------|------------------|
 F|------------------|------------------------|------------------------|------------------|
 C|------------------|------7---9-------------|------9---------7---9---|------------------|
 G|------------------|------------------------|------------------------|-------------5----|
 D|-7-----7-----7----|-7------------7-----7---|-----------7------------|-7-----7----------|
 A|------------------|------------------------|------------------------|------------------|


A#|------------------|------------------------|--------------------|------------------|
 F|------------------|------------------------|--------------------|------------------|
 C|------------------|-9---------7---9--------|--------------9-----|------------------|
 G|-7----------------|------------------------|----------9---------|------------------|
 D|------7-----7-----|------7------------7----|-----7--------------|------3-----3-----|
 A|------------------|------------------------|--------------------|------------------|


A#|---------------------|---------------------|------------------|------------------------|
 F|---------------------|---------------------|------------------|------------------------|
 C|------5--------------|---------------------|-------------9----|------7---9-------------|
 G|-5---------5---------|---------------------|------------------|------------------------|
 D|----------------3----|-----3-----5----5----|-7-----7----------|-7------------7-----7---|
 A|---------------------|---------------------|------------------|------------------------|


A#|------------------------|------------------|------------------------|---------------------|
 F|------------------------|------------------|------------------------|---------------------|
 C|----------------7---9---|-------------9----|------7---9-------------|---------------------|
 G|------------------------|------------------|------------------------|------5----7---------|
 D|------7----7------------|-7-----7----------|-7------------7-----7---|----------------7----|
 A|------------------------|------------------|------------------------|---------------------|


A#|---------------------|------------------------|-------------|---------------------|
 F|---------------------|------------------------|-------------|---------------------|
 C|-----------9---------|-7---9------------------|-9-----------|----------------5----|
 G|---------------------|--------------------9---|-------------|-----------5---------|
 D|-----7----------7----|---------7-----7--------|--------3----|-----3---------------|
 A|---------------------|------------------------|-------------|---------------------|


A#|------------------|---------------------|------------------------------|------------------------------|
 F|------------------|---------------------|------------------------------|------------------------------|
 C|------------------|---------------------|------------------------------|------------------------------|
 G|-5----------------|---------------------|------------------------------|---------0----0---0---0---0---|
 D|------3-----3-----|-5----5----5----3----|-3---3---3---3---3----3---3---|-3---3------------------------|
 A|------------------|---------------------|------------------------------|------------------------------|


A#|---------------------------|------------------------------|------------------------------|
 F|---------------------------|------------------------------|------------------------------|
 C|---------------------------|------------------------------|------------------------------|
 G|-0----0---0---0---0---2----|-2---2---2---2---2----2---2---|-2---2---2----2---2---2---2---|
 D|---------------------------|------------------------------|------------------------------|
 A|---------------------------|------------------------------|------------------------------|


A#|---------------------------|------------------------------|------------------------------|
 F|---------------------------|------------------------------|------------------------------|
 C|---------------------------|------------------------------|------------------------------|
 G|-2----2---2---2---2--------|------------------------------|---------0----0---0---0---0---|
 D|----------------------3----|-3---3---3---3---3----3---3---|-3---3------------------------|
 A|---------------------------|------------------------------|------------------------------|


A#|---------------------------|------------------------------|------------------------------|
 F|---------------------------|------------------------------|------------------------------|
 C|---------------------------|------------------------------|------------------------------|
 G|-0----0---0---0---0--------|------------------------------|------------------------------|
 D|----------------------0----|-0---0---0---0---0----0---0---|-0---0---0----0---0---0---0---|
 A|---------------------------|------------------------------|------------------------------|


A#|---------------------|---------------------------------|---------------------------------|
 F|---------------------|---------------------------------|---------------------------------|
 C|---------------------|---------------------------------|---------------------------------|
 G|---------------------|---------------------------------|---------------------------------|
 D|-0-------------------|---------------------------------|---------------------------------|
 A|-------------0---0---|-0---0---0---0---0---0---0---0---|-0---0---3---3---3---3---3---3---|


A#|---------------------------------|---------------------------------|---------------------------------|
 F|---------------------------------|---------------------------------|---------------------------------|
 C|---------------------------------|---------------------------------|---------------------------------|
 G|---------------------------------|---------------------------------|---------------------------------|
 D|-------------------------3---3---|-3---3---3---3---3---3---3---3---|-3---3---3---3---3---3---3---3---|
 A|-3---3---3---3---3---3-----------|---------------------------------|---------------------------------|


A#|---------------------------------|---------------------------------|---------------------------------|
 F|---------------------------------|---------------------------------|---------------------------------|
 C|---------------------------------|---------------------------------|---------------------------------|
 G|---------------------------------|---------------------------------|---------------------------------|
 D|-5---5---5---5---5---5-----------|---------------------------------|---------------------------------|
 A|-------------------------0---0---|-0---0---0---0---0---0---0---0---|-0---0---3---3---3---3---3---3---|


A#|---------------------------------|---------------------------------|---------------------------------|
 F|---------------------------------|---------------------------------|---------------------------------|
 C|---------------------------------|---------------------------------|---------------------------------|
 G|---------------------------------|---------------------------------|---------------------------------|
 D|-------------------------0---0---|-0---0---0---0---0---0---0---0---|-0---0---0---0---0---0---0---0---|
 A|-3---3---3---3---3---3-----------|---------------------------------|---------------------------------|


A#|---------------------------------|---------------------------------|---------------------------------|
 F|---------------------------------|---------------------------------|---------------------------------|
 C|---------------------------------|---------------------------------|---------------------------------|
 G|---------------------------------|---------------------------------|---------------------------------|
 D|-2---2---2---2---2---2-----------|---------------------------------|---------------------------------|
 A|-------------------------0---0---|-0---0---0---0---0---0---0---0---|-0---0---3---3---3---3---3---3---|


A#|---------------------------------|---------------------------------|---------------------------------|
 F|---------------------------------|---------------------------------|---------------------------------|
 C|---------------------------------|---------------------------------|---------------------------------|
 G|---------------------------------|---------------------------------|---------------------------------|
 D|-------------------------3---3---|-3---3---3---3---3---3---3---3---|-3---3---3---3---3---3---3---3---|
 A|-3---3---3---3---3---3-----------|---------------------------------|---------------------------------|


A#|---------------------------------|---------------------------------|---------------------------------|
 F|---------------------------------|---------------------------------|---------------------------------|
 C|---------------------------------|---------------------------------|---------------------------------|
 G|---------------------------------|---------------------------------|---------------------------------|
 D|-5---5---5---5---5---5---0---0---|-0---0---0---0---0---0---0---0---|-0---0---0---0---0---0---0---0---|
 A|---------------------------------|---------------------------------|---------------------------------|


A#|---------------------------------|---------------------------------|---------------------------------|
 F|---------------------------------|---------------------------------|---------------------------------|
 C|---------------------------------|---------------------------------|---------------------------------|
 G|---------------------------------|---------------------------------|---------------------------------|
 D|-0---0---0---0---0---0---3---3---|-3---3---3---3---3---3---3---3---|-3---3---3---3---3---3---3---3---|
 A|---------------------------------|---------------------------------|---------------------------------|


A#|---------------------------------|---------------------------------|---------------------------------|
 F|---------------------------------|---------------------------------|---------------------------------|
 C|---------------------------------|---------------------------------|---------------------------------|
 G|---------------------------------|---------------------------------|---------------------------------|
 D|-5---5---5---5---5---5-----------|---------------------------------|---------------------------------|
 A|-------------------------0---0---|-0---0---0---0---0---0---0---0---|-0---0---3---3---3---3---3---3---|


A#|---------------------------------|---------------------------------|---------------------------------|
 F|---------------------------------|---------------------------------|---------------------------------|
 C|---------------------------------|---------------------------------|---------------------------------|
 G|---------------------------------|---------------------------------|---------------------------------|
 D|-------------------------3---3---|-3---3---3---3---3---3---3---3---|-3---3---3---3---3---3---3---3---|
 A|-3---3---3---3---3---3-----------|---------------------------------|---------------------------------|


A#|---------------------------------|---------------------------------|---------------------------------|
 F|---------------------------------|---------------------------------|---------------------------------|
 C|---------------------------------|---------------------------------|---------------------------------|
 G|---------------------------------|---------------------------------|---------------------------------|
 D|-5---5---5---5---5---5-----------|---------------------------------|---------------------------------|
 A|-------------------------0---0---|-0---0---0---0---0---0---0---0---|-0---0---3---3---3---3---3---3---|


A#|---------------------------------|---------------------------------|---------------------------------|
 F|---------------------------------|---------------------------------|---------------------------------|
 C|---------------------------------|---------------------------------|---------------------------------|
 G|---------------------------------|---------------------------------|---------------------------------|
 D|-------------------------0---0---|-0---0---0---0---0---0---0---0---|-0---0---0---0---0---0---0---0---|
 A|-3---3---3---3---3---3-----------|---------------------------------|---------------------------------|


A#|---------------------------------|---------------------------------|---------------------------------|
 F|---------------------------------|---------------------------------|---------------------------------|
 C|---------------------------------|---------------------------------|---------------------------------|
 G|---------------------------------|---------------------------------|---------------------------------|
 D|-2---2---2---2---2---2-----------|---------------------------------|---------------------------------|
 A|-------------------------0---0---|-0---0---0---0---0---0---0---0---|-0---0---3---3---3---3---3---3---|


A#|---------------------------------|---------------------------------|---------------------------------|
 F|---------------------------------|---------------------------------|---------------------------------|
 C|---------------------------------|---------------------------------|---------------------------------|
 G|---------------------------------|---------------------------------|---------------------------------|
 D|-------------------------3---3---|-3---3---3---3---3---3---3---3---|-3---3---3---3---3---3---3---3---|
 A|-3---3---3---3---3---3-----------|---------------------------------|---------------------------------|


A#|---------------------------------|---------------------------------|---------------------------------|
 F|---------------------------------|---------------------------------|---------------------------------|
 C|---------------------------------|---------------------------------|---------------------------------|
 G|---------------------------------|---------------------------------|---------------------------------|
 D|-5---5---5---5---5---5---0---0---|-0---0---0---0---0---0---0---0---|-0---0---0---0---0---0---0---0---|
 A|---------------------------------|---------------------------------|---------------------------------|


A#|---------------------------------|---------------------------------|---------------------------------|
 F|---------------------------------|---------------------------------|---------------------------------|
 C|---------------------------------|---------------------------------|---------------------------------|
 G|---------------------------------|---------------------------------|---------------------------------|
 D|-0---0---0---0---0---0---3---3---|-3---3---3---3---3---3---3---3---|-3---3---3---3---3---3---3---3---|
 A|---------------------------------|---------------------------------|---------------------------------|


A#|---------------------------------|---------------------------------|---------------------------------|
 F|---------------------------------|---------------------------------|---------------------------------|
 C|---------------------------------|---------------------------------|---------------------------------|
 G|---------------------------------|---------------------------------|---------------------------------|
 D|-5---5---5---5---5---5-----------|-----------------7---------------|---------------------------------|
 A|-------------------------0---0---|-----0-------0-------0-------0---|-----0---0---0-------0-------0---|


A#|---------------------------------|---------------------------------|---------------------------------|
 F|---------------------------------|---------------------------------|---------------------------------|
 C|---------------------------------|---------------------------------|---------------------------------|
 G|---------------------------------|---------------------------------|---------------------------------|
 D|-5-------------------------------|-----------------3---------------|---------------------------------|
 A|-----0-------0-------0---0---0---|-----0-------0-------0-------0---|-----0---0---0-------0-------0---|


A#|---------------------------------|---------------------------------|---------------------------------|
 F|---------------------------------|---------------------------------|---------------------------------|
 C|---------------------------------|---------------------------------|---------------------------------|
 G|---------------------------------|---------------------------------|---------------------------------|
 D|-2-------------------2-----------|-----------------7---------------|---------------------------------|
 A|-----0-------0---3-------0---0---|-----0-------0-------0-------0---|-----0---0---0-------0-------0---|


A#|---------------------------------|---------------------------------|---------------------------------|
 F|---------------------------------|---------------------------------|---------------------------------|
 C|---------------------------------|---------------------------------|---------------------------------|
 G|---------------------------------|---------------------------------|---------------------------------|
 D|-5-------------------------------|-----------------3---------------|---------------------------------|
 A|-----0-------0-------0---0---0---|-----0-------0-------0-------0---|-----0---0---0-------0-------0---|


A#|---------------------------------------------|---------------------------------|
 F|---------------------------------------------|---------------------------------|
 C|---------------------------------------------|---------------------------------|
 G|-9--10-9--7-----------------7--9--10---------|---------------------------------|
 D|-------------10-9--7--9--10------------------|-----------------7---------------|
 A|-------------------------------------0---0---|-----0-------0-------0-------0---|


A#|---------------------------------|---------------------------------|---------------------------------|
 F|---------------------------------|---------------------------------|---------------------------------|
 C|---------------------------------|---------------------------------|---------------------------------|
 G|---------------------------------|---------------------------------|---------------------------------|
 D|---------------------------------|-5-------------------------------|-----------------3---------------|
 A|-----0---0---0-------0-------0---|-----0-------0-------0---0---0---|-----0-------0-------0-------0---|


A#|---------------------------------|---------------------------------|---------------------------------|
 F|---------------------------------|---------------------------------|---------------------------------|
 C|---------------------------------|---------------------------------|---------------------------------|
 G|---------------------------------|---------------------------------|---------------------------------|
 D|---------------------------------|-2-------------------2-----------|-----------------7---------------|
 A|-----0---0---0-------0-------0---|-----0-------0---3-------0---0---|-----0-------0-------0-------0---|


A#|---------------------------------|---------------------------------|---------------------------------|
 F|---------------------------------|---------------------------------|---------------------------------|
 C|---------------------------------|---------------------------------|---------------------------------|
 G|---------------------------------|---------------------------------|---------------------------------|
 D|---------------------------------|-5-------------------------------|-----------------3---------------|
 A|-----0---0---0-------0-------0---|-----0-------0-------0---0---0---|-----0-------0-------0-------0---|


A#|---------------------------------|---------------------|
 F|---------------------------------|---------------------|
 C|---------------------------------|---------------------|
 G|---------------------------------|---------------------|
 D|---------------------------------|-0----0----0---------|
 A|-----0---0---0-------0-------0---|---------------------|