Menu:

 

Search:

 

dream theater - the ytse jam:

 



Title: The Ytse Jam
Artist: 
Album: When Dreams And Day Unite
Author: Kevin Moore, John Myung, John Petrucci, Mike Portnoy


Track 1: Untitled

E|--------|--------|--------|---------------------|--------|--------|--------|--------|
B|--------|--------|--------|---------------------|--------|--------|--------|--------|
G|--------|--------|--------|-8-----8---8----8----|-8------|-8------|-8------|-8------|
D|-9------|--------|--------|-8-----8---8----8----|-8------|-8------|-8------|-8------|
A|-7------|-8------|-7------|-6-----8---10---10---|-10-----|-10-----|-10-----|-10-----|
E|--------|-6------|-5------|---------------------|--------|--------|--------|--------|


E|---------------------------------------|-----------------------------------------|
B|---------------------------------------|-----------------------------------------|
G|-7--6--7-------9--7--9-------10-9--10--|-12-10-12--10-9--10--9--7--9---7--6--7---|
D|-----------0-------------0-------------|-----------------------------------------|
A|---------------------------------------|-----------------------------------------|
E|---------------------------------------|-----------------------------------------|


E|-----------------------------------------|---------------------------------------|
B|-----------------------------------------|---------------------------------------|
G|-----------------------------------------|-----7--6--7-------9--7--9-------10-9--|
D|-0---8--7--8---7--5--7---5-----5---------|---------------0-------------0---------|
A|----------------------------9------8--7--|-8-------------------------------------|
E|-----------------------------------------|---------------------------------------|


E|-----------------------------------------|---------------------------------------|
B|-----------------------------------------|---------------------------------------|
G|-10--12-10-12--10-9--10--9--7--9---7--6--|-7-------------------------------------|
D|-----------------------------------------|-----0---8--7--8---7--5--7---5-----5---|
A|-----------------------------------------|--------------------------------9------|
E|-----------------------------------------|---------------------------------------|


E|---------------------------------------|-----------------------------------------|
B|---------------------------------------|-----------------------------------------|
G|-----------7--6--7-------9--7--9-------|-10-9--10--12-10-12--10-9--10--9--7--9---|
D|---------------------0-------------0---|-----------------------------------------|
A|-8--7--8-------------------------------|-----------------------------------------|
E|---------------------------------------|-----------------------------------------|


E|-----------------------------------------|---------------------------------------|
B|-----------------------------------------|---------------------------------------|
G|-7--6--7---------------------------------|---------------7--6--7-------9--7--9---|
D|-----------0---8--7--8---7--5--7---5-----|-5-----------------------0-------------|
A|--------------------------------------9--|-----8--7--8---------------------------|
E|-----------------------------------------|---------------------------------------|


E|-----------------------------------------|---------------------------------------|
B|-----------------------------------------|---------------------------------------|
G|-----10-9--10--12-10-12--10-9--10--9--7--|-9---7--6--7---------------------------|
D|-0---------------------------------------|---------------0---8--7--8---7--5--7---|
A|-----------------------------------------|---------------------------------------|
E|-----------------------------------------|---------------------------------------|


E|-----------------------------------------|---------------------------------------|
B|-----------------------------------------|---------------------------------------|
G|---------------------7--6--7-------9--7--|-9-------10-9--10--12-10-12--10-9--10--|
D|-5-----5-----------------------0---------|-----0---------------------------------|
A|----9------8--7--8-----------------------|---------------------------------------|
E|-----------------------------------------|---------------------------------------|


E|-----------------------------------------|---------------------------------------|
B|-----------------------------------------|---------------------------------------|
G|-9--7--9---7--6--7-----------------------|-------------------------7--6--7-------|
D|---------------------0---8--7--8---7--5--|-7---5-----5-----------------------0---|
A|-----------------------------------------|--------9------8--7--8-----------------|
E|-----------------------------------------|---------------------------------------|


E|-----------------------------------------|---------------------------------------|
B|-----------------------------------------|---------------------------------------|
G|-9--7--9-------10-9--10--12-10-12--10-9--|-10--9--7--9---7--6--7-----------------|
D|-----------0-----------------------------|-------------------------0---8--7--8---|
A|-----------------------------------------|---------------------------------------|
E|-----------------------------------------|---------------------------------------|


E|-----------------------------------------|---------------------------------------|
B|-----------------------------------------|---------------------------------------|
G|-----------------------------------------|---------------------------------------|
D|-7--5--7---5-----5-----------------------|---------------------------------------|
A|--------------9------8--7--8---7---7--7--|-7---7--7--8---5---7---7--7--7---7--7--|
E|-------------------------------5---------|-5---------6---3---5---------5---------|


E|---------------------------------------|-------------------------------------|-------------------------------------------|
B|---------------------------------------|-------------------------------------|-------------------------------------------|
G|---------------------------------------|-------------------------------------|-------------------------------------------|
D|---------------------------------------|-------------------------------------|-------------------------------------------|
A|-------4---7---7--7--7---7--7--8---5---|-----------4---5---7---8---7---7--7--|-7---7--7--8--8--5--5--7---7--7--7---7--7--|
E|-6--6------5---------5---------6---3---|-5--5--6-----------------------------|-------------------------------------------|


E|---------------------------------------------|-----------------------------------------------|
B|---------------------------------------------|-----------------------------------------------|
G|---------------------------------------------|-----------------------------------------------|
D|-------6--6----------------------------------|-------------6--6--7--7--9--9--10-10-----------|
A|-8--8--------7---7--7--7---7--7--8--8--5--5--|-7--7--8--8--------------------------7---7--7--|
E|---------------------------------------------|-------------------------------------5---------|


E|---------------------------------------|---------------------------------------|
B|---------------------------------------|---------------------------------------|
G|---------------------------------------|---------------------------------------|
D|---------------------------------------|---------------------------------------|
A|-7---7--7--8---5---7---7--7--7---7--7--|-------4---7---7--7--7---7--7--8---5---|
E|-5---------6---3---5---------5---------|-6--6------5---------5---------6---3---|


E|-----------------------------------|---------------------------------------|-------------------------------------|
B|-----------------------------------|---------------------------------------|-------------------------------------|
G|-----------------------------------|---------------------------------------|-------------------------------------|
D|-------------------------9---9--9--|-9---9--9--10--7---9---9--9--9---9--9--|-10--13--9---9--9--9---9--9--10--7---|
A|---------4---5---7---8---7---------|-7---------8---5---7---------7---------|---------7---------7---------8---5---|
E|-5---6-----------------------------|---------------------------------------|-------------------------------------|


E|-----------------------------------|--------------------------------------|-------------------------------------------------|
B|-----------------------------------|--------------------------------------|-------------------------------------------------|
G|-----------------------------------|--------------------------------------|-------------------------------------------------|
D|---------6---7---9---10------------|-15--------14--------12---------------|-------------12-12-12-12-11-11-11-11-15-15-15-15-|
A|-7---8-------------------12--12-12-|-----12-12-----12-12------13-13-13-13-|-15-15-15-15-------------------------------------|
E|-----------------------------------|--------------------------------------|-------------------------------------------------|


E|--------------------------------------------------|--------------------------------------|
B|--------------------------------------------------|--------------------------------------|
G|-------------14-15-14-----------------------------|--------------------------------------|
D|-14-14-14-14----------17-15-14-12-11--------------|--------------------------------------|
A|-------------------------------------13-----------|-15--------14--------12---------------|
E|----------------------------------------12--12-12-|-----12-12-----12-12------13-13-13-13-|


E|-------------------------------------------------|-----------------------------------------------------|
B|-------------------------------------------------|-----------------------------------------------------|
G|-------------------------------------------------|-----------------------------------------------------|
D|-------------------------------------------------|-------------14-15-14--------------------------------|
A|-------------12-12-12-12-11-11-11-11-15-15-15-15-|-14-14-14-14----------17-15-14-12-11----12--12-12-12-|
E|-15-15-15-15-------------------------------------|-------------------------------------13--------------|


E|-------------------------------------------------|---------------------------------------------------|
B|-------------------------------------------------|---------------------------------------------------|
G|-------------------------------------------------|---------------------------------------------------|
D|-------------------------------------------------|---------------------------------------------------|
A|-12--12-12-12-13-13-------12--12-12-12-12--12-12-|-13-13-16-16-12--12-12-12-12--12-12-12-13-13-------|
E|--------------------15-15------------------------|---------------------------------------------15-15-|


E|------------------------------------------|--------------------------|-----------------------------|
B|------------------------------------------|--------------------------|-----------------------------|
G|------------------------------------------|--------------------------|-----13----------------------|
D|-------------11-11-12-12-14-14-15-15-14---|-14---15-14-12--14---14---|-15------14---14---15-14-12--|
A|-12-12-13-13------------------------------|--------------------------|-----------------------------|
E|------------------------------------------|--------------------------|-----------------------------|


E|------------------------------|--------------------|-----------------------|------------------------------|
B|------------------------------|--------------------|-----14----------------|---------14--15--17--18--17---|
G|---------13--14--16--17--14---|------15--12--14----|-15------14----15--12--|-14--15-----------------------|
D|-14--15-----------------------|--------------------|-----------------------|------------------------------|
A|------------------------------|--------------------|-----------------------|------------------------------|
E|------------------------------|--------------------|-----------------------|------------------------------|


E|--------------------|-----16----------------|---------16--17--19--20------------|
B|------18--15--17----|-18------17----18--15--|-17--18----------------------------|
G|--------------------|-----------------------|-------------------------7--6--7---|
D|--------------------|-----------------------|-----------------------------------|
A|--------------------|-----------------------|-----------------------------------|
E|--------------------|-----------------------|-----------------------------------|


E|---------------------------------------|-----------------------------------------|
B|---------------------------------------|-----------------------------------------|
G|-----9--7--9-------10-9--10--12-10-12--|-10-9--10--9--7--9---7--6--7-------------|
D|-0-------------0-----------------------|-------------------------------0---8--7--|
A|---------------------------------------|-----------------------------------------|
E|---------------------------------------|-----------------------------------------|


E|-----------------------------------------|---------------------------------------|
B|-----------------------------------------|---------------------------------------|
G|-----------------------------------7--6--|-7-------9--7--9-------10-9--10--12-10-|
D|-8---7--5--7---5-----5-------------------|-----0-------------0-------------------|
A|------------------9------8--7--8---------|---------------------------------------|
E|-----------------------------------------|---------------------------------------|


E|---------------------------------------|-----------------------------------------|
B|---------------------------------------|-----------------------------------------|
G|-12--10-9--10--9--7--9---7--6--7-------|-----------------------------------------|
D|-----------------------------------0---|-8--7--8---7--5--7---5-----5-------------|
A|---------------------------------------|------------------------9------8--7--8---|
E|---------------------------------------|-----------------------------------------|


E|------------------------------|--------------------------------|---------------------------------|
B|---------3-----------3--------|---------6----5-----------------|-3-------3-------3---------------|
G|-----2-----------0------------|-----5-----------7--5-------2---|-----0-------2-------2---0---2---|
D|-0-----------2-----------3----|-5----------------------0-------|---------------------------------|
A|------------------------------|--------------------------------|---------------------------------|
E|------------------------------|--------------------------------|---------------------------------|


E|---------------------------------|--------------------------------|---------------------------------|
B|-------------3-----------3-------|-------------6----5-------------|---------------------------------|
G|---------2-----------0-----------|---------5-----------7--5---2---|-7---7---5---5---3---3---2---2---|
D|-3---0-----------2-----------3---|-----5--------------------------|---------------------------------|
A|---------------------------------|--------------------------------|---------------------------------|
E|---------------------------------|--------------------------------|---------------------------------|


E|-----------------------------|--------------------------|-----------------------------------------------|
B|-----------------------------|--------------------------|-----------------------------------------------|
G|-0---2--3--2-----------------|-----------------10-------|-----------------------------------------------|
D|-----------------------------|------------10---10---10--|-----------------8--8--------7--7--------5--5--|
A|---------------12----10--10--|-10-10-7----10--------10--|-----5--5--5--5--------5--5--------5--5--------|
E|---------------10----8---8---|-------5------------------|-----------------------------------------------|


E|-------------------------------|------------------------|----------------------------------|
B|-------------------------------|------------------------|----------------------------------|
G|-------------------------------|---------------10-------|----------------------------------|
D|-------3--3--------------------|----------10---10---10--|-----7--------8--7--8---7--5--7---|
A|-5--5--------3---12----10--10--|-----7----10--------10--|-----5----------------------------|
E|-----------------10----8---8---|-----5------------------|----------------------------------|


E|-----------------------------------------|---------------------------------------------|
B|-----------------------------------------|---------------------------------------------|
G|-----------------------------------------|-----------2---------------------------------|
D|-5-----5---------------------------------|-----------2---------3--3--------2--2--------|
A|----8------8--7--8---7--5--7---5-----5---|-------4---0---0--0--------0--0--------0--0--|
E|----------------------------------8------|-8--6----------------------------------------|


E|-------------------------------------------|------------------------------------------|
B|-3-----------------------------------------|-3----------------------------------------|
G|-2---2-------------------------------------|-2----------------------------------------|
D|-0---2-------------3--3--------2--2--------|-0----------------------------------------|
A|-----0---0---0--0--------0--0--------0--0--|------1--1--1--1--3--3--3--3--5--5--5--5--|
E|-------------------------------------------|------------------------------------------|


E|-------------------------------------------------|---------------------------------------------|
B|-------------------------------------------------|---------------------------------------------|
G|-------------------------------------2--3--2-----|-------2-------------------------------------|
D|-------------3--3--3--3--2--2--2--2-----------3--|-2--0--2-------------3--3--------2--2--------|
A|-4--4--4--4--------------------------------------|-------0---0---0--0--------0--0--------0--0--|
E|-------------------------------------------------|---------------------------------------------|


E|-------------------------------------------|------------------------------------------|
B|-3-----------------------------------------|-3----------------------------------------|
G|-2---2-------------------------------------|-2----------------------------------------|
D|-0---2-------------3--3--------2--2--------|-0----------------------------------------|
A|-----0---0---0--0--------0--0--------0--0--|------1--1--1--1--3--3--3--3--5--5--5--5--|
E|-------------------------------------------|------------------------------------------|


E|-------------------------------------------------|---------------------------------------------|
B|-------------------------------------------------|---------------------------------------------|
G|-------------------------------------2--3--2-----|-------2---2---------------------------------|
D|-------------3--3--3--3--2--2--2--2-----------3--|-2--0--2---2---------3--3--------2--2--------|
A|-4--4--4--4--------------------------------------|-------0---0---0--0--------0--0--------0--0--|
E|-------------------------------------------------|---------------------------------------------|


E|-------------------------------------------|------------------------------------------|
B|-3-----------------------------------------|-3----------------------------------------|
G|-2---2-------------------------------------|-2----------------------------------------|
D|-0---2-------------3--3--------2--2--------|-0----------------------------------------|
A|-----0---0---0--0--------0--0--------0--0--|------1--1--1--1--3--3--3--3--5--5--5--5--|
E|-------------------------------------------|------------------------------------------|


E|-------------------------------------------------|---------------------------------------------|
B|-------------------------------------------------|---------------------------------------------|
G|-------------------------------------2--3--2-----|-------2---2---------------------------------|
D|-------------3--3--3--3--2--2--2--2-----------3--|-2--0--2---2---------3--3--------2--2--------|
A|-4--4--4--4--------------------------------------|-------0---0---0--0--------0--0--------0--0--|
E|-------------------------------------------------|---------------------------------------------|


E|-------------------------------------------|------------------------------------------|
B|-3-----------------------------------------|-3----------------------------------------|
G|-2---2-------------------------------------|-2----------------------------------------|
D|-0---2-------------3--3--------2--2--------|-0----------------------------------------|
A|-----0---0---0--0--------0--0--------0--0--|------1--1--1--1--3--3--3--3--5--5--5--5--|
E|-------------------------------------------|------------------------------------------|


E|-------------------------------|------------------------|------------------------------------|
B|-------------------------------|------------------------|------------------------------------|
G|-------------------------------|------------2--3--2-----|-------2----------------------------|
D|-------------3--3--3--3--0-----|------0--------------3--|-2--0--2----------------------------|
A|-4--4--4--4--------------------|------------------------|-------0---0----0---0--0--0---0--0--|
E|-------------------------------|------------------------|------------------------------------|


E|-------------------------------|------------------------------------|---------------------------|
B|-------------------------------|------------------------------------|---------------------------|
G|-----3---3----3----2--3--2-----|-------2----------------------------|-4---3---3-----2--3--2-----|
D|-----3---3----3-------------3--|-2--0--2----------------------------|-2---1---1--------------3--|
A|-0---1---1----1----------------|-------0---0----0---0--0--0---0--0--|---------------------------|
E|-------------------------------|------------------------------------|---------------------------|


E|------------------------------------|-------------------------------|------------------------------------|
B|------------------------------------|-------------------------------|------------------------------------|
G|-------2----------------------------|-----3---3----3----2--3--2-----|-------2----------------------------|
D|-2--0--2----------------------------|-----3---3----3-------------3--|-2--0--2----------------------------|
A|-------0---0----0---0--0--0---0--0--|-0---1---1----1----------------|-------0---0----0---0--0--0---0--0--|
E|------------------------------------|-------------------------------|------------------------------------|


E|---------------------------|------------------------------------|-------------------------------|
B|---------------------------|------------------------------------|-------------------------------|
G|-4---3---3-----2--3--2-----|-------2----------------------------|-----3---3----3----2--3--2-----|
D|-2---1---1--------------3--|-2--0--2----------------------------|-----3---3----3-------------3--|
A|---------------------------|-------0---0----0---0--0--0---0--0--|-0---1---1----1----------------|
E|---------------------------|------------------------------------|-------------------------------|


E|------------------------------------|---------------------------|------------------------------------|
B|------------------------------------|---------------------------|------------------------------------|
G|-------2----------------------------|-4---3---3-----2--3--2-----|-------2----------------------------|
D|-2--0--2----------------------------|-2---1---1--------------3--|-2--0--2----------------------------|
A|-------0---0----0---0--0--0---0--0--|---------------------------|-------0---0----0---0--0--0---0--0--|
E|------------------------------------|---------------------------|------------------------------------|


E|-------------------------------|------------------------------------|---------------------------|
B|-------------------------------|------------------------------------|---------------------------|
G|-----3---3----3----2--3--2-----|-------2----------------------------|-4---3---3-----2--3--2-----|
D|-----3---3----3-------------3--|-2--0--2----------------------------|-2---1---1--------------3--|
A|-0---1---1----1----------------|-------0---0----0---0--0--0---0--0--|---------------------------|
E|-------------------------------|------------------------------------|---------------------------|


E|---------------------------------------|-------------------------------------|-------------------------------------|
B|---------------------------------------|-------------------------------------|-------------------------------------|
G|-------2-------------------------------|-------------------------------------|-------------------------------------|
D|-2--0--2---5---------------------------|-----6-------------------------------|---------5---------------------------|
A|-------0---5---------------------------|-----6---6-------5--6--5--3--5---3---|---------5---------------------------|
E|-----------3----3--3---3--3--3---3--3--|-3---4---4---4-----------------------|-6---4---3----3--3---3--3--3---3--3--|


E|-------------------------------------|--------------------------------|---------------------------------------|
B|-------------------------------------|--------------------------------|---------------------------------------|
G|-----6---6---------------------------|--------------------------------|---------------------------------------|
D|-----6---6-------5--6--5--3--5---3---|---------6----5-----------------|---------------6-----------------------|
A|-----4---4---4-----------------------|-6---5---6----5-----------------|---------------6---6-------5--6--5--3--|
E|-3---4---4---------------------------|---------4----3----3--3---3--3--|-3---3--3--3---4---4---4---------------|


E|-----------------------------------|---------------------------------------|------------------------------|
B|-----------------------------------|---------------------------------------|------------------------------|
G|-----------------------------------|---------------6---6-------------------|------------------------------|
D|-----------------5-----------------|---------------6---6-------5--6--5--3--|-5---3-----------6----5-------|
A|-5---3-----------5-----------------|---------------4---4---4---------------|---------6---5---6----5-------|
E|---------6---4---3----3--3---3--3--|-3---3--3--3---4---4-------------------|-----------------4----3----3--|


E|-------------------------------------|-------------------------------------|-------------------------------------|
B|-------------------------------------|-------------------------------------|-------------------------------------|
G|-------------------------------------|-------------------------------------|-------------------------6---6-------|
D|-------------------------6-----------|-----------------------------5-------|-------------------------6---6-------|
A|-------------------------6---6-------|-5--6--5--3--5---3-----------5-------|-------------------------4---4---4---|
E|-3---3--3--3---3--3--3---4---4---4---|---------------------6---4---3----3--|-3---3--3--3---3--3--3---4---4-------|


E|----------------------------------|-------------------------------------|-------------------------------------|
B|----------------------------------|-------------------------------------|-------------------------------------|
G|----------------------------------|-------------------------------------|-------------------------------------|
D|-5--6--5--3--5---3-----------6----|-5-------------------------------6---|-------------------------------------|
A|---------------------6---5---6----|-5-------------------------------6---|-6-------5--6--5--3--5---3-----------|
E|-----------------------------4----|-3----3--3---3--3--3---3--3--3---4---|-4---4-----------------------6---4---|


E|-------------------------------------|-------------------------------------|------------------------------------|
B|-------------------------------------|-------------------------------------|------------------------------------|
G|---------------------------------6---|-6-----------------------------------|------7-----------------------------|
D|-5-------------------------------6---|-6-------5--6--5--3--5---3-----------|-6----7-----------------------------|
A|-5-------------------------------4---|-4---4-----------------------6---5---|-6----5---5--5--5---5--5--5---5--5--|
E|-3----3--3---3--3--3---3--3--3---4---|-4-----------------------------------|-4----------------------------------|


E|-------------------------------------|---------------------------------------|-------------------------------------|
B|-------------------------------------|---------------------------------------|-----9---9---------------------------|
G|-----8---8---------------------------|---------7-----------------------------|-----8---8-------7--8--7--5--7---5---|
D|-----8---8-------7--8--7--5--7---5---|---------7-----------------------------|-----6---6---------------------------|
A|-5---6---6---6-----------------------|-8---6---5---5--5--5---5--5--5---5--5--|-5---6---6---6-----------------------|
E|-------------------------------------|---------------------------------------|-------------------------------------|


E|-----------------------------|-------------------------------------|---------------------------------------|
B|-----------------------------|-------------------------------------|---------------------------------------|
G|---------10---8----7---------|-------------------------8---8-------|-----------------------------7---------|
D|-8---7---10---8----7---------|-------------------------8---8-------|-7--8--7--5--7---5-----------7---------|
A|---------8----6----5---5--5--|-5---5--5--5---5--5--5---6---6---6---|---------------------8---6---5---5--5--|
E|-----------------------------|-------------------------------------|---------------------------------------|


E|-------------------------------------|----------------------------------|-----------------|
B|-------------------------9---9-------|----------------------------------|-----------------|
G|-------------------------8---8-------|-7--8--7--5--7---5-----------10---|-8---------------|
D|-------------------------6---6-------|---------------------8---7---10---|-8----7----------|
A|-5---5--5--5---5--5--5---6---6---6---|-----------------------------8----|-6----5----------|
E|-------------------------------------|----------------------------------|-----------------|


E|-------------|--------|------------------------|------------------------------------|
B|-------------|--------|------------------------|------------------------------------|
G|-------------|--------|------------------------|----5--4-----6--6------6------------|
D|-------------|--------|---------------------7--|-6--------3--6--6------6------------|
A|-------------|--------|---------------5--8-----|-------------4--4------4------------|
E|-------------|--------|------------5-----------|------------------------------------|


E|-------------------------------|-----------------------------|----------------------------------------|
B|-------------------------------|-----------------------------|----------------------------------------|
G|----------------------5--4-----|-----------------------------|---------------------5--4-----6--6------|
D|----------------7--6-----------|-------------7-----6---6-----|---------------7--6--------3--6--6------|
A|----------5--8-----------------|-5-----8---------------------|---------5--8-----------------4--4------|
E|-------5-----------------------|-----------------------------|------5---------------------------------|


E|----------------|-------------------------------------------------|-------------|
B|----------------|-------------------------------------------------|-------------|
G|-6--------------|----------------5--4-----------------------------|-------------|
D|-6--------------|----------7--6-----------------------7-----6-----|--------9----|
A|-4--------------|----5--8-----------------5-----8-----------------|--------7----|
E|----------------|-5-----------------------------------------------|-------------|


E|-----------------|------------------------|------------------------------------------|
B|-----------------|------------------------|------------------------------------------|
G|-----------------|----------------10------|-10------10------10--10--10---10--10--10--|
D|------10----7----|------8-----8-------8---|-----8-------7-------7--------10--10--10--|
A|------8-----5----|------6-----------------|------------------------------8---8---8---|
E|-----------------|------------------------|------------------------------------------|


E|-------------------------------|------------------------|-----------------|------------------------------------------|
B|-------------------------------|------------------------|-----------------|------------------------------------------|
G|-10--10--10--8-----------------|----5--4----------------|-----------------|----------10------10------10------10--10--|
D|-10--10--10--8--------------7--|-6--------3--9-----10---|------7-----8----|------8-------8-------8-------7-------7---|
A|-8---8---8---6--------5--8-----|-------------7-----8----|------5-----6----|------------------------------------------|
E|-------------------5-----------|------------------------|-----------------|------------------------------------------|


E|-----------------------------------|-------------|-------------|-------------|---------------------|
B|-----------------------------------|-------------|-------------|-------------|---------------------|
G|-10---10--10--10--10--10--10--8----|-------------|-------------|-------------|-----------10--------|
D|------10--10--10--10--10--10--8----|------9------|------7------|------10-----|------8---------7----|
A|------8---8---8---8---8---8---6----|------7------|------5------|------8------|---------------------|
E|-----------------------------------|-------------|-------------|-------------|---------------------|


E|-------------|-------------|-------------|---------------------|-------------|-------------|
B|-------------|-------------|-------------|---------------------|-------------|-------------|
G|-10----------|-------------|-------------|-----------10--------|-10----------|-------------|
D|------9------|------7------|------10-----|------8---------7----|------9------|------7------|
A|------7------|------5------|------8------|---------------------|------7------|------5------|
E|-------------|-------------|-------------|---------------------|-------------|-------------|


E|-------------|---------------------|-------------|-------------|-------------|---------------------|
B|-------------|---------------------|-------------|-------------|-------------|---------------------|
G|-------------|-----------10--------|-10----------|-------------|-------------|-----------10--------|
D|------10-----|------8---------7----|------9------|------7------|------10-----|------8---------7----|
A|------8------|---------------------|------7------|------5------|------8------|---------------------|
E|-------------|---------------------|-------------|-------------|-------------|---------------------|


E|------------------------------------|-------------------------------------------------|
B|------------------------------------|-------------------------------------------------|
G|-10---------------9----9------------|-----9---9---------------7-------7---------------|
D|------9---9---9---9----9----9---9---|-9---9---9---9---9---9---7---7---7---9---9---9---|
A|------------------7----7------------|-----7---7---------------5-------5---------------|
E|------------------------------------|-------------------------------------------------|


E|-------------------------------------------------|-------------------------------------------------|
B|-------------------------------------------------|-------------------------------------------------|
G|-7-------7---------------10------10--------------|-10--10--10--------------10------10--------------|
D|-7---7---7---9---9---9---10--7---10--9---9---9---|-10--10--10--8---8---8-------8-------7---7---7---|
A|-5-------5---------------8-------8---------------|-8---8---8---------------------------------------|
E|-------------------------------------------------|-------------------------------------------------|


E|----------------------------------------------|----------------------------------------------|
B|----------------------------------------------|----------------------------------------------|
G|-10------10--------------9----9---------------|-9----9---------------7-------7---7---7---7---|
D|-----7-------9---9---9---9----9---9---9---9---|-9----9---9---9---9---7---7---7---7---7---7---|
A|-------------------------7----7---------------|-7----7---------------5-------5---5---5---5---|
E|----------------------------------------------|----------------------------------------------|


E|-----------------------------------|------------------------------------------|----------------------------|
B|-----------------------------------|------------------------------------------|----------------------------|
G|-7---------------------------------|------------------------------------------|-------------9----9----9----|
D|-7----3---3---3--------3---3---3---|------------------------------------------|----------------------------|
A|-5----------------3----------------|-3----------------8-----------------------|-8-----------7----7----7----|
E|------------------1----------------|-1----6---6---6-------6---6---5---5---5---|-----5---5------------------|


E|-----------------|---------------------|---------------------|---------------------|
B|-----------------|------10--10----10---|---------------------|---------------------|
G|------7----7-----|-10------------------|------10---10---10---|------9----9----9----|
D|-----------------|------7---7-----7----|---------------------|---------------------|
A|------5----5-----|-8-------------------|------8----8----8----|------7----7----7----|
E|-----------------|---------------------|---------------------|---------------------|


E|-----------------|---------------------|---------------------|---------------------|
B|-----------------|------10--10----10---|------11--11----11---|---------------------|
G|------7----7-----|-10------------------|---------------------|------9----9----9----|
D|-----------------|------7---7-----7----|------8---8-----8----|---------------------|
A|------5----5-----|-8-------------------|---------------------|---------------------|
E|-----------------|---------------------|---------------------|---------------------|


E|---------------------|--------------------|-----------------|-----------------|-----------------|
B|---------------------|--------------------|-----------------|------17----17---|------18----18---|
G|------7----7----7----|-10--12--10---12----|------10----9----|------19----19---|------20----20---|
D|---------------------|--------------------|-----------------|-----------------|-----------------|
A|---------------------|--------------------|-----------------|-----------------|-----------------|
E|---------------------|--------------------|-----------------|-----------------|-----------------|


E|------17----17---|------18----18---|----------------------------------|---------------------------------------|
B|------20----20---|------21----21---|----------------------------------|---------------------------------------|
G|-----------------|-----------------|------9---9--9--9---9--9--9---7---|-9---9--9--9---9--9--9---10--9---9--9--|
D|-----------------|-----------------|------9---9--9--9---9--9--9---7---|-9---9--9--9---9--9--9---10--9---9--9--|
A|-----------------|-----------------|------7---------7---------7---5---|-7---------7---------7---8---7---------|
E|-----------------|-----------------|----------------------------------|---------------------------------------|


E|---------------------------------------|-------------------------------------|-----------------------------------------|
B|---------------------------------------|-------------------------------------|-----------------------------------------|
G|-9---9--9--9---7---9---9--9--9---9--9--|-9---10--7--6--7-------9--7--9-------|-10-9--10--12-10-12--10-9--10--9--7--9---|
D|-9---9--9--9---7---9---9--9--9---9--9--|-9---10------------0-------------0---|-----------------------------------------|
A|-7---------7---5---7---------7---------|-7---8-------------------------------|-----------------------------------------|
E|---------------------------------------|-------------------------------------|-----------------------------------------|


E|-----------------------------------------|---------------------------------------|
B|-----------------------------------------|---------------------------------------|
G|-7--6--7---------------------------------|---------------7--6--7-------9--7--9---|
D|-----------0---8--7--8---7--5--7---5-----|-5-----------------------0-------------|
A|--------------------------------------9--|-----8--7--8---------------------------|
E|-----------------------------------------|---------------------------------------|


E|-----------------------------------------|---------------------------------------|
B|-----------------------------------------|---------------------------------------|
G|-----10-9--10--12-10-12--10-9--10--9--7--|-9---7--6--7---------------------------|
D|-0---------------------------------------|---------------0---8--7--8---7--8--7---|
A|-----------------------------------------|---------------------------------------|
E|-----------------------------------------|---------------------------------------|


E|-----------------------------------------|----------------------|-----------------|
B|-----------------------------------------|----------------------|-----------------|
G|-----------------------------------------|-----------------8----|------7----------|
D|-5-----5---------------------------------|-----------7-----8----|------7-----6----|
A|----8------8--7--8---7--5--7---5--4--5---|-4-----4---7-----6----|------5-----6----|
E|-----------------------------------------|----7------5----------|------------4----|


E|----------------------------------------|----------------|
B|----------------------------------------|----------------|
G|---------------------5--4-----6--6------|-6--------------|
D|---------------7--6--------3--6--6------|-6--------------|
A|---------5--8-----------------4--4------|-4--------------|
E|------5---------------------------------|----------------|





Track 2: Untitled

E|--------|--------|--------|--------|--------|--------|--------|--------|--------|
B|--------|--------|--------|--------|--------|--------|--------|--------|--------|
G|--------|--------|--------|--------|--------|--------|--------|--------|--------|
D|--------|--------|--------|--------|--------|--------|--------|--------|--------|
A|--------|--------|--------|--------|--------|--------|--------|--------|--------|
E|--------|--------|--------|--------|--------|--------|--------|--------|--------|


E|--------|-------------|--------|--------|--------------|-------------|-------------|
B|--------|-------------|--------|--------|--------------|-------------|-------------|
G|--------|-------------|--------|--------|--------------|-------------|-------------|
D|--------|-------------|--------|--------|--------------|-------------|-------------|
A|--------|-------------|--------|--------|--------------|-------------|-------------|
E|--------|-------------|--------|--------|--------------|-------------|-------------|


E|-----------------------------------------|----------------------|--------------|
B|-----------------------------------------|----------------------|--------------|
G|-7--6--7----------5--7---5-----5---------|----------------------|--------------|
D|-----------0---8------------8------8--7--|-8---7--5--7----------|--------------|
A|-----------------------------------------|----------------------|--------------|
E|-----------------------------------------|----------------------|--------------|


E|---------------------------------------|---------------------------|--------|--------|
B|---------------------------------------|---------------------------|--------|--------|
G|-----7--6--7----------5--7---5-----5---|---------------------------|--------|--------|
D|---------------0---8------------8------|-8--7--8---7--5--7---------|--------|--------|
A|---------------------------------------|---------------------------|--------|--------|
E|---------------------------------------|---------------------------|--------|--------|


E|--------|--------|--------|--------|--------|--------|--------|--------|--------|
B|--------|--------|--------|--------|--------|--------|--------|--------|--------|
G|--------|--------|--------|--------|--------|--------|--------|--------|--------|
D|--------|--------|--------|--------|--------|--------|--------|--------|--------|
A|--------|--------|--------|--------|--------|--------|--------|--------|--------|
E|--------|--------|--------|--------|--------|--------|--------|--------|--------|


E|--------|--------|--------|--------|--------|--------|--------|--------|--------|
B|--------|--------|--------|--------|--------|--------|--------|--------|--------|
G|--------|--------|--------|--------|--------|--------|--------|--------|--------|
D|--------|--------|--------|--------|--------|--------|--------|--------|--------|
A|--------|--------|--------|--------|--------|--------|--------|--------|--------|
E|--------|--------|--------|--------|--------|--------|--------|--------|--------|


E|--------|--------|--------|--------|--------|--------|--------|--------|--------|
B|--------|--------|--------|--------|--------|--------|--------|--------|--------|
G|--------|--------|--------|--------|--------|--------|--------|--------|--------|
D|--------|--------|--------|--------|--------|--------|--------|--------|--------|
A|--------|--------|--------|--------|--------|--------|--------|--------|--------|
E|--------|--------|--------|--------|--------|--------|--------|--------|--------|


E|--------|--------|--------|--------|--------|--------|--------|--------|--------|
B|--------|--------|--------|--------|--------|--------|--------|--------|--------|
G|--------|--------|--------|--------|--------|--------|--------|--------|--------|
D|--------|--------|--------|--------|--------|--------|--------|--------|--------|
A|--------|--------|--------|--------|--------|--------|--------|--------|--------|
E|--------|--------|--------|--------|--------|--------|--------|--------|--------|


E|--------|--------|--------|--------|--------|--------|--------|--------|--------|
B|--------|--------|--------|--------|--------|--------|--------|--------|--------|
G|--------|--------|--------|--------|--------|--------|--------|--------|--------|
D|--------|--------|--------|--------|--------|--------|--------|--------|--------|
A|--------|--------|--------|--------|--------|--------|--------|--------|--------|
E|--------|--------|--------|--------|--------|--------|--------|--------|--------|


E|--------|--------|--------|--------|--------|--------|--------|--------|--------|
B|--------|--------|--------|--------|--------|--------|--------|--------|--------|
G|--------|--------|--------|--------|--------|--------|--------|--------|--------|
D|--------|--------|--------|--------|--------|--------|--------|--------|--------|
A|--------|--------|--------|--------|--------|--------|--------|--------|--------|
E|--------|--------|--------|--------|--------|--------|--------|--------|--------|


E|--------|--------|--------|--------|--------|--------|--------|--------|--------|
B|--------|--------|--------|--------|--------|--------|--------|--------|--------|
G|--------|--------|--------|--------|--------|--------|--------|--------|--------|
D|--------|--------|--------|--------|--------|--------|--------|--------|--------|
A|--------|--------|--------|--------|--------|--------|--------|--------|--------|
E|--------|--------|--------|--------|--------|--------|--------|--------|--------|


E|--------|--------|--------|--------|--------|--------|--------|--------|--------|
B|--------|--------|--------|--------|--------|--------|--------|--------|--------|
G|--------|--------|--------|--------|--------|--------|--------|--------|--------|
D|--------|--------|--------|--------|--------|--------|--------|--------|--------|
A|--------|--------|--------|--------|--------|--------|--------|--------|--------|
E|--------|--------|--------|--------|--------|--------|--------|--------|--------|


E|--------|-------------|--------|--------|--------|-------------|--------|--------|
B|--------|-------------|--------|--------|--------|-------------|--------|--------|
G|--------|-------------|--------|--------|--------|-------------|--------|--------|
D|--------|-------------|--------|--------|--------|-------------|--------|--------|
A|--------|-------------|--------|--------|--------|-------------|--------|--------|
E|--------|-------------|--------|--------|--------|-------------|--------|--------|


E|--------|-------------|--------|--------|--------|-------------|---------------------------|
B|--------|-------------|--------|--------|--------|-------------|------6----6---18--6---16--|
G|--------|-------------|--------|--------|--------|-------------|---------------------------|
D|--------|-------------|--------|--------|--------|-------------|---------------------------|
A|--------|-------------|--------|--------|--------|-------------|---------------------------|
E|--------|-------------|--------|--------|--------|-------------|---------------------------|


E|------------------------------|---------------------------|----------------------------------------------------------------|
B|-16---16-16166----14--6---13--|-13--13--11----11--8---8---|-12-8--6--12-8--6--12-8--6--12-8--6--12-6--4--12-6--4--12-6--4--|
G|------------------------------|---------------------------|----------------------------------------------------------------|
D|------------------------------|---------------------------|----------------------------------------------------------------|
A|------------------------------|---------------------------|----------------------------------------------------------------|
E|------------------------------|---------------------------|----------------------------------------------------------------|


E|----------------------------------------------------|----------------------------------------------------------|
B|-12-4--12-4--3--12-4--3--13-6--13-8--13-9--13-8--13-|-6--13-4--13-8--13-6--13-4--13-3--13-6--13-4--13-3--13-1--|
G|----------------------------------------------------|----------------------------------------------------------|
D|----------------------------------------------------|----------------------------------------------------------|
A|----------------------------------------------------|----------------------------------------------------------|
E|----------------------------------------------------|----------------------------------------------------------|


E|-------------------------------------------------------|-------------------------------------------------------------|
B|-13-3--13-4--13-3--13-4--13-6--13-4--13-6--13-8--13-6--|-13-8--13-9--13-8--13-6--13-6--13-12-13-12-8--13-12-13-12-8--|
G|-------------------------------------------------------|-------------------------------------------------------------|
D|-------------------------------------------------------|-------------------------------------------------------------|
A|-------------------------------------------------------|-------------------------------------------------------------|
E|-------------------------------------------------------|-------------------------------------------------------------|


E|----------------------------------------------------------------------|------------------------------------------|
B|-13-12-8--13-12-8--13-12-13-12-8--13-12-9--13-12-9--12-9--15-12-15-12-|-8--15-12-15-8--18-15-12-18--18--18--18---|
G|----------------------------------------------------------------------|------------------------------------------|
D|----------------------------------------------------------------------|------------------------------------------|
A|----------------------------------------------------------------------|------------------------------------------|
E|----------------------------------------------------------------------|------------------------------------------|


E|---------18--18----18--18--|-18----18--16--16-16-16-16-16-16-|-19-16-15-16-19-16-16-16-16-16-16----------------------------------|
B|------18-------------------|---------------------------------|----------------------------------16-15-13-15-16-15-15-15-15-15-15-|
G|---------------------------|---------------------------------|-------------------------------------------------------------------|
D|---------------------------|---------------------------------|-------------------------------------------------------------------|
A|---------------------------|---------------------------------|-------------------------------------------------------------------|
E|---------------------------|---------------------------------|-------------------------------------------------------------------|


E|-----------------------------------------------|-----------------------------------|
B|-18-15----15-16-15-------17--15----------------|-----------------------------------|
G|-------18----------15-----------17-15----------|-----------------------------------|
D|----------------------17--------------17-------|-----------------------------------|
A|-----------------------------------------17-17-|-----------------------------15-15-|
E|-----------------------------------------------|-15--13----15-15-16-16-19-19-------|


E|----------------------------------------------21--|-21--21--21-----|--------|--------|
B|----------------------------------16-17-18-19-----|----------------|--------|--------|
G|-------------------------17-18-19-----------------|----------------|--------|--------|
D|-------------17-17-18-18--------------------------|----------------|--------|--------|
A|-17-17-18-18--------------------------------------|----------------|--------|--------|
E|--------------------------------------------------|----------------|--------|--------|


E|--------|--------|--------|--------|--------|--------|--------|--------|--------|
B|--------|--------|--------|--------|--------|--------|--------|--------|--------|
G|--------|--------|--------|--------|--------|--------|--------|--------|--------|
D|--------|--------|--------|--------|--------|--------|--------|--------|--------|
A|--------|--------|--------|--------|--------|--------|--------|--------|--------|
E|--------|--------|--------|--------|--------|--------|--------|--------|--------|


E|--------|--------|--------|--------|--------|--------|--------|--------|--------|
B|--------|--------|--------|--------|--------|--------|--------|--------|--------|
G|--------|--------|--------|--------|--------|--------|--------|--------|--------|
D|--------|--------|--------|--------|--------|--------|--------|--------|--------|
A|--------|--------|--------|--------|--------|--------|--------|--------|--------|
E|--------|--------|--------|--------|--------|--------|--------|--------|--------|


E|--------|--------|--------|--------|--------|--------|--------|--------|--------|
B|--------|--------|--------|--------|--------|--------|--------|--------|--------|
G|--------|--------|--------|--------|--------|--------|--------|--------|--------|
D|--------|--------|--------|--------|--------|--------|--------|--------|--------|
A|--------|--------|--------|--------|--------|--------|--------|--------|--------|
E|--------|--------|--------|--------|--------|--------|--------|--------|--------|


E|--------|--------|--------|--------|--------|--------|--------|--------|--------|
B|--------|--------|--------|--------|--------|--------|--------|--------|--------|
G|--------|--------|--------|--------|--------|--------|--------|--------|--------|
D|--------|--------|--------|--------|--------|--------|--------|--------|--------|
A|--------|--------|--------|--------|--------|--------|--------|--------|--------|
E|--------|--------|--------|--------|--------|--------|--------|--------|--------|


E|--------|--------|--------|--------|--------|--------|--------|--------|--------|
B|--------|--------|--------|--------|--------|--------|--------|--------|--------|
G|--------|--------|--------|--------|--------|--------|--------|--------|--------|
D|--------|--------|--------|--------|--------|--------|--------|--------|--------|
A|--------|--------|--------|--------|--------|--------|--------|--------|--------|
E|--------|--------|--------|--------|--------|--------|--------|--------|--------|


E|--------|--------|--------|--------|--------|--------|--------|--------|--------|
B|--------|--------|--------|--------|--------|--------|--------|--------|--------|
G|--------|--------|--------|--------|--------|--------|--------|--------|--------|
D|--------|--------|--------|--------|--------|--------|--------|--------|--------|
A|--------|--------|--------|--------|--------|--------|--------|--------|--------|
E|--------|--------|--------|--------|--------|--------|--------|--------|--------|


E|--------|--------|--------|--------|--------|--------|--------|--------|--------|
B|--------|--------|--------|--------|--------|--------|--------|--------|--------|
G|--------|--------|--------|--------|--------|--------|--------|--------|--------|
D|--------|--------|--------|--------|--------|--------|--------|--------|--------|
A|--------|--------|--------|--------|--------|--------|--------|--------|--------|
E|--------|--------|--------|--------|--------|--------|--------|--------|--------|


E|--------|--------|--------|--------|--------|--------|--------|--------|--------|
B|--------|--------|--------|--------|--------|--------|--------|--------|--------|
G|--------|--------|--------|--------|--------|--------|--------|--------|--------|
D|--------|--------|--------|--------|--------|--------|--------|--------|--------|
A|--------|--------|--------|--------|--------|--------|--------|--------|--------|
E|--------|--------|--------|--------|--------|--------|--------|--------|--------|


E|--------|--------|--------|--------|--------|--------|--------|--------|
B|--------|--------|--------|--------|--------|--------|--------|--------|
G|--------|--------|--------|--------|--------|--------|--------|--------|
D|--------|--------|--------|--------|--------|--------|--------|--------|
A|--------|--------|--------|--------|--------|--------|--------|--------|
E|--------|--------|--------|--------|--------|--------|--------|--------|





Track 3: Untitled

G|-4------|--------|--------|-3------|-3------|-3------|-3------|-3------|---------------------------------------|
D|-2------|-3------|-2------|-1------|-1------|-1------|-1------|-1------|-12-11-12--0---14-12-14--0---15-14-15--|
A|--------|-1------|-0------|--------|--------|--------|--------|--------|---------------------------------------|
E|--------|--------|--------|--------|--------|--------|--------|--------|---------------------------------------|


G|-----------------------------------------|-----------------------------------------|
D|-17-15-17--15-14-15--14-12-14--12-11-12--|-0---20-19-20--19-17-19--17-16-17--15-14-|
A|-----------------------------------------|-----------------------------------------|
E|-----------------------------------------|-----------------------------------------|


G|---------------------------------------|-----------------------------------------|
D|-15--12-11-12--0---14-12-14--0---15-14-|-15--17-15-17--15-14-15--14-12-14--12-11-|
A|---------------------------------------|-----------------------------------------|
E|---------------------------------------|-----------------------------------------|


G|---------------------------------------|---------------------------------------|
D|-12--0---20-19-20--19-17-19--17-16-17--|-15-14-15--12-11-12--0---14-12-14--0---|
A|---------------------------------------|---------------------------------------|
E|---------------------------------------|---------------------------------------|


G|-----------------------------------------|-----------------------------------------|
D|-15-14-15--17-15-17--15-14-15--14-12-14--|-12-11-12--0---20-19-20--19-17-19--17-16-|
A|-----------------------------------------|-----------------------------------------|
E|-----------------------------------------|-----------------------------------------|


G|---------------------------------------|-----------------------------------------|
D|-17--15-14-15--12-11-12--0---14-12-14--|-0---15-14-15--17-15-17--15-14-15--14-12-|
A|---------------------------------------|-----------------------------------------|
E|---------------------------------------|-----------------------------------------|


G|---------------------------------------|-----------------------------------------|
D|-14--12-11-12--0---20-19-20--19-17-19--|-17-16-17--15-14-15--12-11-12--0---14-12-|
A|---------------------------------------|-----------------------------------------|
E|---------------------------------------|-----------------------------------------|


G|---------------------------------------|-----------------------------------------|
D|-14--0---15-14-15--17-15-17--15-14-15--|-14-12-14--12-11-12--0---20-19-20--19-17-|
A|---------------------------------------|-----------------------------------------|
E|---------------------------------------|-----------------------------------------|


G|---------------------------------------|-----------------------------------------|
D|-19--17-16-17--15-14-15--12-11-12--0---|-14-12-14--0---15-14-15--17-15-17--15-14-|
A|---------------------------------------|-----------------------------------------|
E|---------------------------------------|-----------------------------------------|


G|---------------------------------------|-----------------------------------------|
D|-15--14-12-14--12-11-12--0---20-19-20--|-19-17-19--17-16-17--15-14-15------------|
A|---------------------------------------|-----------------------------------------|
E|---------------------------------------|-------------------------------5---5--5--|


G|---------------------------------------|-------------------------------------|-----------------------------------|
D|---------------------------------------|-------------------------------------|-----------------------------------|
A|---------------------------------------|-----4-------------------------------|---------4---5---7---8---7---7--7--|
E|-5---5--5--6---3---5---5--5--5---5--5--|-6-------5---5--5--5---5--5--6---3---|-5---6-----------------------------|


G|---------------------------------------|-------------------------------------|-----------------------------------|
D|---------------------------------------|-----6-------------------------------|---------6---7---9---10------------|
A|-7---7--7--8---5---7---7--7--7---7--7--|-8-------7---7--7--7---7--7--8---5---|-7---8-----------------------------|
E|---------------------------------------|-------------------------------------|-------------------------5---5--5--|


G|---------------------------------------|-------------------------------------|-----------------------------------|
D|---------------------------------------|-------------------------------------|-----------------------------------|
A|---------------------------------------|-----4-------------------------------|---------4---5---7---8---7---7--7--|
E|-5---5--5--6---3---5---5--5--5---5--5--|-6-------5---5--5--5---5--5--6---3---|-5---6-----------------------------|


G|---------------------------------------|-------------------------------------|-----------------------------------|
D|---------------------------------------|-----6-------------------------------|---------6---7---9---10------------|
A|-7---7--7--8---5---7---7--7--7---7--7--|-8-------7---7--7--7---7--7--8---5---|-7---8-----------------------------|
E|---------------------------------------|-------------------------------------|-------------------------5---5--5--|


G|---------------------------------------|-------------------------------------|-----------------------------------|
D|---------------------------------------|-------------------------------------|-----------------------------------|
A|---------------------------------------|-----4-------------------------------|---------4---5---7---8---7---7--7--|
E|-5---5--5--6---3---5---5--5--5---5--5--|-6-------5---5--5--5---5--5--6---3---|-5---6-----------------------------|


G|---------------------------------------|-------------------------------------|-----------------------------------|
D|---------------------------------------|-----6-------------------------------|---------6---7---9---10------------|
A|-7---7--7--8---5---7---7--7--7---7--7--|-8-------7---7--7--7---7--7--8---5---|-7---8-------------------12--12-12-|
E|---------------------------------------|-------------------------------------|-----------------------------------|


G|---------------------------------------|-----------------------------------------|
D|-----------------------------11-12-11--|-----------------------------------------|
A|-12--12-12-13--10--12-13-12------------|-12-10-12--12--13-12-10--12-10-12--13-12-|
E|---------------------------------------|-----------------------------------------|


G|----------------------------------|---------------------------------------|---------------------------------------|
D|-15-14-12--11--12--14-------------|---------------------------------------|---------------------------------------|
A|----------------------------------|-----------------------------11-11-12--|-11----11--------------------------15--|
E|------------------------12--12-12-|-12--12-12-13--10--12-12-13------------|----13-----12--12-12-12--12-12-13------|


G|-----------------------------------------|------------------------------------|-----------------------------------------|
D|-----------------------------------------|----------------11----11--12-11-12--|-11----11--------------------------15-14-|
A|-13-15-15--14-12-14--12-11-12--12-10-12--|-12--13-12-13------13---------------|----13-----13-12-13--12-10-12------------|
E|-----------------------------------------|------------------------------------|-----------------------------------------|


G|------------------------------------|------------------------------------|-----------------------------------------|
D|-15--14-12-14--12-11-12-------------|------------------------------------|-----------------------------------------|
A|------------------------------------|----------------11----11--12-11-12--|-11----11--------------------------15-14-|
E|--------------------------12-10-12--|-12--13-12-13------13---------------|----13-----13-12-13--12-10-12------------|


G|---------------------------------------|---------------------------------------|
D|-----------------------------12-11-12--|-0---14-12-14--0---15-14-15--17-15-17--|
A|-15--14-12-14--12-11-12---12-----------|---------------------------------------|
E|---------------------------------------|---------------------------------------|


G|-----------------------------------------|-----------------------------------------|
D|-15-14-15--14-12-14--12-11-12--0---20-19-|-20--19-17-19--17-16-17--15-14-15--12-11-|
A|-----------------------------------------|-----------------------------------------|
E|-----------------------------------------|-----------------------------------------|


G|---------------------------------------|---------------------------------------|
D|-12--0---14-12-14--0---15-14-15--17-15-|-17--15-14-15--14-12-14--12-11-12--0---|
A|---------------------------------------|---------------------------------------|
E|---------------------------------------|---------------------------------------|


G|-----------------------------------------|-7-----9-----10---|-----------5----7----|
D|-20-19-20--19-17-19--17-16-17--15-14-15--|------------------|-5----7--------------|
A|-----------------------------------------|------------------|---------------------|
E|-----------------------------------------|------------------|---------------------|


G|------------------------|-----7-----9-----10--|---------------5----7---|------------------------|
D|-----8---8----7----5----|---------------------|-----5----7-------------|------8---8----7----5---|
A|------------------------|-8-------------------|------------------------|------------------------|
E|------------------------|---------------------|------------------------|------------------------|


G|---------------------|------------------------|-----------------------------------------------|
D|---------------------|------------------------|-----------------8--8--------7--7--------5--5--|
A|-----8----5-----3----|--------------------3---|-----5--5--5--5--------5--5--------5--5--------|
E|---------------------|-----5----3----5--------|-----------------------------------------------|


G|----------------------------|------------------------|----------------------------------|
D|-------3--3-----------------|------------------------|--------------8--7--8---7--5--7---|
A|-5--5--------3---5-----3----|--------------------3---|-----5----------------------------|
E|----------------------------|-----5----3----5--------|----------------------------------|


G|-----------------------------------------|-----------------------------|---------------------------|
D|-5-----5---------------------------------|-----------------------------|---------------------------|
A|----8------8--7--8---7--5--7---5-----5---|-------4---0-----------------|-----0---0-----------------|
E|----------------------------------8------|-8--6------------------------|---------------------------|


G|------------------------------------------|-------------2--2--2--2--0--0--0--2--2--3--2-----|
D|------0--0--0--0--2--2--2--2--3--3--3--3--|-2--2--2--2-----------------------------------3--|
A|------------------------------------------|-------------------------------------------------|
E|------------------------------------------|-------------------------------------------------|


G|-----------------------------|---------------------------|------------------------------------------|
D|-2--0------------------------|---------------------------|------0--0--0--0--2--2--2--2--3--3--3--3--|
A|-------0---0-----------------|-1---0---0-----------------|------------------------------------------|
E|-----------------------------|---------------------------|------------------------------------------|


G|-------------2--2--2--2--0--0--0--2--2--3--2-----|-------------------------------------------|
D|-2--2--2--2-----------------------------------3--|-2--0--------------7--7--------5--5--------|
A|-------------------------------------------------|-------0---0---0---------0--0--------0--0--|
E|-------------------------------------------------|-------------------------------------------|


G|-----------------------------------------|------------------------------------------|
D|-3---------------7--7--------5--5--------|-3----0--0--0--0--2--2--2--2--3--3--3--3--|
A|-----0---0---0---------0--0--------0--0--|------------------------------------------|
E|-----------------------------------------|------------------------------------------|


G|-------------2--2--2--2--0--0--0--2--2--3--2-----|-------------------------------------------|
D|-2--2--2--2-----------------------------------3--|-2--0--------------7--7--------5--5--------|
A|-------------------------------------------------|-------0---0---0---------0--0--------0--0--|
E|-------------------------------------------------|-------------------------------------------|


G|-----------------------------------------|------------------------------------------|
D|-3---------------7--7--------5--5--------|-3----0--0--0--0--2--2--2--2--3--3--3--3--|
A|-----0---0---0---------0--0--------0--0--|------------------------------------------|
E|-----------------------------------------|------------------------------------------|


G|-------------2--2--2--2--0-----|------0-----2--3--2-----|---------------------------------------|
D|-2--2--2--2--------------------|---------------------3--|-2--0----------------------------------|
A|-------------------------------|------------------------|-------0---0---0---0---0--0--0---0--0--|
E|-------------------------------|------------------------|---------------------------------------|


G|----------------------2--3--2-----|---------------------------------------|----------------------2--3--2-----|
D|-------------------------------3--|-0--2----------------------------------|-2---1---1---1---1-------------3--|
A|-0---1---1---1---1----------------|-------0---0---0---0---0--0--0---0--0--|----------------------------------|
E|----------------------------------|---------------------------------------|----------------------------------|


G|---------------------------------------|----------------------2--3--2-----|---------------------------------------|
D|-0--2----------------------------------|-------------------------------3--|-0--2----------------------------------|
A|-------0---0---0---0---0--0--0---0--0--|-0---1---1---1---1----------------|-------0---0---0---0---0--0--0---0--0--|
E|---------------------------------------|----------------------------------|---------------------------------------|


G|----------------------2--3--2-----|---------------------------------------|----------------------2--3--2-----|
D|-2---1---1---1---1-------------3--|-0--2----------------------------------|-------------------------------3--|
A|----------------------------------|-------0---0---0---0---0--0--0---0--0--|-0---1---1---1---1----------------|
E|----------------------------------|---------------------------------------|----------------------------------|


G|---------------------------------------|----------------------2--3--2-----|---------------------------------------|
D|-0--2----------------------------------|-2---1---1---1---1-------------3--|-0--2----------------------------------|
A|-------0---0---0---0---0--0--0---0--0--|----------------------------------|-------0---0---0---0---0--0--0---0--0--|
E|---------------------------------------|----------------------------------|---------------------------------------|


G|----------------------2--3--2-----|---------------------------------------|----------------------2--3--2-----|
D|-------------------------------3--|-0--2----------------------------------|-2---1---1---1---1-------------3--|
A|-0---1---1---1---1----------------|-------0---0---0---0---0--0--0---0--0--|----------------------------------|
E|----------------------------------|---------------------------------------|----------------------------------|


G|------------------------------------|------------------------------|----------------------------------|
D|-0--2-------------------------------|------------------------------|----------------------------------|
A|-------0----------------------------|--------------5----3--5---3---|----------------------------------|
E|-----------3----3---3--3--3---3--3--|-3---4---4--------------------|-6---4---3----3---3--3--3---3--3--|


G|------------------------------|-----------------------------|--------------------------------|
D|--------------5----3--5---3---|---------5-------------------|--------------------------------|
A|-----4---4--------------------|-6---4-----------------------|------------------------5----3--|
E|-3----------------------------|--------------3----3---3--3--|-3---3--3--3---4---4------------|


G|--------------------------------|--------------------------------|---------------------------|
D|--------------------------------|------------------------5----3--|-5---3-----------5---------|
A|-5---3--------------------------|---------------4---4------------|---------6---4-------------|
E|---------6---4---3----3---3--3--|-3---3--3--3--------------------|----------------------3----|


G|----------------------------------|------------------------------|----------------------------------|
D|----------------------------------|------------------------------|----------------------------------|
A|----------------------------------|-5----3--5---3----------------|-------------------------4---4----|
E|-3---3--3--3---3--3--3---4---4----|-----------------6---4---3----|-3---3--3--3---3--3--3------------|


G|------------------------------|----------------------------------|------------------------------|
D|-5----3--5---3-----------5----|----------------------------------|------------------------------|
A|-----------------6---4--------|----------------------------------|------5----3--5---3-----------|
E|------------------------------|-3----3---3--3--3---3--3--3---4---|-4--------------------6---4---|


G|----------------------------------|------------------------------|-----------------------------|
D|----------------------------------|------5----3--5---3-----------|-5----7----7----7--7---7--7--|
A|------------------------------4---|-4--------------------6---4---|-----------------------------|
E|-3----3---3--3--3---3--3--3-------|------------------------------|-----------------------------|


G|-----------------------------5---|-5---7---7----7----7--7----7--|-7---5--7--8---7---5--5--7-------7---|
D|-7---8---8---8---8---8---8-------|------------------------------|-----------------------------8-------|
A|---------------------------------|------------------------------|-------------------------------------|
E|---------------------------------|------------------------------|-------------------------------------|


G|---------------------------------------|--------------------------------------|-------------------------------7--5-----5--------|
D|-8---7-----------------------8---7--5--|-7-----------------7--10--7--8-----7--|-5-----------------5--7--8--8--------8-----8--7--|
A|---------5---5---5---5---5-------------|------5---6--8--9---------------------|-----8---7---8--8--------------------------------|
E|---------------------------------------|--------------------------------------|-------------------------------------------------|


G|--------------------5--7---3--0--3--0--5--0--5--|-0--3--5--7--3--0--3--5--7--3--0--3--5-----------|
D|-5--5------7--7--8------------------------------|-----------------------------------------3-------|
A|-------8----------------------------------------|---------------------------------------------6---|
E|------------------------------------------------|-------------------------------------------------|


G|-----------------|--------|--------|-------------|---------------------5--4---------------|
D|-----------------|--------|--------|-------------|---------------7--6--------3------------|
A|-5----5----------|--------|--------|-------------|---------5--8-----------------4--4------|
E|-----------------|--------|--------|-------------|------5---------------------------------|


G|----------------|----------------5--4---------------------------|--------------------|
D|----------------|----------7--6-----------------------7-----6---|-6---------------7--|
A|-4--------------|----5--8-----------------5-----8---------------|-----------5--8-----|
E|----------------|-5---------------------------------------------|--------5-----------|


G|----5--4----------------------------|----------------------5--4-----|-------------------------------|
D|-6--------3-------------------------|----------------7--6-----------|-------------7-----6-----------|
A|-------------4--4------4------------|----------5--8-----------------|-5-----8-----------------------|
E|------------------------------------|-------5-----------------------|-------------------------------|


G|------------------------------------|-------------------------------------------|
D|------------------------------------|-------------------------------------------|
A|------7----7---7---7---7---7----7---|-7---7---7---5----5---5---5---5---5----5---|
E|------------------------------------|-------------------------------------------|


G|-------------------------------------------|-----------------------------------|
D|-------------------------------------------|----------------------7------------|
A|-5---5---5---8--------------------7----7---|-------------8---8---------6---6---|
E|------------------8---8---8---8------------|-7---7---7-------------------------|


G|------------------------5--4-----9---9---9---|-9---9---9---10--10--10--10--10--10--12--12--12--|
D|------------------7--6--------3--------------|-------------------------------------------------|
A|-----6------5--8-----------------------------|-------------------------------------------------|
E|---------5-----------------------------------|-------------------------------------------------|


G|-12--12--12--14--14--14--14--14--14--15--15--15--|-15--15--15--14--14--14--14---17--17--17--|
D|-------------------------------------------------|------------------------------------------|
A|-------------------------------------------------|------------------------------------------|
E|-------------------------------------------------|------------------------------------------|


G|-17---20--20--20---20---------------|-------------------------------------------------|
D|------------------------------------|-------------------------------------------------|
A|------------------------------------|-------------------------------------------------|
E|------------------------0---0---0---|-0---0---0---0---0---0---0---0---0---0---0---0---|


G|-------------------------------------------------|-------------------------------------------------|
D|-------------------------------------------------|-------------------------------------------------|
A|-------------------------------------------------|-------------------------------------------------|
E|-0---0---0---0---0---0---0---0---0---0---0---0---|-0---0---0---0---0---0---0---0---0---0---0---0---|


G|-------------------------------------------------|-------------------------------------------------|
D|-------------9---9---9---------------------------|-------------------------------------------------|
A|-------------------------7---7---7---------------|-------------------------------------------------|
E|-0---0---0---------------------------0---0---0---|-0---0---0---0---0---0---0---0---0---0---0---0---|


G|-------------------------------------------------|-------------------------------------------------|
D|-------------------------------------------------|-------------------------------------------------|
A|-------------------------------------------------|-------------------------------------------------|
E|-0---0---0---0---0---0---0---0---0---0---0---0---|-0---0---0---0---0---0---0---0---0---0---0---0---|


G|-------------------------------------------------|-------------------------------------------------|
D|-------------9---9---9---------------------------|-------------------------------------------------|
A|-------------------------7---7---7---7---7---7---|-7---7---7---7---7---7---7---7---7---9---9---9---|
E|-0---0---0---------------------------------------|-------------------------------------------------|


G|-------------------------------------------------|-------------------------------------------------|
D|-------------------------------------------------|-------------------------------------8---8---8---|
A|-9---9---9---9---9---9---9---9---9---8---8---8---|-8---8---8---8---8---8---8---8---8---------------|
E|-------------------------------------------------|-------------------------------------------------|


G|------------------------------9---9---9---|-9---9---9---9---9---9---9---9---9---11--11--11--|
D|-8---8---8---7---7---7---7----------------|-------------------------------------------------|
A|------------------------------------------|-------------------------------------------------|
E|------------------------------------------|-------------------------------------------------|


G|-11--11--11--11--11--11--11--11--11--10--10--10--|-10--10--10--10--10--10--10--10--10--------------|
D|-------------------------------------------------|-------------------------------------8---8---8---|
A|-------------------------------------------------|-------------------------------------------------|
E|-------------------------------------------------|-------------------------------------------------|


G|------------------------------------------|-------------------------------------------------|
D|-8---8---8---7---7---7---7----------------|-------------------------------------------------|
A|------------------------------7---7---7---|-7---7---7---7---7---7---7---7---7---5---5---5---|
E|------------------------------------------|-------------------------------------------------|


G|-------------------------------------------------|-------------------------------------------------|
D|-------------------------------------------------|-------------------------------------8---8---8---|
A|-5---5---5---5---5---5---5---5---5---8---8---8---|-8---8---8---8---8---8---8---8---8---------------|
E|-------------------------------------------------|-------------------------------------------------|


G|-------------------------------------------------|-------------------------------------------------|
D|-8---8---8---7---7---7---7---7---7---------------|-------------------------------------------------|
A|-------------------------------------7---7---7---|-7---7---7---7---7---7---7---7---7---5---5---5---|
E|-------------------------------------------------|-------------------------------------------------|


G|-------------------------------------------------|-------------------------------------------------|
D|-------------------------------------------------|-------------------------------------8---8---8---|
A|-5---5---5---5---5---5---5---5---5---8---8---8---|-8---8---8---8---8---8---8---8---8---------------|
E|-------------------------------------------------|-------------------------------------------------|


G|-------------------------------------------------|-------------------------------------------------|
D|-8---8---8---7---7---7---7---7---7---------------|-------------------------------------------------|
A|-------------------------------------7---7---7---|-7---7---7---7---7---7---7---7---7---5---5---5---|
E|-------------------------------------------------|-------------------------------------------------|


G|-------------------------------------------------|-------------------------------------------------|
D|-------------------------------------------------|-------------------------------------8---8---8---|
A|-5---5---5---5---5---5---5---5---5---8---8---8---|-8---8---8---8---8---8---8---8---8---------------|
E|-------------------------------------------------|-------------------------------------------------|


G|-------------------------------------------------|-------------------------------------------------|
D|-8---8---8---7---7---7---7---7---7---------------|-------------------------------------------------|
A|-------------------------------------7---7---7---|-7---7---7---7---7---7---7---7---7---5---5---5---|
E|-------------------------------------------------|-------------------------------------------------|


G|-------------------------------------------------|-------------------------------------------------|
D|-------------------------------------------------|-------------------------------------8---8---8---|
A|-5---5---5---5---5---5---5---5---5---8---8---8---|-8---8---8---8---8---8---8---8---8---------------|
E|-------------------------------------------------|-------------------------------------------------|


G|-------------------------------------------------|-------------------------------------------------|
D|-8---8---8---7---7---7---7---7---7---------------|-------------------------------------------------|
A|-------------------------------------7---7---7---|-7---7---7---7---7---7---7---7---7---5---5---5---|
E|-------------------------------------------------|-------------------------------------------------|


G|-------------------------------------------------|-------------------------------------------------|
D|-------------------------------------------------|-------------------------------------8---8---8---|
A|-5---5---5---5---5---5---5---5---5---8---8---8---|-8---8---8---8---8---8---8---8---8---------------|
E|-------------------------------------------------|-------------------------------------------------|


G|-------------------------------------------------|-------------------------------------------------|
D|-8---8---8---7---7---7---7---7---7---------------|-------------------------------------------------|
A|-------------------------------------7---7---7---|-7---7---7---7---7---7---7---7---7---5---5---5---|
E|-------------------------------------------------|-------------------------------------------------|


G|-------------------------------------------------|-------------------------------------------------|
D|-------------------------------------------------|-------------------------------------8---8---8---|
A|-5---5---5---5---5---5---5---5---5---8---8---8---|-8---8---8---8---8---8---8---8---8---------------|
E|-------------------------------------------------|-------------------------------------------------|


G|---------------------------------------------|---------------------------------|
D|-8---8---8---7---7---7---7---7---7-----------|---------------------------------|
A|-------------------------------------7-------|-7-------7---5---7-------7-------|
E|---------------------------------------------|---------------------------------|


G|---------------------------------|-----------------------------------|---------------------------------------|
D|---------------------------------|-------------------------12-11-12--|-0---14-12-14--0---15-14-15--17-15-17--|
A|-7---8---7-------7-------7---5---|-7-------7-------7---8-------------|---------------------------------------|
E|---------------------------------|-----------------------------------|---------------------------------------|


G|-----------------------------------------|-----------------------------------------|
D|-15-14-15--14-12-14--12-11-12--0---20-19-|-20--19-17-19--17-16-17--15-14-15--12-11-|
A|-----------------------------------------|-----------------------------------------|
E|-----------------------------------------|-----------------------------------------|


G|---------------------------------------|---------------------------------------|
D|-12--0---14-12-14--0---15-14-15--17-15-|-17--15-14-15--14-12-14--12-11-12--0---|
A|---------------------------------------|---------------------------------------|
E|---------------------------------------|---------------------------------------|


G|-----------------------------------------|------------------------------------|-----------------|
D|-20-19-20--19-20-19--17----17------------|------------------------------------|-----------------|
A|------------------------20-----20-19-20--|-19-17-19--17-16-17--16----16-------|------6-----5----|
E|-----------------------------------------|------------------------19-----5----|-----------------|


G|------------------------|----5--4----------------------------|
D|---------------------7--|-6--------3-------------------------|
A|---------------5--8-----|-------------4--4------4------------|
E|------4-----5-----------|------------------------------------|





Track 4: Untitled

G|--------|--------|--------|--------|--------|--------|--------|--------|--------|
D|--------|--------|--------|--------|--------|--------|--------|--------|--------|
A|--------|--------|--------|--------|--------|--------|--------|--------|--------|
E|--------|--------|--------|--------|--------|--------|--------|--------|--------|


G|--------|--------|--------|--------|--------|--------|--------|--------|--------|
D|--------|--------|--------|--------|--------|--------|--------|--------|--------|
A|--------|--------|--------|--------|--------|--------|--------|--------|--------|
E|--------|--------|--------|--------|--------|--------|--------|--------|--------|


G|--------|--------|--------|--------|--------|--------|--------|--------|--------|
D|--------|--------|--------|--------|--------|--------|--------|--------|--------|
A|--------|--------|--------|--------|--------|--------|--------|--------|--------|
E|--------|--------|--------|--------|--------|--------|--------|--------|--------|


G|--------|--------|--------|--------|--------|--------|--------|--------|--------|
D|--------|--------|--------|--------|--------|--------|--------|--------|--------|
A|--------|--------|--------|--------|--------|--------|--------|--------|--------|
E|--------|--------|--------|--------|--------|--------|--------|--------|--------|


G|--------|--------|--------|--------|--------|--------|--------|--------|--------|
D|--------|--------|--------|--------|--------|--------|--------|--------|--------|
A|--------|--------|--------|--------|--------|--------|--------|--------|--------|
E|--------|--------|--------|--------|--------|--------|--------|--------|--------|


G|--------|--------|--------|--------|--------|--------|--------|--------|--------|
D|--------|--------|--------|--------|--------|--------|--------|--------|--------|
A|--------|--------|--------|--------|--------|--------|--------|--------|--------|
E|--------|--------|--------|--------|--------|--------|--------|--------|--------|


G|--------|--------|--------|--------|--------|--------|--------|--------|--------|
D|--------|--------|--------|--------|--------|--------|--------|--------|--------|
A|--------|--------|--------|--------|--------|--------|--------|--------|--------|
E|--------|--------|--------|--------|--------|--------|--------|--------|--------|


G|--------|--------|--------|--------|--------|--------|--------|--------|--------|
D|--------|--------|--------|--------|--------|--------|--------|--------|--------|
A|--------|--------|--------|--------|--------|--------|--------|--------|--------|
E|--------|--------|--------|--------|--------|--------|--------|--------|--------|


G|--------|--------|--------|--------|--------|--------|--------|--------|--------|
D|--------|--------|--------|--------|--------|--------|--------|--------|--------|
A|--------|--------|--------|--------|--------|--------|--------|--------|--------|
E|--------|--------|--------|--------|--------|--------|--------|--------|--------|


G|--------|--------|--------|--------|--------|--------|--------|--------|--------|
D|--------|--------|--------|--------|--------|--------|--------|--------|--------|
A|--------|--------|--------|--------|--------|--------|--------|--------|--------|
E|--------|--------|--------|--------|--------|--------|--------|--------|--------|


G|--------|--------|--------|--------|--------|--------|--------|--------|--------|
D|--------|--------|--------|--------|--------|--------|--------|--------|--------|
A|--------|--------|--------|--------|--------|--------|--------|--------|--------|
E|--------|--------|--------|--------|--------|--------|--------|--------|--------|


G|--------|--------|--------|--------|--------|--------|--------|--------|--------|
D|--------|--------|--------|--------|--------|--------|--------|--------|--------|
A|--------|--------|--------|--------|--------|--------|--------|--------|--------|
E|--------|--------|--------|--------|--------|--------|--------|--------|--------|


G|--------|--------|--------|-------------|-------------|--------|--------|-------------|
D|--------|--------|--------|-------------|-------------|--------|--------|-------------|
A|--------|--------|--------|-------------|-------------|--------|--------|-------------|
E|--------|--------|--------|-------------|-------------|--------|--------|-------------|


G|-------------|--------|--------|-------------|-------------|--------|--------|--------|
D|-------------|--------|--------|-------------|-------------|--------|--------|--------|
A|-------------|--------|--------|-------------|-------------|--------|--------|--------|
E|-------------|--------|--------|-------------|-------------|--------|--------|--------|


G|--------|--------|--------|--------|--------|--------|--------|--------|--------|
D|--------|--------|--------|--------|--------|--------|--------|--------|--------|
A|--------|--------|--------|--------|--------|--------|--------|--------|--------|
E|--------|--------|--------|--------|--------|--------|--------|--------|--------|


G|--------|--------|--------|--------|--------|--------|--------|--------|--------|
D|--------|--------|--------|--------|--------|--------|--------|--------|--------|
A|--------|--------|--------|--------|--------|--------|--------|--------|--------|
E|--------|--------|--------|--------|--------|--------|--------|--------|--------|


G|--------|--------|--------|--------|--------|--------|--------|--------|--------|
D|--------|--------|--------|--------|--------|--------|--------|--------|--------|
A|--------|--------|--------|--------|--------|--------|--------|--------|--------|
E|--------|--------|--------|--------|--------|--------|--------|--------|--------|


G|--------|--------|--------|--------|--------|--------|--------|--------|--------|
D|--------|--------|--------|--------|--------|--------|--------|--------|--------|
A|--------|--------|--------|--------|--------|--------|--------|--------|--------|
E|--------|--------|--------|--------|--------|--------|--------|--------|--------|


G|--------|--------|--------|--------|--------|--------|--------|--------|--------|
D|--------|--------|--------|--------|--------|--------|--------|--------|--------|
A|--------|--------|--------|--------|--------|--------|--------|--------|--------|
E|--------|--------|--------|--------|--------|--------|--------|--------|--------|


G|--------|--------|--------|--------|--------|--------|--------|--------|--------|
D|--------|--------|--------|--------|--------|--------|--------|--------|--------|
A|--------|--------|--------|--------|--------|--------|--------|--------|--------|
E|--------|--------|--------|--------|--------|--------|--------|--------|--------|


G|--------|--------|--------|--------|--------|--------|--------|--------|--------|
D|--------|--------|--------|--------|--------|--------|--------|--------|--------|
A|--------|--------|--------|--------|--------|--------|--------|--------|--------|
E|--------|--------|--------|--------|--------|--------|--------|--------|--------|


G|--------|--------|--------|--------|--------|--------|--------|--------|--------|
D|--------|--------|--------|--------|--------|--------|--------|--------|--------|
A|--------|--------|--------|--------|--------|--------|--------|--------|--------|
E|--------|--------|--------|--------|--------|--------|--------|--------|--------|


G|--------|--------|--------|--------|--------|--------|--------|--------|--------|
D|--------|--------|--------|--------|--------|--------|--------|--------|--------|
A|--------|--------|--------|--------|--------|--------|--------|--------|--------|
E|--------|--------|--------|--------|--------|--------|--------|--------|--------|


G|--------|--------|--------|
D|--------|--------|--------|
A|--------|--------|--------|
E|--------|--------|--------|





Track 5: Solo2

G|--------|--------|--------|--------|--------|--------|--------|--------|--------|
D|--------|--------|--------|--------|--------|--------|--------|--------|--------|
A|--------|--------|--------|--------|--------|--------|--------|--------|--------|
E|--------|--------|--------|--------|--------|--------|--------|--------|--------|


G|--------|--------|--------|--------|--------|--------|--------|--------|--------|
D|--------|--------|--------|--------|--------|--------|--------|--------|--------|
A|--------|--------|--------|--------|--------|--------|--------|--------|--------|
E|--------|--------|--------|--------|--------|--------|--------|--------|--------|


G|--------|--------|--------|--------|--------|--------|--------|--------|--------|
D|--------|--------|--------|--------|--------|--------|--------|--------|--------|
A|--------|--------|--------|--------|--------|--------|--------|--------|--------|
E|--------|--------|--------|--------|--------|--------|--------|--------|--------|


G|--------|--------|--------|--------|--------|--------|--------|--------|--------|
D|--------|--------|--------|--------|--------|--------|--------|--------|--------|
A|--------|--------|--------|--------|--------|--------|--------|--------|--------|
E|--------|--------|--------|--------|--------|--------|--------|--------|--------|


G|--------|--------|--------|--------|--------|--------|--------|--------|--------|
D|--------|--------|--------|--------|--------|--------|--------|--------|--------|
A|--------|--------|--------|--------|--------|--------|--------|--------|--------|
E|--------|--------|--------|--------|--------|--------|--------|--------|--------|


G|--------|--------|--------|--------|--------|--------|--------|--------|--------|
D|--------|--------|--------|--------|--------|--------|--------|--------|--------|
A|--------|--------|--------|--------|--------|--------|--------|--------|--------|
E|--------|--------|--------|--------|--------|--------|--------|--------|--------|


G|--------|--------|--------|--------|--------|--------|--------|--------|--------|
D|--------|--------|--------|--------|--------|--------|--------|--------|--------|
A|--------|--------|--------|--------|--------|--------|--------|--------|--------|
E|--------|--------|--------|--------|--------|--------|--------|--------|--------|


G|--------|--------|--------|--------|--------|--------|--------|--------|--------|
D|--------|--------|--------|--------|--------|--------|--------|--------|--------|
A|--------|--------|--------|--------|--------|--------|--------|--------|--------|
E|--------|--------|--------|--------|--------|--------|--------|--------|--------|


G|--------|--------|--------|--------|--------|--------|--------|--------|--------|
D|--------|--------|--------|--------|--------|--------|--------|--------|--------|
A|--------|--------|--------|--------|--------|--------|--------|--------|--------|
E|--------|--------|--------|--------|--------|--------|--------|--------|--------|


G|--------|--------|--------|--------|--------|--------|--------|--------|--------|
D|--------|--------|--------|--------|--------|--------|--------|--------|--------|
A|--------|--------|--------|--------|--------|--------|--------|--------|--------|
E|--------|--------|--------|--------|--------|--------|--------|--------|--------|


G|--------|--------|--------|--------|--------|--------|--------|--------|--------|
D|--------|--------|--------|--------|--------|--------|--------|--------|--------|
A|--------|--------|--------|--------|--------|--------|--------|--------|--------|
E|--------|--------|--------|--------|--------|--------|--------|--------|--------|


G|--------|--------|--------|--------|--------|--------|--------|--------|--------|
D|--------|--------|--------|--------|--------|--------|--------|--------|--------|
A|--------|--------|--------|--------|--------|--------|--------|--------|--------|
E|--------|--------|--------|--------|--------|--------|--------|--------|--------|


G|--------|--------|--------|--------|--------|--------|--------|--------|--------|
D|--------|--------|--------|--------|--------|--------|--------|--------|--------|
A|--------|--------|--------|--------|--------|--------|--------|--------|--------|
E|--------|--------|--------|--------|--------|--------|--------|--------|--------|


G|--------|--------|--------|--------|--------|--------|--------|--------|--------|
D|--------|--------|--------|--------|--------|--------|--------|--------|--------|
A|--------|--------|--------|--------|--------|--------|--------|--------|--------|
E|--------|--------|--------|--------|--------|--------|--------|--------|--------|


G|------14---14---14-14--14-14-|-14--15--15--15--15--15--15--17--|-17--19--19---19---19-19---19-|
D|-----------------------------|---------------------------------|------------------------------|
A|-----------------------------|---------------------------------|------------------------------|
E|-----------------------------|---------------------------------|------------------------------|


G|-19--17-19-20--19--17-17-19------19--|-----------------------------15--14-12-|-14-----------------------14-15----14-|
D|-----------------------------20------|-20--19--12--12--12--12--12------------|------12--13-15-16-19-22--------------|
A|-------------------------------------|---------------------------------------|--------------------------------------|
E|-------------------------------------|---------------------------------------|--------------------------------------|


G|-12----------------12-14-15-15-19-17-15-17-15-14-|-12-12-----14-14-15-17-19--15-12-15-12-17-12-17-|
D|-----15--14--15-15-------------------------------|-------15---------------------------------------|
A|-------------------------------------------------|------------------------------------------------|
E|-------------------------------------------------|------------------------------------------------|


G|-12-15-12-19-15-12-15-17-19-15-12-15-17----------|-----------------|--------|--------|
D|-----------------------------------------15------|-12---12---------|--------|--------|
A|---------------------------------------------18--|-----------------|--------|--------|
E|-------------------------------------------------|-----------------|--------|--------|


G|--------|--------|--------|--------|--------|--------|--------|--------|--------|
D|--------|--------|--------|--------|--------|--------|--------|--------|--------|
A|--------|--------|--------|--------|--------|--------|--------|--------|--------|
E|--------|--------|--------|--------|--------|--------|--------|--------|--------|


G|--------|--------|--------|--------|--------|--------|--------|--------|--------|
D|--------|--------|--------|--------|--------|--------|--------|--------|--------|
A|--------|--------|--------|--------|--------|--------|--------|--------|--------|
E|--------|--------|--------|--------|--------|--------|--------|--------|--------|


G|--------|--------|--------|--------|--------|--------|--------|--------|--------|
D|--------|--------|--------|--------|--------|--------|--------|--------|--------|
A|--------|--------|--------|--------|--------|--------|--------|--------|--------|
E|--------|--------|--------|--------|--------|--------|--------|--------|--------|


G|--------|--------|--------|--------|--------|--------|--------|--------|--------|
D|--------|--------|--------|--------|--------|--------|--------|--------|--------|
A|--------|--------|--------|--------|--------|--------|--------|--------|--------|
E|--------|--------|--------|--------|--------|--------|--------|--------|--------|


G|--------|--------|--------|--------|--------|--------|--------|--------|--------|
D|--------|--------|--------|--------|--------|--------|--------|--------|--------|
A|--------|--------|--------|--------|--------|--------|--------|--------|--------|
E|--------|--------|--------|--------|--------|--------|--------|--------|--------|


G|--------|--------|--------|--------|--------|--------|--------|--------|--------|
D|--------|--------|--------|--------|--------|--------|--------|--------|--------|
A|--------|--------|--------|--------|--------|--------|--------|--------|--------|
E|--------|--------|--------|--------|--------|--------|--------|--------|--------|


G|--------|--------|--------|--------|--------|--------|--------|--------|--------|
D|--------|--------|--------|--------|--------|--------|--------|--------|--------|
A|--------|--------|--------|--------|--------|--------|--------|--------|--------|
E|--------|--------|--------|--------|--------|--------|--------|--------|--------|


G|--------|--------|--------|--------|--------|--------|--------|
D|--------|--------|--------|--------|--------|--------|--------|
A|--------|--------|--------|--------|--------|--------|--------|
E|--------|--------|--------|--------|--------|--------|--------|