Menu:

 

Search:

 

dream theater - the ytse jam:

 



Title: The Ytse Jam
Artist: 
Album: When Dream And Day Unite
Author: Moore, Myung, Petrucci and Portnoy


Track 1: Untitled

E|--------|--------|--------|--------|--------|--------|--------|--------|--------|
B|--------|--------|--------|--------|--------|--------|--------|--------|--------|
G|--------|--------|--------|--------|--------|--------|--------|--------|--------|
D|--------|--------|--------|--------|--------|--------|--------|--------|--------|
A|--------|--------|--------|--------|--------|--------|--------|--------|--------|
E|--------|--------|--------|--------|--------|--------|--------|--------|--------|


E|--------|--------|--------|--------|--------|--------|--------|--------|--------|
B|--------|--------|--------|--------|--------|--------|--------|--------|--------|
G|--------|--------|--------|--------|--------|--------|--------|--------|--------|
D|--------|--------|--------|--------|--------|--------|--------|--------|--------|
A|--------|--------|--------|--------|--------|--------|--------|--------|--------|
E|--------|--------|--------|--------|--------|--------|--------|--------|--------|


E|--------|--------|--------|--------|--------|--------|--------|--------|--------|
B|--------|--------|--------|--------|--------|--------|--------|--------|--------|
G|--------|--------|--------|--------|--------|--------|--------|--------|--------|
D|--------|--------|--------|--------|--------|--------|--------|--------|--------|
A|--------|--------|--------|--------|--------|--------|--------|--------|--------|
E|--------|--------|--------|--------|--------|--------|--------|--------|--------|


E|--------|--------|--------|--------|--------|--------|--------|--------|--------|
B|--------|--------|--------|--------|--------|--------|--------|--------|--------|
G|--------|--------|--------|--------|--------|--------|--------|--------|--------|
D|--------|--------|--------|--------|--------|--------|--------|--------|--------|
A|--------|--------|--------|--------|--------|--------|--------|--------|--------|
E|--------|--------|--------|--------|--------|--------|--------|--------|--------|


E|--------|--------|--------|--------|--------|--------|--------|--------|--------|
B|--------|--------|--------|--------|--------|--------|--------|--------|--------|
G|--------|--------|--------|--------|--------|--------|--------|--------|--------|
D|--------|--------|--------|--------|--------|--------|--------|--------|--------|
A|--------|--------|--------|--------|--------|--------|--------|--------|--------|
E|--------|--------|--------|--------|--------|--------|--------|--------|--------|


E|--------|--------|--------|--------|--------|--------|--------|--------|--------|
B|--------|--------|--------|--------|--------|--------|--------|--------|--------|
G|--------|--------|--------|--------|--------|--------|--------|--------|--------|
D|--------|--------|--------|--------|--------|--------|--------|--------|--------|
A|--------|--------|--------|--------|--------|--------|--------|--------|--------|
E|--------|--------|--------|--------|--------|--------|--------|--------|--------|


E|--------|--------|--------|--------|--------|--------|--------|--------|--------|
B|--------|--------|--------|--------|--------|--------|--------|--------|--------|
G|--------|--------|--------|--------|--------|--------|--------|--------|--------|
D|--------|--------|--------|--------|--------|--------|--------|--------|--------|
A|--------|--------|--------|--------|--------|--------|--------|--------|--------|
E|--------|--------|--------|--------|--------|--------|--------|--------|--------|


E|--------|--------|--------|--------|--------|--------|--------|--------|--------|
B|--------|--------|--------|--------|--------|--------|--------|--------|--------|
G|--------|--------|--------|--------|--------|--------|--------|--------|--------|
D|--------|--------|--------|--------|--------|--------|--------|--------|--------|
A|--------|--------|--------|--------|--------|--------|--------|--------|--------|
E|--------|--------|--------|--------|--------|--------|--------|--------|--------|


E|--------|--------|--------|--------|--------|--------|--------|--------|--------|
B|--------|--------|--------|--------|--------|--------|--------|--------|--------|
G|--------|--------|--------|--------|--------|--------|--------|--------|--------|
D|--------|--------|--------|--------|--------|--------|--------|--------|--------|
A|--------|--------|--------|--------|--------|--------|--------|--------|--------|
E|--------|--------|--------|--------|--------|--------|--------|--------|--------|


E|--------|--------|--------|--------|--------|--------|--------|--------|--------|
B|--------|--------|--------|--------|--------|--------|--------|--------|--------|
G|--------|--------|--------|--------|--------|--------|--------|--------|--------|
D|--------|--------|--------|--------|--------|--------|--------|--------|--------|
A|--------|--------|--------|--------|--------|--------|--------|--------|--------|
E|--------|--------|--------|--------|--------|--------|--------|--------|--------|


E|--------|--------|--------|--------|--------|--------|--------|--------|--------|
B|--------|--------|--------|--------|--------|--------|--------|--------|--------|
G|--------|--------|--------|--------|--------|--------|--------|--------|--------|
D|--------|--------|--------|--------|--------|--------|--------|--------|--------|
A|--------|--------|--------|--------|--------|--------|--------|--------|--------|
E|--------|--------|--------|--------|--------|--------|--------|--------|--------|


E|--------|--------|--------|--------|--------|--------|--------|--------|--------|
B|--------|--------|--------|--------|--------|--------|--------|--------|--------|
G|--------|--------|--------|--------|--------|--------|--------|--------|--------|
D|--------|--------|--------|--------|--------|--------|--------|--------|--------|
A|--------|--------|--------|--------|--------|--------|--------|--------|--------|
E|--------|--------|--------|--------|--------|--------|--------|--------|--------|


E|--------|--------|--------|--------|--------|--------|--------|--------|--------|
B|--------|--------|--------|--------|--------|--------|--------|--------|--------|
G|--------|--------|--------|--------|--------|--------|--------|--------|--------|
D|--------|--------|--------|--------|--------|--------|--------|--------|--------|
A|--------|--------|--------|--------|--------|--------|--------|--------|--------|
E|--------|--------|--------|--------|--------|--------|--------|--------|--------|


E|--------|--------|--------|--------|--------|--------|--------|--------|--------|
B|--------|--------|--------|--------|--------|--------|--------|--------|--------|
G|--------|--------|--------|--------|--------|--------|--------|--------|--------|
D|--------|--------|--------|--------|--------|--------|--------|--------|--------|
A|--------|--------|--------|--------|--------|--------|--------|--------|--------|
E|--------|--------|--------|--------|--------|--------|--------|--------|--------|


E|--------|--------|--------|--------|--------|--------|--------|--------|--------|
B|--------|--------|--------|--------|--------|--------|--------|--------|--------|
G|--------|--------|--------|--------|--------|--------|--------|--------|--------|
D|--------|--------|--------|--------|--------|--------|--------|--------|--------|
A|--------|--------|--------|--------|--------|--------|--------|--------|--------|
E|--------|--------|--------|--------|--------|--------|--------|--------|--------|


E|--------|--------|--------|--------|--------|--------|--------|--------|--------|
B|--------|--------|--------|--------|--------|--------|--------|--------|--------|
G|--------|--------|--------|--------|--------|--------|--------|--------|--------|
D|--------|--------|--------|--------|--------|--------|--------|--------|--------|
A|--------|--------|--------|--------|--------|--------|--------|--------|--------|
E|--------|--------|--------|--------|--------|--------|--------|--------|--------|


E|--------|--------|--------|--------|--------|--------|--------|--------|--------|
B|--------|--------|--------|--------|--------|--------|--------|--------|--------|
G|--------|--------|--------|--------|--------|--------|--------|--------|--------|
D|--------|--------|--------|--------|--------|--------|--------|--------|--------|
A|--------|--------|--------|--------|--------|--------|--------|--------|--------|
E|--------|--------|--------|--------|--------|--------|--------|--------|--------|


E|--------|--------|--------|--------|--------|--------|--------|--------|--------|
B|--------|--------|--------|--------|--------|--------|--------|--------|--------|
G|--------|--------|--------|--------|--------|--------|--------|--------|--------|
D|--------|--------|--------|--------|--------|--------|--------|--------|--------|
A|--------|--------|--------|--------|--------|--------|--------|--------|--------|
E|--------|--------|--------|--------|--------|--------|--------|--------|--------|


E|--------|--------|--------|--------|--------|--------|--------|--------|--------|
B|--------|--------|--------|--------|--------|--------|--------|--------|--------|
G|--------|--------|--------|--------|--------|--------|--------|--------|--------|
D|--------|--------|--------|--------|--------|--------|--------|--------|--------|
A|--------|--------|--------|--------|--------|--------|--------|--------|--------|
E|--------|--------|--------|--------|--------|--------|--------|--------|--------|


E|--------|--------|--------|--------|--------|--------|--------|--------|--------|
B|--------|--------|--------|--------|--------|--------|--------|--------|--------|
G|--------|--------|--------|--------|--------|--------|--------|--------|--------|
D|--------|--------|--------|--------|--------|--------|--------|--------|--------|
A|--------|--------|--------|--------|--------|--------|--------|--------|--------|
E|--------|--------|--------|--------|--------|--------|--------|--------|--------|


E|--------|--------|--------|--------|--------|--------|--------|--------|--------|
B|--------|--------|--------|--------|--------|--------|--------|--------|--------|
G|--------|--------|--------|--------|--------|--------|--------|--------|--------|
D|--------|--------|--------|--------|--------|--------|--------|--------|--------|
A|--------|--------|--------|--------|--------|--------|--------|--------|--------|
E|--------|--------|--------|--------|--------|--------|--------|--------|--------|


E|--------|--------|--------|--------|--------|--------|--------|--------|--------|
B|--------|--------|--------|--------|--------|--------|--------|--------|--------|
G|--------|--------|--------|--------|--------|--------|--------|--------|--------|
D|--------|--------|--------|--------|--------|--------|--------|--------|--------|
A|--------|--------|--------|--------|--------|--------|--------|--------|--------|
E|--------|--------|--------|--------|--------|--------|--------|--------|--------|


E|--------|--------|--------|--------|--------|--------|--------|--------|--------|
B|--------|--------|--------|--------|--------|--------|--------|--------|--------|
G|--------|--------|--------|--------|--------|--------|--------|--------|--------|
D|--------|--------|--------|--------|--------|--------|--------|--------|--------|
A|--------|--------|--------|--------|--------|--------|--------|--------|--------|
E|--------|--------|--------|--------|--------|--------|--------|--------|--------|


E|--------|
B|--------|
G|--------|
D|--------|
A|--------|
E|--------|





Track 2: John Myung - Bass

G|-4------|--------|--------|-3------|--------|--------|--------|--------|---------------------------------------|
D|-2------|-3------|-2------|-1------|--------|--------|--------|--------|-12-11-12--0---14-12-14--0---15-14-15--|
A|--------|-1------|-0------|--------|--------|--------|--------|--------|---------------------------------------|
E|--------|--------|--------|--------|--------|--------|--------|--------|---------------------------------------|


G|-----------------------------------------|-----15-14-15--14-12-14------------------|
D|-17-15-17--15-14-15--14-12-14--12-11-12--|-0-----------------------17-15-17--15-14-|
A|-----------------------------------------|-----------------------------------------|
E|-----------------------------------------|-----------------------------------------|


G|---------------------------------------|-----------------------------------------|
D|-15--12-11-12--0---14-12-14--0---15-14-|-15--17-15-17--15-14-15--14-12-14--12-11-|
A|---------------------------------------|-----------------------------------------|
E|---------------------------------------|-----------------------------------------|


G|---------15-14-15--14-12-14------------|---------------------------------------|
D|-12--0-----------------------17-15-17--|-15-14-15--12-11-12--0---14-12-14--0---|
A|---------------------------------------|---------------------------------------|
E|---------------------------------------|---------------------------------------|


G|-----------------------------------------|---------------15-14-15--14-12-14--------|
D|-15-14-15--17-15-17--15-14-15--14-12-14--|-12-11-12--0-----------------------17-15-|
A|-----------------------------------------|-----------------------------------------|
E|-----------------------------------------|-----------------------------------------|


G|---------------------------------------|-----------------------------------------|
D|-17--15-14-15--12-11-12--0---14-12-14--|-0---15-14-15--17-15-17--15-14-15--14-12-|
A|---------------------------------------|-----------------------------------------|
E|---------------------------------------|-----------------------------------------|


G|-------------------15-14-15--14-12-14--|-----------------------------------------|
D|-14--12-11-12--0-----------------------|-17-15-17--15-14-15--12-11-12--0---14-12-|
A|---------------------------------------|-----------------------------------------|
E|---------------------------------------|-----------------------------------------|


G|---------------------------------------|-------------------------15-14-15--14-12-|
D|-14--0---15-14-15--17-15-17--15-14-15--|-14-12-14--12-11-12--0-------------------|
A|---------------------------------------|-----------------------------------------|
E|---------------------------------------|-----------------------------------------|


G|-14------------------------------------|-----------------------------------------|
D|-----17-15-17--15-14-15--12-11-12--0---|-14-12-14--0---15-14-15--17-15-17--15-14-|
A|---------------------------------------|-----------------------------------------|
E|---------------------------------------|-----------------------------------------|


G|-----------------------------15-14-15--|-14-12-14------------------------------|
D|-15--14-12-14--12-11-12--0-------------|-----------17-15-17--15-14-15----------|
A|---------------------------------------|-------------------------------0-------|
E|---------------------------------------|---------------------------------------|


G|---------------------------------|-----------------------------------|-----------------------------------|
D|---------------------------------|-----------------------------------|---------------0---2---3---2-------|
A|-0-------1-------0-------0-------|-1--1--4---0-------0-------1-------|-0--0--1---4-----------------------|
E|-------------3-------------------|-------------------------------3---|-----------------------------------|


G|---------------------------------|-----1---------------------------|---------1---2---4---5-----------|
D|-2-------3---0---2-------2-------|-3-------2-------2-------3---0---|-2---3---------------------------|
A|---------------------------------|---------------------------------|-------------------------0-------|
E|---------------------------------|---------------------------------|---------------------------------|


G|---------------------------------|---------------------------------|---------------------------------|
D|---------------------------------|---------------------------------|-------------0---2---3---2-------|
A|-0-------1-------0-------0-------|-1---4---0-------0-------1-------|-0---1---4-----------------------|
E|-------------3-------------------|-----------------------------3---|---------------------------------|


G|---------------------------------|-----1---------------------------|---------1---2---4---5-----------|
D|-2-------3---0---2-------2-------|-3-------2-------2-------3---0---|-2---3---------------------------|
A|---------------------------------|---------------------------------|-------------------------0-------|
E|---------------------------------|---------------------------------|---------------------------------|


G|---------------------------------|---------------------------------|---------------------------------|
D|---------------------------------|---------------------------------|-------------0---2---3---2-------|
A|-0-------1-------0-------0-------|-1---4---0-------0-------1-------|-0---1---4-----------------------|
E|-------------3-------------------|-----------------------------3---|---------------------------------|


G|---------------------------------|-----1---------------------------|---------1---2---4---5-------------|
D|-2-------3---0---2-------2-------|-3-------2-------2-------3---0---|-2---3-------------------7--6--7---|
A|---------------------------------|---------------------------------|-----------------------------------|
E|---------------------------------|---------------------------------|-----------------------------------|


G|---------------------------------------|-----------------------------------10-9--|
D|-----8--7--8-------11-8--11--12-11-12--|-11-8--11--8--7--8---7--6--7-------------|
A|-0-------------0-----------------------|-------------------------------0---------|
E|---------------------------------------|-----------------------------------------|


G|-10--9--7--9---7--6--7--------------|---------------------------------------|-----------------------------------------|
D|------------------------------------|---------------------------------------|-----------------------------------10-9--|
A|--------------------------7--6--7---|-----8--7--8-------11-8--11--12-11-12--|-11-8--11--8--7--8---7--6--7-------------|
E|------------------------------------|-0-------------0-----------------------|-------------------------------0---------|


G|------------------------------------|---------------------------------------|-----------------------------------10-9--|
D|-10--9--7--9---7--6--7----7--6--7---|-----8--7--8-------11-8--11--12-11-12--|-11-8--11--8--7--8---7--6--7-------------|
A|------------------------------------|-0-------------0-----------------------|-------------------------------0---------|
E|------------------------------------|---------------------------------------|-----------------------------------------|


G|-10--9--7--9---7--6--7--------------|---------------------------------------|-----------------------------------------|
D|------------------------------------|---------------------------------------|-----------------------------------10-9--|
A|--------------------------7--6--7---|-----8--7--8-------11-8--11--12-11-12--|-11-8--11--8--7--8---7--6--7-------------|
E|------------------------------------|-0-------------0-----------------------|-------------------------------0---------|


G|------------------------------------|---------------------------------------|-----------------------------------15-14-|
D|-10--9--7--9---7--6--7----12-11-12--|-0---14-12-14--0---15-14-15--17-15-17--|-15-14-15--14-12-14--12-11-12--0---------|
A|------------------------------------|---------------------------------------|-----------------------------------------|
E|------------------------------------|---------------------------------------|-----------------------------------------|


G|-15--14-12-14----------------------------|---------------------------------------|
D|---------------17-15-17--15-14-15--12-11-|-12--0---14-12-14--0---15-14-15--17-15-|
A|-----------------------------------------|---------------------------------------|
E|-----------------------------------------|---------------------------------------|


G|---------------------------------------|-15-14-15--14-12-14----------------------|
D|-17--15-14-15--14-12-14--12-11-12--0---|---------------------17-15-17--15-14-15--|
A|---------------------------------------|-----------------------------------------|
E|---------------------------------------|-----------------------------------------|


G|------------------|--------------------14--|-14----------14------14------14--|---------------------|
D|-12----14----15---|----------------12------|---------------------------------|-----12----14----15--|
A|------------------|------12---15-----------|-----13--13------12------10------|---------------------|
E|------------------|-15---------------------|---------------------------------|-13------------------|


G|------------------------|-14--14----------15--15--14--14--|-12--15--14-------------|
D|--------------------12--|---------------------------------|-------------0----------|
A|----------12---15-------|---------13--13------------------|-------------------3----|
E|-----15-----------------|---------------------------------|------------------------|


G|------------------------|-----------------------------------------------|----------------------------|
D|------------------------|-----0--0--0--0--8--8--0--0--7--7--0--0--5--5--|-0--0--3--3------0-----2----|
A|-----0--------------3---|-----------------------------------------------|-------------3--------------|
E|----------3----5--------|-----------------------------------------------|----------------------------|


G|-----2----0----2----5---|--------------15-14-15--14-12-14--|-----------------------------------------|
D|------------------------|-----0----------------------------|-17-15-17--15-14-15--14-12-14--12-11-12--|
A|------------------------|----------------------------------|-----------------------------------------|
E|------------------------|----------------------------------|-----------------------------------------|


G|-----------------------------|------------------------------|-------------------------------------|
D|-11-8--11--------------------|------------------------------|-------0--0--0--0--2--2--2--2--3--3--|
A|-----------0---0-------------|---------0---0----------------|-------------------------------------|
E|-----------------------------|------------------------------|-------------------------------------|


G|-------------------2--2--2--2--0--0--0--0--2--3--|-2-----------------------------|
D|-3--3--2--2--2--2--------------------------------|----3--2--0--------------------|
A|-------------------------------------------------|-------------0---0-------------|
E|-------------------------------------------------|-------------------------------|


G|------------------------------|-------------------------------------|-------------------2--2--2--2--0--0--0--0--2--3--|
D|------------------------------|-------0--0--0--0--2--2--2--2--3--3--|-3--3--2--2--2--2--------------------------------|
A|-----1---0---0----------------|-------------------------------------|-------------------------------------------------|
E|------------------------------|-------------------------------------|-------------------------------------------------|


G|-2-------------------------------------------|-------------------------------------------|
D|----3--2--0----------------------------------|-------------------------------------------|
A|-------------0---0---0--0--12-12-0--0--10-10-|-0--0--8---0---0---0--0--12-12-0--0--10-10-|
E|---------------------------------------------|-------------------------------------------|


G|------------------------------------------|-------------------2--2--2--2--0--0--0--0--2--3--|
D|------------0--0--0--0--2--2--2--2--3--3--|-3--3--2--2--2--2--------------------------------|
A|-0--0--8----------------------------------|-------------------------------------------------|
E|------------------------------------------|-------------------------------------------------|


G|-2-------------------------------------------|-------------------------------------------|
D|----3--2--0----------------------------------|-------------------------------------------|
A|-------------0---0---0--0--12-12-0--0--10-10-|-0--0--8---0---0---0--0--12-12-0--0--10-10-|
E|---------------------------------------------|-------------------------------------------|


G|------------------------------------------|-------------------2--2--2--2--0----0---|
D|------------0--0--0--0--2--2--2--2--3--3--|-3--3--2--2--2--2-----------------------|
A|-0--0--8----------------------------------|----------------------------------------|
E|------------------------------------------|----------------------------------------|


G|-------0-----2--3--|-2---------------------------------------|---------------------2--3--|
D|-------------------|----3--2--0------------------------------|---------------------------|
A|-------------------|-------------0---0---0--0--0---0--0--0---|-0--0--0---1---1-----------|
E|-------------------|-----------------------------------------|---------------------------|


G|-2---------------------------------------|---------------------2--3--|-2---------------------------------------|
D|----3--2--0------------------------------|-------2---1---1-----------|----3--2--0------------------------------|
A|-------------0---0---0--0--0---0--0--0---|-0--0----------------------|-------------0---0---0--0--0---0--0--0---|
E|-----------------------------------------|---------------------------|-----------------------------------------|


G|---------------------2--3--|-2---------------------------------------|---------------------2--3--|
D|---------------------------|----3--2--0------------------------------|-------2---1---1-----------|
A|-0--0--0---1---1-----------|-------------0---0---0--0--0---0--0--0---|-0--0----------------------|
E|---------------------------|-----------------------------------------|---------------------------|


G|-2---------------------------------------|---------------------2--3--|-2---------------------------------------|
D|----3--2--0------------------------------|---------------------------|----3--2--0------------------------------|
A|-------------0---0---0--0--0---0--0--0---|-0--0--0---1---1-----------|-------------0---0---0--0--0---0--0--0---|
E|-----------------------------------------|---------------------------|-----------------------------------------|


G|---------------------2--3--|-2---------------------------------------|---------------------2--3--|
D|-------2---1---1-----------|----3--2--0------------------------------|---------------------------|
A|-0--0----------------------|-------------0---0---0--0--0---0--0--0---|-0--0--0---1---1-----------|
E|---------------------------|-----------------------------------------|---------------------------|


G|-2---------------------------------------|----------------------|--------------------------|
D|----3--2--0------------------------------|-------2---1---1------|--------------------------|
A|-------------0---0---0--0--0---0--0--0---|-0--0-----------------|--------------------------|
E|-----------------------------------------|----------------------|-------3----3---3--3--3---|


G|------------------------------------|--------------------------------|------------------------------------|
D|------------------------------------|--------------------------------|--------------------5--6--5--3--5---|
A|--------------------5--6--5--3--5---|-3------------------------------|-----------4---4--------------------|
E|-3--3--3---4---4--------------------|-----6---4---3----3---3--3--3---|-3--3--3----------------------------|


G|---------------------------|------------------------------------|--------------------------------|
D|-3-------------------------|------------------------------------|--------------------------------|
A|-----6---4-----------------|------------------------------5--6--|-5--3--5---3--------------------|
E|-------------4----3----3---|-3--3--3---3--3--3---4---4----------|---------------6---4---3----3---|


G|------------------------------------|--------------------------------|-------------------------------------|
D|------------------------------5--6--|-5--3--5---3--------------------|-------------------------------------|
A|---------------------4---4----------|---------------6---4------------|-------------------------------------|
E|-3--3--3---3--3--3------------------|-----------------------4----3---|-----3---3--3--3---3--3--3---4---4---|


G|-------------------------------------|-------------------------------------|-------------------------------------|
D|-------------------------------------|-------------------------------------|-----5--6--5--3--5---3---------------|
A|-----5--6--5--3--5---3---------------|-----------------------------4---4---|-------------------------6---4-------|
E|-------------------------6---4---3---|-----3---3--3--3---3--3--3-----------|---------------------------------4---|


G|----------------------------------|----------------------------------|----------------------------------|
D|----------------------------------|----------------------------------|----------------------------------|
A|----------------------------------|----------5--6--5--3--5---3-------|----------------------------------|
E|-----3----3---3--3--3---3--3--3---|-4---4------------------------6---|-4---3----3---3--3--3---3--3--3---|


G|----------------------------------|----------14---14--14-14-14--|-14-14-14--15--15--15--15--15--15--|
D|----------5--6--5--3--5---3-------|-----------------------------|-----------------------------------|
A|-4---4------------------------6---|-4---------------------------|-----------------------------------|
E|----------------------------------|-----4-----------------------|-----------------------------------|


G|-17--17--19--19---19--19-19-19--|-19-19-19--17-19-20--19--17-19-17-----17-|-----------------------------------------15-14-|
D|--------------------------------|-----------------------------------20----|-20-19-20-19-17--------------------------------|
A|--------------------------------|-----------------------------------------|----------------20-18-20-18-17-15-17-18--------|
E|--------------------------------|-----------------------------------------|-----------------------------------------------|


G|----------------------------------------15-14----|-------------------14-15-17-15-14-15-17-19-20-19-|
D|-17-15-14----------14-15-17-15-14-15-17-------17-|-15-14----14-15-17-------------------------------|
A|----------17-15-17-------------------------------|-------17----------------------------------------|
E|-------------------------------------------------|-------------------------------------------------|


G|-17----------------------------------17-19----------|--------------------------------------------------------------------|
D|----20-19-17----------------17-19-20-------20-17-20-|-22-20-17-20-17-20-24-20-17-20-17-20-22-20-17-20-17-20-24-20-17-----|
A|-------------20-19-17-19-20-------------------------|----------------------------------------------------------------20--|
E|----------------------------------------------------|--------------------------------------------------------------------|


G|-----------------|--------------|--------------|---------------------2--1--5--|-4-----------------------------|
D|-----------------|--------------|--------------|---------------0--3-----------|----3--------------------------|
A|-18--17----------|--------------|--------------|------------0-----------------|-------4--4------4-------------|
E|-----------------|--------------|--------------|------------------------------|-------------------------------|


G|-------------------2--1--5----------|-----2---1------|---------------2--1--5--4---------------|
D|-------------0--3---------------0---|-3--------------|---------0--3--------------3------------|
A|----------0-----------------0-------|----------------|------0-----------------------4--4------|
E|------------------------------------|----------------|----------------------------------------|


G|--------------------|----------2--1--5--------------2---1---|-----------------------|
D|--------------------|----0--3---------------0---3-----------|----------------9------|
A|-4------------------|-0-----------------0-------------------|--------------------7--|
E|--------------------|---------------------------------------|-----------------------|


G|---------------------------------------------------|------------------------------------------------10-|
D|--------9-----------9-----------9-----------7------|--------7-----------7-----------7-----------8------|
A|----7-------7---7-------7---7-------7---7-------5--|----5-------5---5-------5---5-------5---5----------|
E|---------------------------------------------------|---------------------------------------------------|


G|--------10------10------9-------9-------9----------|--------------------------------------------------|
D|----8-------8-------7-------7-------7--------------|--------7---7----------------------------------0--|
A|--------------------------------------------8---8--|----------------8---6---6-------6---6---6---0-----|
E|---------------------------------------------------|--------------------------------------------------|


G|----2--1--5--4-----9---9---9---9---9---9---10--10-|----10--10--10--10--12--12--12--12--12--12--14--14-|
D|-3--------------3---------------------------------|---------------------------------------------------|
A|--------------------------------------------------|---------------------------------------------------|
E|--------------------------------------------------|---------------------------------------------------|


G|----14--14--14--14--15--15--15--15--15--15--14--14-|----14--14---17--17--17--17--17--20--20--20-|
D|---------------------------------------------------|--------------------------------------------|
A|---------------------------------------------------|--------------------------------------------|
E|---------------------------------------------------|--------------------------------------------|


G|----20--20----------------------------------|---------------------------------------------------|
D|--------------------------------------------|---------------------------------------------------|
A|-------------7---7---7---7---7---7---7---7--|----7---7---7---7---7---7---7---7---7---7---7---7--|
E|--------------------------------------------|---------------------------------------------------|


G|---------------------------------------------------|---------------------------------------------------|
D|---------------------------------------------------|--------------------------------------------9---9--|
A|----7---7---7---7----------------------------------|--------------------7---7---7---7---7---7----------|
E|--------------------0---0---0---0---0---0---0---0--|----0---0---0---0----------------------------------|


G|---------------------------------------------------|---------------------------------------------------|
D|----9----------------------------------------------|---------------------------------------------------|
A|--------10--10--10--7---7---7---7---7---7---7---7--|----7---7---7---7---7---7---7---7---7---7---7---7--|
E|---------------------------------------------------|---------------------------------------------------|


G|---------------------------------------------------|---------------------------------------------------|
D|---------------------------------------------------|--------------------------------------------9---9--|
A|----7---7---7---7----------------------------------|--------------------7---7---7---7---7---7----------|
E|--------------------0---0---0---0---0---0---0---0--|----0---0---0---0----------------------------------|


G|--------------------------------9-----------|--------9----------------9-----------|
D|----9---------------------------------------|-------------------------------------|
A|--------10--10--10--7---7---7--------7---7--|----7--------9---9---9--------9---9--|
E|--------------------------------------------|-------------------------------------|


G|--------9----------------9-----------|--------9----------------10-----------------|
D|-------------------------------------|-------------8---8---8-------8---8---7---7--|
A|----9--------8---8---8--------8---8--|----8---------------------------------------|
E|-------------------------------------|--------------------------------------------|


G|--------9-------9---9---9---9---9---9---9---9---9--|----9---9---9---9---11--11--11--11--11--11--11--11-|
D|----7-------7--------------------------------------|---------------------------------------------------|
A|---------------------------------------------------|---------------------------------------------------|
E|---------------------------------------------------|---------------------------------------------------|


G|----11--11--11--11--10--10--10--10--10--10--10--10-|----10--10--10--10----------------|
D|---------------------------------------------------|--------------------8----8----7---|
A|---------------------------------------------------|----------------------------------|
E|---------------------------------------------------|----------------------------------|


G|-----------------------------------------|---------------------------------------------------|
D|-----7-----------------------------------|---------------------------------------------------|
A|----------7---7---7---7---7---7---7---7--|----7---7---7---7---5---5---5---5---5---5---5---5--|
E|-----------------------------------------|---------------------------------------------------|


G|---------------------------------------------------|---------------------------------------------------|
D|---------------------------------------------------|--------------------8---8---8---8---8---8---7---7--|
A|----5---5---5---5---8---8---8---8---8---8---8---8--|----8---8---8---8----------------------------------|
E|---------------------------------------------------|---------------------------------------------------|


G|---------------------------------------------------|---------------------------------------------------|
D|----7---7---7---7----------------------------------|---------------------------------------------------|
A|--------------------7---7---7---7---7---7---7---7--|----7---7---7---7---5---5---5---5---5---5---5---5--|
E|---------------------------------------------------|---------------------------------------------------|


G|---------------------------------------------------|---------------------------------------------------|
D|---------------------------------------------------|--------------------8---8---8---8---8---8---7---7--|
A|----5---5---5---5---8---8---8---8---8---8---8---8--|----8---8---8---8----------------------------------|
E|---------------------------------------------------|---------------------------------------------------|


G|---------------------------------------------------|---------------------------------------------------|
D|----7---7---7---7----------------------------------|---------------------------------------------------|
A|---------------------------------------------------|---------------------------------------------------|
E|--------------------5---5---5---5---5---5---5---5--|----5---5---5---5---3---3---3---3---3---3---3---3--|


G|---------------------------------------------------|---------------------------------------------------|
D|---------------------------------------------------|--------------------8---8---8---8---8---8---7---7--|
A|---------------------------------------------------|---------------------------------------------------|
E|----3---3---3---3---6---6---6---6---6---6---6---6--|----6---6---6---6----------------------------------|


G|---------------------------------------------------|---------------------------------------------------|
D|----7---7---7---7----------------------------------|---------------------------------------------------|
A|---------------------------------------------------|---------------------------------------------------|
E|--------------------5---5---5---5---5---5---5---5--|----5---5---5---5---3---3---3---3---3---3---3---3--|


G|---------------------------------------------------|---------------------------------------------------|
D|---------------------------------------------------|--------------------8---8---8---8---8---8---7---7--|
A|---------------------------------------------------|---------------------------------------------------|
E|----3---3---3---3---6---6---6---6---6---6---6---6--|----6---6---6---6----------------------------------|


G|---------------------------------------------------|---------------------------------------------------|
D|----7---7---7---7----------------------------------|---------------------------------------------------|
A|---------------------------------------------------|---------------------------------------------------|
E|--------------------5---5---5---5---5---5---5---5--|----5---5---5---5---3---3---3---3---3---3---3---3--|


G|---------------------------------------------------|---------------------------------------------------|
D|---------------------------------------------------|--------------------8---8---8---8---8---8---7---7--|
A|---------------------------------------------------|---------------------------------------------------|
E|----3---3---3---3---6---6---6---6---6---6---6---6--|----6---6---6---6----------------------------------|


G|---------------------------------------------------|---------------------------------------------------|
D|----7---7---7---7----------------------------------|---------------------------------------------------|
A|---------------------------------------------------|---------------------------------------------------|
E|--------------------5---5---5---5---5---5---5---5--|----5---5---5---5---3---3---3---3---3---3---3---3--|


G|---------------------------------------------------|---------------------------------------------------|
D|---------------------------------------------------|--------------------8---8---8---8---8---8---7---7--|
A|---------------------------------------------------|---------------------------------------------------|
E|----3---3---3---3---6---6---6---6---6---6---6---6--|----6---6---6---6----------------------------------|


G|-------------------------------------------|-------------------------------------------|
D|----7---7----------------------------------|-------------------------------------------|
A|-------------7------------7------------7---|-5---7------------7------------7---8---7---|
E|-----------------0--0--0------0--0--0------|---------0--0--0------0--0--0--------------|


G|------------------------------------------------|------------------------------------------|
D|------------------------------------------------|------------------12-11-12--0---14-12-14--|
A|----------7------------7---5---7------------7---|----------7---8---------------------------|
E|-0--0--0------0--0--0--------------0--0--0------|-0--0--0----------------------------------|


G|-----------------------------------------|-------------------15-14-15--14-12-14--|
D|-0---15-14-15--17-15-17--15-14-15--14-12-|-14--12-11-12--0-----------------------|
A|-----------------------------------------|---------------------------------------|
E|-----------------------------------------|---------------------------------------|


G|-----------------------------------------|---------------------------------------|
D|-17-15-17--15-14-15--12-11-12--0---14-12-|-14--0---15-14-15--17-15-17--15-14-15--|
A|-----------------------------------------|---------------------------------------|
E|-----------------------------------------|---------------------------------------|


G|-------------------------15-14-15--14-12-|-14--------------------------------------|
D|-14-12-14--12-11-12--0-------------------|-----17-15-17--15-14-15--14-12-14--12-11-|
A|-----------------------------------------|-----------------------------------------|
E|-----------------------------------------|-----------------------------------------|


G|-------------------------|-----------------|----------------2--1--5--4-----------|
D|-12--11-8--11------------|-----------------|----------0--3--------------3--------|
A|---------------0-----6---|-------5---------|-------0-----------------------4--4--|
E|-------------------------|-------------4---|-------------------------------------|


G|-----------------------|
D|-----------------------|
A|-----4-----------------|
E|-----------------------|