Menu:

 

Search:

 

dream theater - the silent man:

 



Title: The Silent Man
Artist: 
Album: Awake
Author: John Petrucci


Track 1: Acoustic Guitar 1

E|------3--------3-------2---|-2-------2--------2-----------|-0--------0---0-------0-------|
B|------3--------3-------3---|-3-------3--------3-----------|-0--------0---0---0-------3---|
G|------0--------0-------2---|-2-------2----2---2-----------|-0--------0---0---0-------0---|
D|------0--------0---0---0---|-0---0---0----0---0---0---0---|-2----2-----------2-------2---|
A|-------------------0---0---|-0---0---0----0-------0---0---|-4----4-------------------3---|
E|-3---------3---------------|------------------------------|------------------------------|


E|--------------------1---1---0--0--|------3--------3---------2---|-2-------2--------2-------------|
B|-3-------3----0--0--1---1---0--0--|------3--------3---3--3--3---|-3-------3--------3-------3--3--|
G|-0-------0----0--0--0---0---0--0--|------0--------0---0--0--2---|-2-------2----2---2-------2--2--|
D|-2-------2----0--0--3---3---0--0--|------0--------0---0--0--0---|-0---0---0----0---0---0---0--0--|
A|-3-------3----0--0--3---3---0-----|-------------------------0---|-0---0---0----0-------0---------|
E|-----3----------------------------|-3---------3-----------------|--------------------------------|


E|-0--------0---0-------0-------|--------------------1---1---0--0--|-0--------0---0-------0---0--0--|
B|-0--------0---0---0---0---3---|-3-------3----0--0--1---1---0--0--|-0--------0---0-------0---0--0--|
G|-0--------0---0---0---0---0---|-0-------0----0--0--0---0---0--0--|-0--------0---0-------0---0--0--|
D|-2----2-----------2-------2---|-2-------2----0--0--3---3---0--0--|-2--------4---4-------2---2-----|
A|-4----4-------------------3---|-3-------3----0--0--3---3---0-----|-2--------2---2-----------------|
E|------------------------------|-----3----------------------------|-0----0-----------0-------------|


E|-0--------0---0-------0---------|-0---------------------------0---|-0--------0---0-------0---0--0--|
B|-1--------1---1-------1---1--1--|-1---3-------3---3-------3---0---|-0--------0---0-------0---0--0--|
G|-0--------0---0-------0---0--0--|-0-----------0---0-------0-------|-0--------0---0-------0---0-----|
D|-2----2-----------2---2---2--2--|-2---4-------4---4-------4-------|-2--------4---4-------4---------|
A|-0----0-----------0---0---0--0--|-0-------0-----------0-----------|-2--------2---2-------2---------|
E|--------------------------------|---------------------------------|-0----0-----------0-------------|


E|--------------------------------|------------------------|------3--------3---------2---|
B|-3--------3---3-------3---0--0--|-7--------7---7---------|------3--------3---3--3--3---|
G|-0--------0---0-------0---0--0--|-7--------7---7---------|-0----0--------0---0--0--2---|
D|-4--------4---4-------4---0--0--|-7--------7---7---------|-0----0--------0---0--0--0---|
A|-3----3-----------3---3---0--0--|-0--------0---0---------|-------------------0--0--0---|
E|--------------------------------|-8----8---8---8---------|-3---------3-----------------|


E|-2-------2--------2---2---------|-0--------0---0-------0-------|------------------------1------0--|
B|-3-------3--------3---3---3--3--|-0--------0---0---0-------3---|-3-------3----0--0------1---0--0--|
G|-2-------2----2---2---2---2--2--|-0--------0---0---0-------0---|-0-------0----0--0--0---0---0--0--|
D|-0---0---0----0---0---0---0--0--|-2----2-----------2-------2---|-2-------2----0--0--3---3---0--0--|
A|-0---0---0----0-------0---0--0--|-4----4-------------------3---|-3-------3----0--0--3---3---0-----|
E|--------------------------------|------------------------------|-----3----------------------------|


E|------3---3--3----------------2---|-2---------------------------------|-0--------0---0---0---0-------|
B|------3---3--3--3---3---------3---|-3-------3---------------3---0--0--|-0--------0---0---0---0---3---|
G|------0---0--0--0---0---------2---|-2-------2---------------0---0--0--|-0--------0---0---0---0---0---|
D|------0---0-----0---0---0--0--0---|-0-------0-----------4---4---0--0--|-2----2-------------------2---|
A|----------------2---3---0--0--0---|-0---0-------0---5-------5---0--0--|-4----4-------------------3---|
E|-3--------------------------------|-----------------------------------|------------------------------|


E|--------------------1---1---0--0--|-0--------0---0-------0---0--0--|-0--------0---0-------0---------|
B|-3-------3----0--0--1---1---0--0--|-0--------0---0-------0---0--0--|-1--------1---1-------1---1--1--|
G|-0-------0----0--0--0---0---0--0--|-0--------0---0-------0---0--0--|-0--------0---0-------0---0--0--|
D|-2-------2----0--0--3---3---0--0--|-2--------4---4-------2---2-----|-2----2-----------2---2---2--2--|
A|-3-------3----0--0--3---3---0-----|-2--------2---2-----------------|-0----0-----------0---0---0--0--|
E|-----3----------------------------|-0----0-----------0-------------|--------------------------------|


E|-0---------------------------0---|-0--------0---0-------0---0--0--|--------------------------------|
B|-1---3-------3---3-------3---0---|-0--------0---0-------0---0--0--|-3--------3---3-------3---0--0--|
G|-0-----------0---0-------0-------|-0--------0---0-------0---0-----|-0--------0---0-------0---0--0--|
D|-2---4-------4---4-------4-------|-2--------4---4-------4---------|-4--------4---4-------4---0--0--|
A|-0-------0-----------0-----------|-2--------2---2-------2---------|-3----3-----------3---3---0--0--|
E|---------------------------------|-0----0-----------0-------------|--------------------------------|


E|------------------------|--------|--------|--------|--------|--------|--------|--------|
B|-7--------7---7---------|--------|--------|--------|--------|--------|--------|--------|
G|-7--------7---7---------|--------|--------|--------|--------|--------|--------|--------|
D|-7--------7---7---------|--------|--------|--------|--------|--------|--------|--------|
A|-0--------0---0---------|--------|--------|--------|--------|--------|--------|--------|
E|-8----8---8---8---------|--------|--------|--------|--------|--------|--------|--------|


E|--------|--------|--------|--------|--------|--------|--------|--------|--------|
B|--------|--------|--------|--------|--------|--------|--------|--------|--------|
G|--------|--------|--------|--------|--------|--------|--------|--------|--------|
D|--------|--------|--------|--------|--------|--------|--------|--------|--------|
A|--------|--------|--------|--------|--------|--------|--------|--------|--------|
E|--------|--------|--------|--------|--------|--------|--------|--------|--------|


E|-2--------0---0---2---------0---|-0---1---1---1--1--1---0---------7--7--|-7----------5--5--5-------3--3---|
B|-3--------3---3---3---------3---|-3---3---3---3--3--3---3---3--0--8--8--|-8----------7--7--7-------5--5---|
G|-2--------2---2---2---------3---|-3---3---3---3--3--3---3---3--0--7--7--|-7-------7--7--7--7-------5--5---|
D|-0----0---0---0-------0--0--0---|-0---0---0---0-----0---0---0-----0-----|-0----0--0--0-----0----0-----0---|
A|-0----0---------------0--0------|---------------------------------------|------0----------------0---------|
E|--------------------------------|---------------------------------------|---------------------------------|


E|-3---3------------------0--0------|----------0------------------|-------------1---1---1---------1---|
B|-5---0---------0---0----0--0--3---|-3----3---0-----3------------|-------------1---1---1---------1---|
G|-5---5---5--5--5---5----5--5--4---|-4----4---0-----2------------|-------------3---3---3---3--0--0---|
D|-0---0---0--0--5---5----------5---|-5----5---0-----0------------|-------------3---3---3---3--0--3---|
A|-----0---------0---0----------0---|-0----0---------0------------|---------0---1---1---1---1--0--3---|
E|----------------------------------|-------------0--2----2---0---|-2---3-----------------------------|


E|-1---0---0--0--7--7--7----------5--5--|-5----------3---3---3-------------|------0--0---------------0-----|
B|-1---1---1--1--8--8--8----------7--7--|-7----------5---5---0---------0---|-0----0--0--3---3----3---0-----|
G|-0---0---0--0--7--7--7----------7--7--|-7----------5---5---5---5--5--5---|-5----5--5--4---4----4---0-----|
D|-3---2---2-----0-----0----0--0--0-----|-0----0--0--0---0---0---0--0--5---|-5----------5---5----5---0-----|
A|-3---3---3-------------------0--------|------0--0----------0---------0---|-0----------0---0----0---------|
E|--------------------------------------|----------------------------------|----------------------------0--|


E|------3---3---------------------|--------------------------------|---------------------0---0--0------|
B|------3---3--3--3---3-------3---|-3-------3------------3---3--0--|-0-------0-------0---0---0--0--3---|
G|------0---0--0--0---0-------2---|-2-------2------------0---0--0--|-0-------0-------0---0---0--0--0---|
D|------0---0--0--0---0-------0---|-0---0---0--------4---4---4--0--|-2---2---2---2---2---2---2-----2---|
A|------0---0-----2---3-------0---|-0---0---0----5-----------------|-4---4-------4---4-------------3---|
E|-3----3---3---------------------|--------------------------------|-----------------------------------|


E|--------------------1---1----|---------------------------------|---------------------------------|
B|-3--------3---0--0--1---1----|---------------------------------|-------------1-------------------|
G|-0--------0---0--0--0---0----|-------------0---0---------------|---------0-----------0-----------|
D|-2----2---2---0--0--3---3----|---------4-----------4-----------|-----2-------------------2-------|
A|-3----3---3---0--0--3---3----|-----2-------------------2-------|-0---------------0-----------0---|
E|-----------------------------|-0---------------------------0---|---------------------------------|


E|---------------------------------|-----------------------------------|-------------0---0------------|
B|-----3---------------7-----------|---------8-------7---5---------3---|-------------3---3---3---3----|
G|---------0---------------0-------|-----------------------------------|---------0-----------0---0----|
D|-4---------------7-----------7---|-----9---9---7---7---5---2--4--4---|-----4-------------------4----|
A|-0-----------0-------------------|-----------------------------------|-3----------------------------|
E|---------------------------------|-0---------------------------------|------------------------------|


E|-----------------------------0--0--|----------0---0-------0---0--0--|-0--------0---0-------0----|
B|-------------7---7---7---7---0--0--|----------0---0-------0---0--0--|-0--------0---0-------0----|
G|---------7---7---7---7---7---0--0--|----------6---6-------6---------|-0--------0---0-------0----|
D|-----7-------7---7---7---7---------|----------9---9-------9---------|-2--------2---2-------2----|
A|-----------------------------------|-9----------------9-------------|-2-------------------------|
E|-8-------------------8---8---------|-7----7-----------7-------------|-0----0-----------0--------|


E|---------------------------|-0---2---2----2-----|-2------|--------|--------|--------|
B|-3--------3---3-------3----|-3------------------|-3------|--------|--------|--------|
G|-0--------0---0-------0----|-2------------------|-2------|--------|--------|--------|
D|-2--------2---2-------2----|-0------------------|-0------|--------|--------|--------|
A|-3----3-----------3--------|--------------------|--------|--------|--------|--------|
E|---------------------------|--------------------|--------|--------|--------|--------|


E|--------|--------|--------|--------|--------|--------|--------|--------|--------|
B|--------|--------|--------|--------|--------|--------|--------|--------|--------|
G|--------|--------|--------|--------|--------|--------|--------|--------|--------|
D|--------|--------|--------|--------|--------|--------|--------|--------|--------|
A|--------|--------|--------|--------|--------|--------|--------|--------|--------|
E|--------|--------|--------|--------|--------|--------|--------|--------|--------|


E|--------|--------|--------|--------|--------|--------|
B|--------|--------|--------|--------|--------|--------|
G|--------|--------|--------|--------|--------|--------|
D|--------|--------|--------|--------|--------|--------|
A|--------|--------|--------|--------|--------|--------|
E|--------|--------|--------|--------|--------|--------|





Track 2: Electric Guitar

E|--------|--------|--------|--------|--------|--------|--------|--------|--------|
B|--------|--------|--------|--------|--------|--------|--------|--------|--------|
G|--------|--------|--------|--------|--------|--------|--------|--------|--------|
D|--------|--------|--------|--------|--------|--------|--------|--------|--------|
A|--------|--------|--------|--------|--------|--------|--------|--------|--------|
E|--------|--------|--------|--------|--------|--------|--------|--------|--------|


E|--------|--------|--------|--------|--------|--------|--------|--------|--------|
B|--------|--------|--------|--------|--------|--------|--------|--------|--------|
G|--------|--------|--------|--------|--------|--------|--------|--------|--------|
D|--------|--------|--------|--------|--------|--------|--------|--------|--------|
A|--------|--------|--------|--------|--------|--------|--------|--------|--------|
E|--------|--------|--------|--------|--------|--------|--------|--------|--------|


E|--------|--------|--------|--------|--------|--------|--------|--------|--------|
B|--------|--------|--------|--------|--------|--------|--------|--------|--------|
G|--------|--------|--------|--------|--------|--------|--------|--------|--------|
D|--------|--------|--------|--------|--------|--------|--------|--------|--------|
A|--------|--------|--------|--------|--------|--------|--------|--------|--------|
E|--------|--------|--------|--------|--------|--------|--------|--------|--------|


E|--------|---------0-----------0-----------|--------|-------------0---------------0---|
B|--------|-----0-----------0-----------0---|-0------|---------0---------------0-------|
G|--------|-1-----------1-----------1-------|--------|-----6---------------6-----------|
D|--------|---------------------------------|--------|-7---------------7---------------|
A|--------|---------------------------------|--------|---------------------------------|
E|--------|---------------------------------|--------|---------------------------------|


E|-0------|---------0-----------0-----------|--------|-------------0---------------0---|
B|-0------|-----0-----------0-----------0---|--------|---------0---------------0-------|
G|-8------|-1-----------1-----------4-------|-2------|-----6---------------8-----------|
D|-9------|---------------------------------|--------|-7---------------9---------------|
A|--------|---------------------------------|--------|---------------------------------|
E|--------|---------------------------------|--------|---------------------------------|


E|-0------|---------0-----------0-----------|---------0-----------0-------0---|---------0-----------0-------0---|
B|--------|-----0-----------0-----------0---|-----0-----------0-----------0---|-----0-----------0---------------|
G|--------|-1-----------1-----------1-------|-2-----------2-----------2-------|-6-----------6-----------6-------|
D|--------|---------------------------------|---------------------------------|---------------------------------|
A|--------|---------------------------------|---------------------------------|---------------------------------|
E|--------|---------------------------------|---------------------------------|---------------------------------|


E|---------0-----------0-------0---|---------0-----------0-----------|---------0-----------0-------0---|
B|-----0-----------0---------------|-----0-----------0-----------0---|-----0-----------0-----------0---|
G|-8-----------8-----------8-------|-1-----------2-----------4-------|-2-----------2-----------2-------|
D|---------------------------------|---------------------------------|---------------------------------|
A|---------------------------------|---------------------------------|---------------------------------|
E|---------------------------------|---------------------------------|---------------------------------|


E|-------------0---------------0---|-0------|--------|--------|--------|--------|--------|
B|---------0---------------0-------|-5------|--------|--------|--------|--------|--------|
G|-----6---------------8-----------|--------|--------|--------|--------|--------|--------|
D|-7---------------9---------------|--------|--------|--------|--------|--------|--------|
A|---------------------------------|--------|--------|--------|--------|--------|--------|
E|---------------------------------|--------|--------|--------|--------|--------|--------|


E|--------|--------|--------|--------|--------|--------|--------|--------|--------|
B|--------|--------|--------|--------|--------|--------|--------|--------|--------|
G|--------|--------|--------|--------|--------|--------|--------|--------|--------|
D|--------|--------|--------|--------|--------|--------|--------|--------|--------|
A|--------|--------|--------|--------|--------|--------|--------|--------|--------|
E|--------|--------|--------|--------|--------|--------|--------|--------|--------|


E|--------|--------|--------|--------|--------|--------|--------|--------|--------|
B|--------|--------|--------|--------|--------|--------|--------|--------|--------|
G|--------|--------|--------|--------|--------|--------|--------|--------|--------|
D|--------|--------|--------|--------|--------|--------|--------|--------|--------|
A|--------|--------|--------|--------|--------|--------|--------|--------|--------|
E|--------|--------|--------|--------|--------|--------|--------|--------|--------|


E|--------|---------0-----------0-----------|--------|-------------0---------------0---|
B|--------|-----0-----------0-----------0---|-0------|---------0---------------0-------|
G|--------|-1-----------1-----------1-------|--------|-----6---------------6-----------|
D|--------|---------------------------------|--------|-7---------------7---------------|
A|--------|---------------------------------|--------|---------------------------------|
E|--------|---------------------------------|--------|---------------------------------|


E|-0------|---------0-----------0-----------|--------|-------------0---------------0---|
B|-0------|-----0-----------0-----------0---|--------|---------0---------------0-------|
G|-8------|-1-----------1-----------4-------|-2------|-----6---------------8-----------|
D|-9------|---------------------------------|--------|-7---------------9---------------|
A|--------|---------------------------------|--------|---------------------------------|
E|--------|---------------------------------|--------|---------------------------------|


E|-0------|---------0-----------0-----------|---------0-----------0-------0---|---------0-----------0-------0---|
B|--------|-----0-----------0-----------0---|-----0-----------0-----------0---|-----0-----------0---------------|
G|--------|-1-----------1-----------1-------|-2-----------2-----------2-------|-6-----------6-----------6-------|
D|--------|---------------------------------|---------------------------------|---------------------------------|
A|--------|---------------------------------|---------------------------------|---------------------------------|
E|--------|---------------------------------|---------------------------------|---------------------------------|


E|---------0-----------0-------0---|---------0-----------0-----------|---------0-----------0-------0---|
B|-----0-----------0---------------|-----0-----------0-----------0---|-----0-----------0-----------0---|
G|-8-----------8-----------8-------|-1-----------2-----------4-------|-2-----------2-----------2-------|
D|---------------------------------|---------------------------------|---------------------------------|
A|---------------------------------|---------------------------------|---------------------------------|
E|---------------------------------|---------------------------------|---------------------------------|


E|-------------0---------------0---|-------------0---------------0---|--------|-0------|
B|---------0---------------0-------|---------0---------------0-------|-5------|-0------|
G|-----6---------------8-----------|-----9---------------11----------|--------|-1------|
D|-7---------------9---------------|-11--------------13--------------|--------|-2------|
A|---------------------------------|---------------------------------|--------|-2------|
E|---------------------------------|---------------------------------|--------|-0------|





Track 3: Acoustic Guitar (Solo)

E|--------|--------|--------|--------|--------|--------|--------|--------|--------|
B|--------|--------|--------|--------|--------|--------|--------|--------|--------|
G|--------|--------|--------|--------|--------|--------|--------|--------|--------|
D|--------|--------|--------|--------|--------|--------|--------|--------|--------|
A|--------|--------|--------|--------|--------|--------|--------|--------|--------|
E|--------|--------|--------|--------|--------|--------|--------|--------|--------|


E|--------|--------|--------|--------|--------|--------|--------|--------|--------|
B|--------|--------|--------|--------|--------|--------|--------|--------|--------|
G|--------|--------|--------|--------|--------|--------|--------|--------|--------|
D|--------|--------|--------|--------|--------|--------|--------|--------|--------|
A|--------|--------|--------|--------|--------|--------|--------|--------|--------|
E|--------|--------|--------|--------|--------|--------|--------|--------|--------|


E|--------|--------|--------|--------|--------|--------|--------|--------|--------|
B|--------|--------|--------|--------|--------|--------|--------|--------|--------|
G|--------|--------|--------|--------|--------|--------|--------|--------|--------|
D|--------|--------|--------|--------|--------|--------|--------|--------|--------|
A|--------|--------|--------|--------|--------|--------|--------|--------|--------|
E|--------|--------|--------|--------|--------|--------|--------|--------|--------|


E|--------|--------|--------|--------|--------|--------|--------|--------|--------|
B|--------|--------|--------|--------|--------|--------|--------|--------|--------|
G|--------|--------|--------|--------|--------|--------|--------|--------|--------|
D|--------|--------|--------|--------|--------|--------|--------|--------|--------|
A|--------|--------|--------|--------|--------|--------|--------|--------|--------|
E|--------|--------|--------|--------|--------|--------|--------|--------|--------|


E|--------|--------|--------|--------|--------|--------|--------|--------|--------|
B|--------|--------|--------|--------|--------|--------|--------|--------|--------|
G|--------|--------|--------|--------|--------|--------|--------|--------|--------|
D|--------|--------|--------|--------|--------|--------|--------|--------|--------|
A|--------|--------|--------|--------|--------|--------|--------|--------|--------|
E|--------|--------|--------|--------|--------|--------|--------|--------|--------|


E|--------|--------|--------|--------|--------|--------|--------|--------|---------------------------------------|
B|--------|--------|--------|--------|--------|--------|--------|--------|------------------8---7--8--7----------|
G|--------|--------|--------|--------|--------|--------|--------|--------|------------7--9---------------9---7---|
D|--------|--------|--------|--------|--------|--------|--------|--------|------7--9-----------------------------|
A|--------|--------|--------|--------|--------|--------|--------|--------|---------------------------------------|
E|--------|--------|--------|--------|--------|--------|--------|--------|---------------------------------------|


E|-------------------------------------------|-------------9---7--9--7----------|---------------------------------|
B|------------10----12----10-----------------|--------------------------10--8---|-8--------6--6-------------------|
G|-7----7--11----11----11----9--7-----7--9---|-9-----6--------------------------|-------5--7--5-------------------|
D|---------------------------------9---------|----------7-----------------------|----------------7---5--3--2--2---|
A|-------------------------------------------|----------------------------------|---------------------------------|
E|-------------------------------------------|----------------------------------|---------------------------------|


E|--------|--------|--------|--------|--------|--------|--------|--------|--------|
B|--------|--------|--------|--------|--------|--------|--------|--------|--------|
G|--------|--------|--------|--------|--------|--------|--------|--------|--------|
D|--------|--------|--------|--------|--------|--------|--------|--------|--------|
A|--------|--------|--------|--------|--------|--------|--------|--------|--------|
E|-0------|--------|--------|--------|--------|--------|--------|--------|--------|


E|--------|--------|--------|--------|--------|--------|--------|--------|--------|
B|--------|--------|--------|--------|--------|--------|--------|--------|--------|
G|--------|--------|--------|--------|--------|--------|--------|--------|--------|
D|--------|--------|--------|--------|--------|--------|--------|--------|--------|
A|--------|--------|--------|--------|--------|--------|--------|--------|--------|
E|--------|--------|--------|--------|--------|--------|--------|--------|--------|


E|--------|--------|--------|--------|--------|--------|--------|--------|--------|
B|--------|--------|--------|--------|--------|--------|--------|--------|--------|
G|--------|--------|--------|--------|--------|--------|--------|--------|--------|
D|--------|--------|--------|--------|--------|--------|--------|--------|--------|
A|--------|--------|--------|--------|--------|--------|--------|--------|--------|
E|--------|--------|--------|--------|--------|--------|--------|--------|--------|


E|--------|--------|
B|--------|--------|
G|--------|--------|
D|--------|--------|
A|--------|--------|
E|--------|--------|





Track 4: Acoustic Guitar 2

E|--------|--------|--------|--------|--------|--------|--------|--------|--------|
B|--------|--------|--------|--------|--------|--------|--------|--------|--------|
G|--------|--------|--------|--------|--------|--------|--------|--------|--------|
D|--------|--------|--------|--------|--------|--------|--------|--------|--------|
A|--------|--------|--------|--------|--------|--------|--------|--------|--------|
E|--------|--------|--------|--------|--------|--------|--------|--------|--------|


E|--------|--------|--------|--------|--------|--------|--------|--------|--------|
B|--------|--------|--------|--------|--------|--------|--------|--------|--------|
G|--------|--------|--------|--------|--------|--------|--------|--------|--------|
D|--------|--------|--------|--------|--------|--------|--------|--------|--------|
A|--------|--------|--------|--------|--------|--------|--------|--------|--------|
E|--------|--------|--------|--------|--------|--------|--------|--------|--------|


E|--------|--------|--------|--------|--------|--------|--------|--------|--------|
B|--------|--------|--------|--------|--------|--------|--------|--------|--------|
G|--------|--------|--------|--------|--------|--------|--------|--------|--------|
D|--------|--------|--------|--------|--------|--------|--------|--------|--------|
A|--------|--------|--------|--------|--------|--------|--------|--------|--------|
E|--------|--------|--------|--------|--------|--------|--------|--------|--------|


E|--------|--------|--------|--------|--------|--------|--------|--------|--------|
B|--------|--------|--------|--------|--------|--------|--------|--------|--------|
G|--------|--------|--------|--------|--------|--------|--------|--------|--------|
D|--------|--------|--------|--------|--------|--------|--------|--------|--------|
A|--------|--------|--------|--------|--------|--------|--------|--------|--------|
E|--------|--------|--------|--------|--------|--------|--------|--------|--------|


E|--------|--------|--------|--------|--------|--------|--------|--------|--------|
B|--------|--------|--------|--------|--------|--------|--------|--------|--------|
G|--------|--------|--------|--------|--------|--------|--------|--------|--------|
D|--------|--------|--------|--------|--------|--------|--------|--------|--------|
A|--------|--------|--------|--------|--------|--------|--------|--------|--------|
E|--------|--------|--------|--------|--------|--------|--------|--------|--------|


E|--------|--------|--------|--------|--------|--------|--------|--------|--------|
B|--------|--------|--------|--------|--------|--------|--------|--------|--------|
G|--------|--------|--------|--------|--------|--------|--------|--------|--------|
D|--------|--------|--------|--------|--------|--------|--------|--------|--------|
A|--------|--------|--------|--------|--------|--------|--------|--------|--------|
E|--------|--------|--------|--------|--------|--------|--------|--------|--------|


E|--------|--------|--------|--------|--------|--------|--------|-------------0---0-----|
B|--------|--------|--------|--------|--------|--------|--------|-------------3---3-----|
G|--------|--------|--------|--------|--------|--------|--------|---------0-------------|
D|--------|--------|--------|--------|--------|--------|--------|-----4-----------------|
A|--------|--------|--------|--------|--------|--------|--------|-3---------------------|
E|--------|--------|--------|--------|--------|--------|--------|-----------------------|


E|-------------2---2-----|-------0-----|-12-----|-12-----|-12-----|-12-----|--------|
B|---------3-------------|-------4-----|-12-----|-12-----|-12-----|-12-----|--------|
G|-----2-----------------|-------4-----|-12-----|-12-----|-12-----|-12-----|--------|
D|-----------------------|-------------|--------|--------|--------|--------|--------|
A|-3---------------------|-2-----------|--------|--------|--------|--------|--------|
E|-----------------------|-------------|--------|--------|--------|--------|--------|


E|--------|--------|--------|--------|--------|--------|--------|--------|--------|
B|--------|--------|--------|--------|--------|--------|--------|--------|--------|
G|--------|--------|--------|--------|--------|--------|--------|--------|--------|
D|--------|--------|--------|--------|--------|--------|--------|--------|--------|
A|--------|--------|--------|--------|--------|--------|--------|--------|--------|
E|--------|--------|--------|--------|--------|--------|--------|--------|--------|


E|--------|--------|--------|--------|--------|--------|--------|--------|
B|--------|--------|--------|--------|--------|--------|--------|--------|
G|--------|--------|--------|--------|--------|--------|--------|--------|
D|--------|--------|--------|--------|--------|--------|--------|--------|
A|--------|--------|--------|--------|--------|--------|--------|--------|
E|--------|--------|--------|--------|--------|--------|--------|--------|





Track 5: Untitled

G|--------|--------|--------|--------|--------|--------|--------|--------|--------|
D|--------|--------|--------|--------|--------|--------|--------|--------|--------|
A|--------|--------|--------|--------|--------|--------|--------|--------|--------|
E|--------|--------|--------|--------|--------|--------|--------|--------|--------|


G|--------|--------|--------|--------|--------|--------|--------|--------|--------|
D|--------|--------|--------|--------|--------|--------|--------|--------|--------|
A|--------|--------|--------|--------|--------|--------|--------|--------|--------|
E|--------|--------|--------|--------|--------|--------|--------|--------|--------|


G|--------|--------|--------|--------|--------|--------|--------|--------|--------|
D|--------|--------|--------|--------|--------|--------|--------|--------|--------|
A|--------|--------|--------|--------|--------|--------|--------|--------|--------|
E|--------|--------|--------|--------|--------|--------|--------|--------|--------|


G|--------|--------|--------|--------|--------|--------|--------|--------|--------|
D|--------|--------|--------|--------|--------|--------|--------|--------|--------|
A|--------|--------|--------|--------|--------|--------|--------|--------|--------|
E|--------|--------|--------|--------|--------|--------|--------|--------|--------|


G|--------|--------|--------|--------|--------|--------|--------|--------|--------|
D|--------|--------|--------|--------|--------|--------|--------|--------|--------|
A|--------|--------|--------|--------|--------|--------|--------|--------|--------|
E|--------|--------|--------|--------|--------|--------|--------|--------|--------|


G|--------|--------|--------|--------|--------|--------|--------|--------|--------|
D|--------|--------|--------|--------|--------|--------|--------|--------|--------|
A|--------|--------|--------|--------|--------|--------|--------|--------|--------|
E|--------|--------|--------|--------|--------|--------|--------|--------|--------|


G|--------|--------|--------|--------|--------|--------|--------|--------|--------|
D|--------|--------|--------|--------|--------|--------|--------|--------|--------|
A|--------|--------|--------|--------|--------|--------|--------|--------|--------|
E|--------|--------|--------|--------|--------|--------|--------|--------|--------|


G|--------|--------|--------|--------|--------|--------|--------|--------|--------|
D|--------|--------|--------|--------|--------|--------|--------|--------|--------|
A|--------|--------|--------|--------|--------|--------|--------|--------|--------|
E|--------|--------|--------|--------|--------|--------|--------|--------|--------|


G|--------|--------|--------|--------|--------|--------|--------|--------|--------|
D|--------|--------|--------|--------|--------|--------|--------|--------|--------|
A|--------|--------|--------|--------|--------|--------|--------|--------|--------|
E|--------|--------|--------|--------|--------|--------|--------|--------|--------|


G|--------|--------|--------|--------|--------|
D|--------|--------|--------|--------|--------|
A|--------|--------|--------|--------|--------|
E|--------|--------|--------|--------|--------|