Menu:

 

Search:

 

dream theater - the root of all evil:

 



Title: The Root of All Evil
Artist: 
Album: Octavarium
Author: John Myung, John Petrucci, Mike Portnoy & Jordan Rudess


Track 1: Clean Electric

D#|--------|-------------|---------------------|--------|--------|--------|--------|
A#|--------|-------------|---------------------|--------|--------|--------|--------|
F#|--------|--------11---|-11---11---11---11---|--------|--------|--------|--------|
C#|--------|--------10---|-10---10---10---10---|--------|--------|--------|--------|
G#|--------|--------9----|-9----9----9----9----|--------|--------|--------|--------|
D#|--------|-------------|---------------------|--------|--------|--------|--------|


D#|--------|--------|-------------|---------------------|--------|--------|--------|
A#|--------|--------|-------------|---------------------|--------|--------|--------|
F#|--------|--------|--------11---|-11---11---11---11---|--------|--------|--------|
C#|--------|--------|--------10---|-10---10---10---10---|--------|--------|--------|
G#|--------|--------|--------9----|-9----9----9----9----|--------|--------|--------|
D#|--------|--------|-------------|---------------------|--------|--------|--------|


D#|--------|--------|--------|--------|--------|--------|--------|--------|--------|
A#|--------|--------|--------|--------|--------|--------|--------|--------|--------|
F#|--------|--------|--------|--------|--------|--------|--------|--------|--------|
C#|--------|--------|--------|--------|--------|--------|--------|--------|--------|
G#|--------|--------|--------|--------|--------|--------|--------|--------|--------|
D#|--------|--------|--------|--------|--------|--------|--------|--------|--------|


D#|--------|--------|--------|--------|--------|--------|--------|--------|--------|
A#|--------|--------|--------|--------|--------|--------|--------|--------|--------|
F#|--------|--------|--------|--------|--------|--------|--------|--------|--------|
C#|--------|--------|--------|--------|--------|--------|--------|--------|--------|
G#|--------|--------|--------|--------|--------|--------|--------|--------|--------|
D#|--------|--------|--------|--------|--------|--------|--------|--------|--------|


D#|--------|--------|--------|--------|--------|--------|--------|--------|--------|
A#|--------|--------|--------|--------|--------|--------|--------|--------|--------|
F#|--------|--------|--------|--------|--------|--------|--------|--------|--------|
C#|--------|--------|--------|--------|--------|--------|--------|--------|--------|
G#|--------|--------|--------|--------|--------|--------|--------|--------|--------|
D#|--------|--------|--------|--------|--------|--------|--------|--------|--------|


D#|--------|--------|--------|--------|--------|--------|--------|--------|--------|
A#|--------|--------|--------|--------|--------|--------|--------|--------|--------|
F#|--------|--------|--------|--------|--------|--------|--------|--------|--------|
C#|--------|--------|--------|--------|--------|--------|--------|--------|--------|
G#|--------|--------|--------|--------|--------|--------|--------|--------|--------|
D#|--------|--------|--------|--------|--------|--------|--------|--------|--------|


D#|--------|--------|--------|--------|--------|--------|--------|--------|--------|
A#|--------|--------|--------|--------|--------|--------|--------|--------|--------|
F#|--------|--------|--------|--------|--------|--------|--------|--------|--------|
C#|--------|--------|--------|--------|--------|--------|--------|--------|--------|
G#|--------|--------|--------|--------|--------|--------|--------|--------|--------|
D#|--------|--------|--------|--------|--------|--------|--------|--------|--------|


D#|--------|--------|--------|--------|--------|--------|--------|--------|--------|
A#|--------|--------|--------|--------|--------|--------|--------|--------|--------|
F#|--------|--------|--------|--------|--------|--------|--------|--------|--------|
C#|--------|--------|--------|--------|--------|--------|--------|--------|--------|
G#|--------|--------|--------|--------|--------|--------|--------|--------|--------|
D#|--------|--------|--------|--------|--------|--------|--------|--------|--------|


D#|--------|--------|--------|--------|--------|--------|--------|--------|--------|
A#|--------|--------|--------|--------|--------|--------|--------|--------|--------|
F#|--------|--------|--------|--------|--------|--------|--------|--------|--------|
C#|--------|--------|--------|--------|--------|--------|--------|--------|--------|
G#|--------|--------|--------|--------|--------|--------|--------|--------|--------|
D#|--------|--------|--------|--------|--------|--------|--------|--------|--------|


D#|--------|--------|--------|--------|--------|--------|--------|--------|--------|
A#|--------|--------|--------|--------|--------|--------|--------|--------|--------|
F#|--------|--------|--------|--------|--------|--------|--------|--------|--------|
C#|--------|--------|--------|--------|--------|--------|--------|--------|--------|
G#|--------|--------|--------|--------|--------|--------|--------|--------|--------|
D#|--------|--------|--------|--------|--------|--------|--------|--------|--------|


D#|--------|--------|--------|--------|--------|--------|--------|--------|--------|
A#|--------|--------|--------|--------|--------|--------|--------|--------|--------|
F#|--------|--------|--------|--------|--------|--------|--------|--------|--------|
C#|--------|--------|--------|--------|--------|--------|--------|--------|--------|
G#|--------|--------|--------|--------|--------|--------|--------|--------|--------|
D#|--------|--------|--------|--------|--------|--------|--------|--------|--------|


D#|--------|--------|--------|--------|--------|--------|--------|--------|--------|
A#|--------|--------|--------|--------|--------|--------|--------|--------|--------|
F#|--------|--------|--------|--------|--------|--------|--------|--------|--------|
C#|--------|--------|--------|--------|--------|--------|--------|--------|--------|
G#|--------|--------|--------|--------|--------|--------|--------|--------|--------|
D#|--------|--------|--------|--------|--------|--------|--------|--------|--------|


D#|--------|--------|--------|--------|--------|--------|--------|--------|--------|
A#|--------|--------|--------|--------|--------|--------|--------|--------|--------|
F#|--------|--------|--------|--------|--------|--------|--------|--------|--------|
C#|--------|--------|--------|--------|--------|--------|--------|--------|--------|
G#|--------|--------|--------|--------|--------|--------|--------|--------|--------|
D#|--------|--------|--------|--------|--------|--------|--------|--------|--------|


D#|--------|--------|--------|--------|--------|--------|--------|--------|--------|
A#|--------|--------|--------|--------|--------|--------|--------|--------|--------|
F#|--------|--------|--------|--------|--------|--------|--------|--------|--------|
C#|--------|--------|--------|--------|--------|--------|--------|--------|--------|
G#|--------|--------|--------|--------|--------|--------|--------|--------|--------|
D#|--------|--------|--------|--------|--------|--------|--------|--------|--------|


D#|--------|--------|--------|--------|--------|--------|--------|--------|--------|
A#|--------|--------|--------|--------|--------|--------|--------|--------|--------|
F#|--------|--------|--------|--------|--------|--------|--------|--------|--------|
C#|--------|--------|--------|--------|--------|--------|--------|--------|--------|
G#|--------|--------|--------|--------|--------|--------|--------|--------|--------|
D#|--------|--------|--------|--------|--------|--------|--------|--------|--------|


D#|--------|--------|--------|--------|--------|--------|--------|--------|--------|
A#|--------|--------|--------|--------|--------|--------|--------|--------|--------|
F#|--------|--------|--------|--------|--------|--------|--------|--------|--------|
C#|--------|--------|--------|--------|--------|--------|--------|--------|--------|
G#|--------|--------|--------|--------|--------|--------|--------|--------|--------|
D#|--------|--------|--------|--------|--------|--------|--------|--------|--------|


D#|--------|--------|--------|--------|--------|--------|--------|--------|--------|
A#|--------|--------|--------|--------|--------|--------|--------|--------|--------|
F#|--------|--------|--------|--------|--------|--------|--------|--------|--------|
C#|--------|--------|--------|--------|--------|--------|--------|--------|--------|
G#|--------|--------|--------|--------|--------|--------|--------|--------|--------|
D#|--------|--------|--------|--------|--------|--------|--------|--------|--------|


D#|--------|--------|--------|--------|--------|--------|--------|--------|--------|
A#|--------|--------|--------|--------|--------|--------|--------|--------|--------|
F#|--------|--------|--------|--------|--------|--------|--------|--------|--------|
C#|--------|--------|--------|--------|--------|--------|--------|--------|--------|
G#|--------|--------|--------|--------|--------|--------|--------|--------|--------|
D#|--------|--------|--------|--------|--------|--------|--------|--------|--------|


D#|--------|--------|--------|--------|--------|--------|--------|--------|--------|
A#|--------|--------|--------|--------|--------|--------|--------|--------|--------|
F#|--------|--------|--------|--------|--------|--------|--------|--------|--------|
C#|--------|--------|--------|--------|--------|--------|--------|--------|--------|
G#|--------|--------|--------|--------|--------|--------|--------|--------|--------|
D#|--------|--------|--------|--------|--------|--------|--------|--------|--------|


D#|--------|--------|--------|--------|--------|--------|--------|--------|--------|
A#|--------|--------|--------|--------|--------|--------|--------|--------|--------|
F#|--------|--------|--------|--------|--------|--------|--------|--------|--------|
C#|--------|--------|--------|--------|--------|--------|--------|--------|--------|
G#|--------|--------|--------|--------|--------|--------|--------|--------|--------|
D#|--------|--------|--------|--------|--------|--------|--------|--------|--------|


D#|--------|--------|--------|--------|--------|--------|--------|--------|--------|
A#|--------|--------|--------|--------|--------|--------|--------|--------|--------|
F#|--------|--------|--------|--------|--------|--------|--------|--------|--------|
C#|--------|--------|--------|--------|--------|--------|--------|--------|--------|
G#|--------|--------|--------|--------|--------|--------|--------|--------|--------|
D#|--------|--------|--------|--------|--------|--------|--------|--------|--------|


D#|--------|--------|--------|--------|--------|--------|--------|--------|--------|
A#|--------|--------|--------|--------|--------|--------|--------|--------|--------|
F#|--------|--------|--------|--------|--------|--------|--------|--------|--------|
C#|--------|--------|--------|--------|--------|--------|--------|--------|--------|
G#|--------|--------|--------|--------|--------|--------|--------|--------|--------|
D#|--------|--------|--------|--------|--------|--------|--------|--------|--------|


D#|--------|--------|--------|--------|--------|--------|--------|--------|--------|
A#|--------|--------|--------|--------|--------|--------|--------|--------|--------|
F#|--------|--------|--------|--------|--------|--------|--------|--------|--------|
C#|--------|--------|--------|--------|--------|--------|--------|--------|--------|
G#|--------|--------|--------|--------|--------|--------|--------|--------|--------|
D#|--------|--------|--------|--------|--------|--------|--------|--------|--------|


D#|--------|--------|--------|--------|--------|--------|--------|--------|--------|
A#|--------|--------|--------|--------|--------|--------|--------|--------|--------|
F#|--------|--------|--------|--------|--------|--------|--------|--------|--------|
C#|--------|--------|--------|--------|--------|--------|--------|--------|--------|
G#|--------|--------|--------|--------|--------|--------|--------|--------|--------|
D#|--------|--------|--------|--------|--------|--------|--------|--------|--------|


D#|--------|--------|--------|--------|--------|--------|--------|--------|--------|
A#|--------|--------|--------|--------|--------|--------|--------|--------|--------|
F#|--------|--------|--------|--------|--------|--------|--------|--------|--------|
C#|--------|--------|--------|--------|--------|--------|--------|--------|--------|
G#|--------|--------|--------|--------|--------|--------|--------|--------|--------|
D#|--------|--------|--------|--------|--------|--------|--------|--------|--------|


D#|--------|--------|--------|--------|--------|--------|--------|--------|--------|
A#|--------|--------|--------|--------|--------|--------|--------|--------|--------|
F#|--------|--------|--------|--------|--------|--------|--------|--------|--------|
C#|--------|--------|--------|--------|--------|--------|--------|--------|--------|
G#|--------|--------|--------|--------|--------|--------|--------|--------|--------|
D#|--------|--------|--------|--------|--------|--------|--------|--------|--------|


D#|--------|--------|--------|--------|--------|--------|--------|--------|--------|
A#|--------|--------|--------|--------|--------|--------|--------|--------|--------|
F#|--------|--------|--------|--------|--------|--------|--------|--------|--------|
C#|--------|--------|--------|--------|--------|--------|--------|--------|--------|
G#|--------|--------|--------|--------|--------|--------|--------|--------|--------|
D#|--------|--------|--------|--------|--------|--------|--------|--------|--------|


D#|--------|--------|--------|--------|--------|--------|--------|--------|--------|
A#|--------|--------|--------|--------|--------|--------|--------|--------|--------|
F#|--------|--------|--------|--------|--------|--------|--------|--------|--------|
C#|--------|--------|--------|--------|--------|--------|--------|--------|--------|
G#|--------|--------|--------|--------|--------|--------|--------|--------|--------|
D#|--------|--------|--------|--------|--------|--------|--------|--------|--------|


D#|--------|--------|--------|--------|--------|--------|--------|--------|--------|
A#|--------|--------|--------|--------|--------|--------|--------|--------|--------|
F#|--------|--------|--------|--------|--------|--------|--------|--------|--------|
C#|--------|--------|--------|--------|--------|--------|--------|--------|--------|
G#|--------|--------|--------|--------|--------|--------|--------|--------|--------|
D#|--------|--------|--------|--------|--------|--------|--------|--------|--------|


D#|--------|--------|--------|--------|
A#|--------|--------|--------|--------|
F#|--------|--------|--------|--------|
C#|--------|--------|--------|--------|
G#|--------|--------|--------|--------|
D#|--------|--------|--------|--------|





Track 2: Distorted Guitar 1

D#|--------|--------|--------|--------|--------|--------|--------|--------|--------|
A#|--------|--------|--------|--------|--------|--------|--------|--------|--------|
F#|--------|--------|--------|--------|--------|--------|--------|--------|--------|
C#|--------|--------|--------|--------|--------|--------|--------|--------|--------|
G#|--------|--------|--------|--------|--------|--------|--------|--------|--------|
D#|--------|--------|--------|--------|--------|--------|--------|--------|--------|


D#|--------|--------|--------|--------|--------|-------------|--------|--------|--------|
A#|--------|--------|--------|--------|--------|-------------|--------|--------|--------|
F#|--------|--------|--------|--------|--------|--------11---|--------|--------|--------|
C#|--------|--------|--------|--------|--------|--------10---|--------|--------|--------|
G#|--------|--------|--------|--------|--------|--------9----|--------|--------|--------|
D#|--------|--------|--------|--------|--------|-------------|--------|--------|--------|


D#|-------------|--------|-------------|---------------------------------|---------------------------------|
A#|-------------|--------|-------------|---------------------------------|---------------------------------|
F#|--------11---|--------|--------11---|---------------------------------|---------------------------------|
C#|--------10---|--------|--------10---|---------------------------------|---------------------------------|
G#|--------9----|--------|--------9----|-------------0---------------3---|-----2---0---1---2---------------|
D#|-------------|--------|-------------|-2---0---2-------0---1---2-------|-2-------------------2---3---0---|


D#|---------------------------------|---------------------------------|---------------------------------|
A#|---------------------------------|---------------------------------|---------------------------------|
F#|---------------------------------|---------------------------------|---------------------------------|
C#|---------------------------------|---------------------------------|---------------------------------|
G#|-------------0---------------3---|-----2---0---1---2---------------|-------------0---------------3---|
D#|-2---0---2-------0---1---2-------|-2-------------------2---3---0---|-2---0---2-------0---1---2-------|


D#|---------------------------------|---------------------------------|---------------------------------|
A#|---------------------------------|---------------------------------|---------------------------------|
F#|---------------------------------|---------------------------------|---------------------------------|
C#|---------------------------------|---------------------------------|---------------------------------|
G#|-----2---0---1---2---------------|-------------0---------------3---|-----2---0---1---2---------------|
D#|-2-------------------2---3---0---|-2---0---2-------0---1---2-------|-2-------------------2---3---0---|


D#|---------------------------------|---------------------------------|---------------------------------|
A#|---------------------------------|---------------------------------|---------------------------------|
F#|---------------------------------|---------------------------------|---------------------------------|
C#|-4-----------4---4-----------4---|-4-----------4---4-----------5---|-4-----------4---4-----------4---|
G#|-4---2---5---4---4---2---5---4---|-4---2---5---4---4---2---4---5---|-4---2---5---4---4---2---5---4---|
D#|-2---0---3---2---2---0---3---2---|-2---0---3---2---2---0---2---3---|-2---0---3---2---2---0---3---2---|


D#|---------------------------------|---------------------------------|---------------------------------|
A#|---------------------------------|---------------------------------|---------------------------------|
F#|---------------------------------|---------------------------------|---------------------------------|
C#|-4-----------4---4-----------7---|-4-----------4---4-----------4---|-4-----------4---4-----------5---|
G#|-4---2---5---4---4---2---4---7---|-4---2---5---4---4---2---5---4---|-4---2---5---4---4---2---4---5---|
D#|-2---0---3---2---2---0---2---5---|-2---0---3---2---2---0---3---2---|-2---0---3---2---2---0---2---3---|


D#|---------------------------------|--------------------------------|---------------------------------|
A#|---------------------------------|--------------------------------|---------------------------------|
F#|---------------------------------|--------------------------------|---------------------------------|
C#|-4-----------4---4-----------4---|-4-----------4-------------3----|---------------------------------|
G#|-4---2---5---4---4---2---5---4---|-4---2---5---4---3----4----3----|-4---2---5---4---4---2---5---4---|
D#|-2---0---3---2---2---0---3---2---|-2---0---3---2---3----4---------|-2---0---3---2---2---0---3---2---|


D#|---------------------------------|---------------------------------|---------------------------------|
A#|---------------------------------|---------------------------------|---------------------------------|
F#|---------------------------------|---------------------------------|---------------------------------|
C#|-----------------------------5---|-4-------------------------------|-----------------------------7---|
G#|-4---2---5---4---4---2---4---5---|-4---2---5---4---4---2---5---4---|-4---2---5---4---4---2---4---7---|
D#|-2---0---3---2---2---0---2---3---|-2---0---3---2---2---0---3---2---|-2---0---3---2---2---0---2---5---|


D#|---------------------------------|---------------------------------|---------------------------------|
A#|---------------------------------|---------------------------------|---------------------------------|
F#|---------------------------------|---------------------------------|---------------------------------|
C#|-4-------------------------------|-----------------------------5---|-4-------------------------------|
G#|-4---2---5---4---4---2---5---4---|-4---2---5---4---4---2---4---5---|-4---2---5---4---4---2---5---4---|
D#|-2---0---3---2---2---0---3---2---|-2---0---3---2---2---0---2---3---|-2---0---3---2---2---0---3---2---|


D#|---------------------------------|---------------------------------|---------------------------------|
A#|---------------------------------|---------------------------------|---------------------------------|
F#|---------------------------------|---------------------------------|---------------------------------|
C#|-----------------------------7---|-4-----------4---4-----------4---|-4-----------4---4-----------5---|
G#|-4---2---5---4---4---2---4---7---|-4---2---5---4---4---2---5---4---|-4---2---5---4---4---2---4---5---|
D#|-2---0---3---2---2---0---2---5---|-2---0---3---2---2---0---3---2---|-2---0---3---2---2---0---2---3---|


D#|---------------------------------|---------------------------------|---------------------------------|
A#|---------------------------------|---------------------------------|---------------------------------|
F#|---------------------------------|---------------------------------|---------------------------------|
C#|-4-----------4---4-----------4---|-4-----------4---4-----------7---|-4-----------4---4-----------4---|
G#|-4---2---5---4---4---2---5---4---|-4---2---5---4---4---2---4---7---|-4---2---5---4---4---2---5---4---|
D#|-2---0---3---2---2---0---3---2---|-2---0---3---2---2---0---2---5---|-2---0---3---2---2---0---3---2---|


D#|---------------------------------|---------------------------------|---------------------------------|
A#|---------------------------------|---------------------------------|---------------------------------|
F#|---------------------------------|---------------------------------|---------------------------------|
C#|-4-----------4---4-----------5---|-4-----------4---4-----------4---|-4-----------4---4-----------7---|
G#|-4---2---5---4---4---2---4---5---|-4---2---5---4---4---2---5---4---|-4---2---5---4---4---2---4---7---|
D#|-2---0---3---2---2---0---2---3---|-2---0---3---2---2---0---3---2---|-2---0---3---2---2---0---2---5---|


D#|---------------------------------|---------------------------------|---------------------------------|
A#|---------------------------------|---------------------------------|---------------------------------|
F#|-----------------------------5---|-5---4---5-----------------------|-----------------------------5---|
C#|-4-----------7---7-----------5---|-5---4---5-----------------------|-4-----------7---7-----------5---|
G#|-4---2---4---7---7---2---4---3---|-3---2---3---2---2---2---2---2---|-4---2---4---7---7---2---4---3---|
D#|-2---0---2---5---5---0---2-------|-------------0---0---0---0---0---|-2---0---2---5---5---0---2-------|


D#|---------------------------------|---------------------------------|---------------------------------|
A#|---------------------------------|---------------------------------|---------------------------------|
F#|-5---4---5---------------5--4----|-----------------------------5---|-5---4---5-----------------------|
C#|-5---4---5---------------5--4----|-4-----------7---7-----------5---|-5---4---5-----------------------|
G#|-3---2---3---2---2---2---3--2----|-4---2---4---7---7---2---4---3---|-3---2---3---2---2---2---2---2---|
D#|-------------0---0---0-----------|-2---0---2---5---5---0---2-------|-------------0---0---0---0---0---|


D#|---------------------------------|------------------------------|---------------------------------|
A#|---------------------------------|------------------------------|---------------------------------|
F#|-----------------------------5---|-5---4---5--------------------|---------------------------------|
C#|-4-----------7---7-----------5---|-5---4---5---------------2----|---------------------------------|
G#|-4---2---4---7---7---2---4---3---|-3---2---3---2---2---2--------|-------------0---------------3---|
D#|-2---0---2---5---5---0---2-------|-------------0---0---0--------|-2---0---2-------0---1---2-------|


D#|---------------------------------|---------------------------------|---------------------------------|
A#|---------------------------------|---------------------------------|---------------------------------|
F#|---------------------------------|---------------------------------|---------------------------------|
C#|---------------------------------|---------------------------------|---------------------------------|
G#|-----2---0---1---2---------------|-------------0---------------3---|-----2---0---1---2---------------|
D#|-2-------------------2---3---0---|-2---0---2-------0---1---2-------|-2-------------------2---3---0---|


D#|---------------------------------|---------------------------------|---------------------------------|
A#|---------------------------------|---------------------------------|---------------------------------|
F#|---------------------------------|---------------------------------|---------------------------------|
C#|---------------------------------|---------------------------------|---------------------------------|
G#|-------------0---------------3---|-----2---0---1---2---------------|-------------0---------------3---|
D#|-2---0---2-------0---1---2-------|-2-------------------2---3---0---|-2---0---2-------0---1---2-------|


D#|---------------------------------|---------------------------------|---------------------------------|
A#|---------------------------------|---------------------------------|---------------------------------|
F#|---------------------------------|---------------------------------|---------------------------------|
C#|---------------------------------|---------------------------------|-----------------------------5---|
G#|-----2---0---1---2---------------|-4---2---5---4---4---2---5---4---|-4---2---5---4---4---2---4---5---|
D#|-2-------------------2---3---0---|-2---0---3---2---2---0---3---2---|-2---0---3---2---2---0---2---3---|


D#|---------------------------------|---------------------------------|---------------------------------|
A#|---------------------------------|---------------------------------|---------------------------------|
F#|---------------------------------|---------------------------------|---------------------------------|
C#|-4-------------------------------|-----------------------------7---|-4-------------------------------|
G#|-4---2---5---4---4---2---5---4---|-4---2---5---4---4---2---4---7---|-4---2---5---4---4---2---5---4---|
D#|-2---0---3---2---2---0---3---2---|-2---0---3---2---2---0---2---5---|-2---0---3---2---2---0---3---2---|


D#|---------------------------------|---------------------------------|---------------------------------|
A#|---------------------------------|---------------------------------|---------------------------------|
F#|---------------------------------|---------------------------------|---------------------------------|
C#|-----------------------------5---|-4-------------------------------|-----------------------------7---|
G#|-4---2---5---4---4---2---4---5---|-4---2---5---4---4---2---5---4---|-4---2---5---4---4---2---4---7---|
D#|-2---0---3---2---2---0---2---3---|-2---0---3---2---2---0---3---2---|-2---0---3---2---2---0---2---5---|


D#|---------------------------------|---------------------------------|---------------------------------|
A#|---------------------------------|---------------------------------|---------------------------------|
F#|---------------------------------|---------------------------------|---------------------------------|
C#|-4-----------4---4-----------4---|-4-----------4---4-----------5---|-4-----------4---4-----------4---|
G#|-4---2---5---4---4---2---5---4---|-4---2---5---4---4---2---4---5---|-4---2---5---4---4---2---5---4---|
D#|-2---0---3---2---2---0---3---2---|-2---0---3---2---2---0---2---3---|-2---0---3---2---2---0---3---2---|


D#|---------------------------------|---------------------------------|---------------------------------|
A#|---------------------------------|---------------------------------|---------------------------------|
F#|---------------------------------|---------------------------------|---------------------------------|
C#|-4-----------4---4-----------7---|-4-----------4---4-----------4---|-4-----------4---4-----------5---|
G#|-4---2---5---4---4---2---4---7---|-4---2---5---4---4---2---5---4---|-4---2---5---4---4---2---4---5---|
D#|-2---0---3---2---2---0---2---5---|-2---0---3---2---2---0---3---2---|-2---0---3---2---2---0---2---3---|


D#|---------------------------------|---------------------------------|---------------------------------|
A#|---------------------------------|---------------------------------|---------------------------------|
F#|---------------------------------|---------------------------------|-----------------------------5---|
C#|-4-----------4---4-----------4---|-4-----------4---4-----------7---|-4-----------7---7-----------5---|
G#|-4---2---5---4---4---2---5---4---|-4---2---5---4---4---2---4---7---|-4---2---4---7---7---2---4---3---|
D#|-2---0---3---2---2---0---3---2---|-2---0---3---2---2---0---2---5---|-2---0---2---5---5---0---2-------|


D#|---------------------------------|---------------------------------|---------------------------------|
A#|---------------------------------|---------------------------------|---------------------------------|
F#|-5---4---5-----------------------|-----------------------------5---|-5---4---5---------------5--4----|
C#|-5---4---5-----------------------|-4-----------7---7-----------5---|-5---4---5---------------5--4----|
G#|-3---2---3---2---2---2---2---2---|-4---2---4---7---7---2---4---3---|-3---2---3---2---2---2---3--2----|
D#|-------------0---0---0---0---0---|-2---0---2---5---5---0---2-------|-------------0---0---0-----------|


D#|---------------------------------|---------------------------------|---------------------------------|
A#|---------------------------------|---------------------------------|---------------------------------|
F#|-----------------------------5---|-5---4---5-----------------------|-----------------------------5---|
C#|-4-----------7---7-----------5---|-5---4---5-----------------------|-4-----------7---7-----------5---|
G#|-4---2---4---7---7---2---4---3---|-3---2---3---2---2---2---2---2---|-4---2---4---7---7---2---4---3---|
D#|-2---0---2---5---5---0---2-------|-------------0---0---0---0---0---|-2---0---2---5---5---0---2-------|


D#|------------------------------|--------|-------------|--------|-------------|--------|
A#|------------------------------|--------|-------------|--------|-------------|--------|
F#|-5---4---5--------------------|-4------|-4-----4-----|-2------|-2-----2-----|-6------|
C#|-5---4---5--------------------|-4------|-4-----4-----|-2------|-2-----2-----|-6------|
G#|-3---2---3---2---2---2--------|-2------|-2-----2-----|-0------|-0-----0-----|-4------|
D#|-------------0---0---0---17---|--------|-------------|--------|-------------|--------|


D#|-------------|-------------|---------------------|--------|-----------------|--------|
A#|-------------|-------------|----------------3----|-3------|-3-----3---------|--------|
F#|-6-----6-----|-------------|----------------2----|-2------|-2-----2---------|-4------|
C#|-6-----6-----|-4------4----|-4----2----2----0----|-0------|-0-----0---------|-4------|
G#|-4-----4-----|-4------4----|-4----2----2----0----|-0------|-0-----0----4----|-2------|
D#|-------------|-2------2----|-2----0----0---------|--------|-----------------|--------|


D#|-----------------|--------|-------------|--------|-------------|-------------|-------------|
A#|-----------------|--------|-------------|--------|-------------|-15----------|-------15----|
F#|-4-----4---------|--------|-------------|--------|-------------|--------11---|-11----------|
C#|-4-----4---------|--------|-------------|-5------|-5-----5-----|-12----------|-------12----|
G#|-2-----2----0----|--------|-------------|-5------|-5-----5-----|--------9----|-9-----------|
D#|-----------------|-4------|-4-----4-----|-3------|-3-----3-----|-------------|-------------|


D#|-------------|-------------|-------------|-------------|-------------|--------|
A#|-14----------|-------14----|-13----------|-------------|-------------|--------|
F#|--------11---|-11----------|--------14---|-13----11----|-13-----14---|-13-----|
C#|-11----------|-------11----|-10----------|-------------|-------------|--------|
G#|--------9----|-9-----------|--------12---|-11----9-----|-11-----12---|-11-----|
D#|-------------|-------------|-------------|-------------|-------------|--------|


D#|------------------------------|---------------------------|------------------------------|
A#|------------------------------|---------------------------|------------------------------|
F#|------------------------------|---------------------------|------------------------------|
C#|------------------------------|---------------------------|------------------------------|
G#|-4---4---4---2---2---4----7---|-7---4----2---2---4---5----|-4---4---4---2---2---4----7---|
D#|-2---2---2---0---0---2----5---|-5---2----0---0---2---3----|-2---2---2---0---0---2----5---|


D#|---------------------------|---------------------------------|------------------------------|
A#|---------------------------|---------------------------------|------------------------------|
F#|---------------------------|---------------------------------|------------------------------|
C#|---------------------------|---------------------------------|------------------------------|
G#|-7---4----2---2---4---3----|-4---4---4---2---2---4---4---7---|-7---4---4---2---2---4---5----|
D#|-5---2----0---0---2--------|-2---2---2---0---0---2---2---5---|-5---2---2---0---0---2---3----|


D#|---------------------------------|------------------------------|---------------------------------|
A#|---------------------------------|------------------------------|---------------------------------|
F#|---------------------------------|------------------------------|---------------------------------|
C#|---------------------------------|-------------------------5----|---------------------------------|
G#|-4---4---4---2---2---4---4---7---|-7---4---4---2---2---4---3----|-4---4---4---2---2---4---4---7---|
D#|-2---2---2---0---0---2---2---5---|-5---2---2---0---0---2--------|-2---2---2---0---0---2---2---5---|


D#|---------------------------------|---------------------------------|---------------------------------|
A#|---------------------------------|---------------------------------|---------------------------------|
F#|---------------------------------|---------------------------------|---------------------------------|
C#|---------------------------------|---------------------------------|-------------------------5---5---|
G#|-7---4---4---2---2---4---5---5---|-4---4---4---2---2---4---4---7---|-7---4---4---2---2---4---3---3---|
D#|-5---2---2---0---0---2---3---3---|-2---2---2---0---0---2---2---5---|-5---2---2---0---0---2-----------|


D#|---------------------------------|---------------------------------|---------------------------------|
A#|---------------------------------|---------------------------------|---------------------------------|
F#|---------------------------------|---------------------------------|---------------------------------|
C#|---------------------------------|---------------------------------|---------------------------------|
G#|-4---4---4---2---2---4---4---7---|-7---4---4---2---2---4---5---5---|-4---4---4---2---2---4---4---7---|
D#|-2---2---2---0---0---2---2---5---|-5---2---2---0---0---2---3---3---|-2---2---2---0---0---2---2---5---|


D#|---------------------------------|---------------------------------|------------------------------|
A#|---------------------------------|---------------------------------|------------------------------|
F#|---------------------------------|---------------------------------|------------------------------|
C#|-------------------------5---5---|---------------------------------|------------------------------|
G#|-7---4---4---2---2---4---3---3---|-4---4---4---2---2---4---4---7---|-7---4---4---2---2---4---5----|
D#|-5---2---2---0---0---2-----------|-2---2---2---0---0---2---2---5---|-5---2---2---0---0---2---3----|


D#|---------------------------------|------------------------------|---------------------------------|
A#|---------------------------------|------------------------------|---------------------------------|
F#|---------------------------------|------------------------------|---------------------------------|
C#|---------------------------------|-------------------------5----|---------------------------------|
G#|-4---4---4---2---2---4---4---7---|-7---4---4---2---2---4---3----|-4---4---4---2---2---4---4---7---|
D#|-2---2---2---0---0---2---2---5---|-5---2---2---0---0---2--------|-2---2---2---0---0---2---2---5---|


D#|------------------------------|---------------------------------|------------------------------|
A#|------------------------------|---------------------------------|------------------------------|
F#|------------------------------|---------------------------------|------------------------------|
C#|------------------------------|---------------------------------|-------------------------5----|
G#|-7---4---4---2---2---4---5----|-4---4---4---2---2---4---4---7---|-7---4---4---2---2---4---3----|
D#|-5---2---2---0---0---2---3----|-2---2---2---0---0---2---2---5---|-5---2---2---0---0---2--------|


D#|------------------------------|---------------------------|------------------------------|
A#|------------------------------|---------------------------|------------------------------|
F#|------------------------------|---------------------------|------------------------------|
C#|-6---6---6---4---4---6----9---|-9---6----4---4---6---7----|-6---6---6---4---4---6----9---|
G#|-4---4---4---2---2---4----7---|-7---4----2---2---4---5----|-4---4---4---2---2---4----7---|
D#|------------------------------|---------------------------|------------------------------|


D#|---------------------------|------------------------------|---------------------------|
A#|---------------------------|------------------------------|---------------------------|
F#|---------------------------|------------------------------|---------------------------|
C#|-9---6----4---4---6--------|-6---6---6---4---4---6----9---|-9---6----4---4---6---7----|
G#|-7---4----2---2---4---5----|-4---4---4---2---2---4----7---|-7---4----2---2---4---5----|
D#|----------------------3----|------------------------------|---------------------------|


D#|------------------------------|---------------------------|---------------------------------|
A#|------------------------------|---------------------------|---------------------------------|
F#|------------------------------|---------------------------|-----------------------------2---|
C#|-6---6---6---4---4---6----9---|-9---6----4---4---6--------|-----4-------2-------4-----------|
G#|-4---4---4---2---2---4----7---|-7---4----2---2---4---5----|---------------------------------|
D#|------------------------------|----------------------3----|-2-------2-------2-------2-------|


D#|---------------------------------|---------------------------------|---------------------------------|
A#|---------------------------------|---------------------------------|---------------------------------|
F#|-----------------------------4---|-----------------------------2---|-----------------------------4---|
C#|-----4-------2-------4---5-------|-----4-------2-------4-----------|-----4-------2-------4---5-------|
G#|---------------------------------|---------------------------------|---------------------------------|
D#|-2-------2-------2---------------|-2-------2-------2-------2-------|-2-------2-------2---------------|


D#|---------------------------------|---------------------------------|---------------------------------|
A#|---------------------------------|---------------------------------|---------------------------------|
F#|-----------------------------2---|-----------------------------4---|-----------------------------2---|
C#|-----4-------2-------4-----------|-----4-------2-------4---5-------|-----4-------2-------4-----------|
G#|---------------------------------|---------------------------------|---------------------------------|
D#|-2-------2-------2-------2-------|-2-------2-------2---------------|-2-------2-------2-------2-------|


D#|---------------------------------|------------------------------|------------------------------|
A#|---------------------------------|------------------------------|------------------------------|
F#|-----------------------------4---|-4---6---6---6---6----7---6---|-6---6---6----4---6---6---6---|
C#|-----4-------2-------4---5-------|-4---6---6---6---6----7---6---|-6---6---6----4---6---6---6---|
G#|---------------------------------|-2---4---4---4---4----5---4---|-4---4---4----2---4---4---4---|
D#|-2-------2-------2---------------|------------------------------|------------------------------|


D#|---------------------------|---------------------|--------------------|-------------|
A#|---------------------------|---------------------|--------------------|-------------|
F#|-6----7---6---6---6---6----|---------------------|--------------2-----|------4------|
C#|-6----7---6---6---6---6----|-4-----4---4----4----|-----4---4----2-----|------4------|
G#|-4----5---4---4---4---4----|-4-----4---4----4----|-----4---4----0-----|------2------|
D#|---------------------------|-2-----2---2----2----|-----2---2----------|-------------|


D#|------------------------------|------------------------------|------------------------|
A#|------------------------------|------------------------------|------------------------|
F#|-4---6---6---6---6----7---6---|-6---6---6----4---6---6---6---|-6----2-----2---2---2---|
C#|-4---6---6---6---6----7---6---|-6---6---6----4---6---6---6---|-6----2-----2---2---2---|
G#|-2---4---4---4---4----5---4---|-4---4---4----2---4---4---4---|-4----0-----0---0---0---|
D#|------------------------------|------------------------------|------------------------|


D#|---------------------|-----------------|------------------------|-----------------|
A#|---------------------|-----------------|------------------------|-----------------|
F#|---------------------|-----------------|------------------------|-----------------|
C#|-6-----6---6----6----|-------4-----4---|-4----2----2---2---2----|-4---------------|
G#|-6-----6---6----6----|-------4-----4---|-4----2----2---2---2----|-4---------------|
D#|-4-----4---4----4----|-------2-----2---|-2----0----0---0---0----|-2---------------|


D#|--------|--------|--------|-------------------------------------------------------------------------|
A#|--------|--------|--------|-------------------------------------------------------------------------|
F#|--------|--------|--------|-------------------------------------------------------------------------|
C#|--------|--------|--------|-16-9--7--------------------14-9--7--------------------------------------|
G#|--------|--------|--------|----------16-9--7--14-9--7-----------14-9--7--------------------12-9--7--|
D#|--------|--------|--------|----------------------------------------------14-9--7--12-9--7-----------|


D#|----------------------------------------------19-14-12-19-14-12-24-19-17-|-24-12-14----------------------------------------------------------------|
A#|-------------------------------------19-14-12----------------------------|----------24-12-14-19-12-14----------------------------------------------|
F#|----------------------------16-11-9--------------------------------------|----------------------------23-9--11-------------------------------------|
C#|----------14-9--7--16-11-9-----------------------------------------------|-------------------------------------21-9--11-16-7--9--------------------|
G#|-14-9--7-----------------------------------------------------------------|-------------------------------------------------------16-7--9--14-7--9--|
D#|-------------------------------------------------------------------------|-------------------------------------------------------------------------|


D#|-------------------------------------------------------------------------|---------------------------------|
A#|-------------------------------------------------------------------------|---------------------------------|
F#|-------------------------------------------------------------------------|---------------------------------|
C#|-------------------------------7--9--14-------------------7--9--16-7--9--|---------------------------------|
G#|-12-------------------7--9--14----------7--9--14-7--9--16----------------|---------------------------------|
D#|----7--9--12-7--9--14----------------------------------------------------|-4---2---5---4---4---2---5---4---|


D#|---------------------------------|---------------------------------|---------------------------------|
A#|---------------------------------|---------------------------------|---------------------------------|
F#|---------------------------------|---------------------------------|---------------------------------|
C#|---------------------------------|---------------------------------|---------------------------------|
G#|---------------------------------|---------------------------------|-----------------------------2---|
D#|-4---2---5---4---4---2---4---5---|-4---2---5---4---4---2---5---4---|-4---2---5---4---4---2---4-------|


D#|---------------------------------|---------------------------------|---------------------------------|
A#|---------------------------------|---------------------------------|---------------------------------|
F#|---------------------------------|---------------------------------|---------------------------------|
C#|---------------------------------|---------------------------------|---------------------------------|
G#|---------------------------------|---------------------------------|---------------------------------|
D#|-4---2---5---4---4---2---5---4---|-4---2---5---4---4---2---4---5---|-4---2---5---4---4---2---5---4---|


D#|---------------------------------|---------------------------------|---------------------------------|
A#|---------------------------------|---------------------------------|---------------------------------|
F#|---------------------------------|---------------------------------|---------------------------------|
C#|---------------------------------|---------------------------------|---------------------------------|
G#|-----------------------------2---|-------------0---------------3---|-----2---0---1---2---------------|
D#|-4---2---5---4---4---2---4-------|-2---0---2-------0---1---2-------|-2-------------------2---3---0---|


D#|---------------------------------|---------------------------------|---------------------------------|
A#|---------------------------------|---------------------------------|---------------------------------|
F#|---------------------------------|---------------------------------|---------------------------------|
C#|---------------------------------|---------------------------------|---------------------------------|
G#|-------------0---------------3---|-----2---0---1---2---------------|-------------0---------------3---|
D#|-2---0---2-------0---1---2-------|-2-------------------2---3---0---|-2---0---2-------0---1---2-------|


D#|---------------------------------|---------------------------------|---------------------------------|
A#|---------------------------------|---------------------------------|---------------------------------|
F#|---------------------------------|---------------------------------|---------------------------------|
C#|---------------------------------|---------------------------------|---------------------------------|
G#|-----2---0---1---2---------------|-------------0---------------3---|-----2---0---1---2---------------|
D#|-2-------------------2---3---0---|-2---0---2-------0---1---2-------|-2-------------------2---3---0---|


D#|---------------------------------|---------------------------------|---------------------------------|
A#|---------------------------------|---------------------------------|---------------------------------|
F#|---------------------------------|---------------------------------|---------------------------------|
C#|---------------------------------|---------------------------------|---------------------------------|
G#|-2---0---3---2---2---0---3---2---|-2---0---3---2---2---0---2---3---|-2---0---3---2---2---0---3---2---|
D#|---------------------------------|---------------------------------|---------------------------------|


D#|---------------------------------|---------------------------------|---------------------------------|
A#|---------------------------------|---------------------------------|---------------------------------|
F#|---------------------------------|---------------------------------|---------------------------------|
C#|---------------------------------|---------------------------------|---------------------------------|
G#|-2---0---3---2---2---0---2---5---|-2---0---3---2---2---0---3---2---|-2---0---3---2---2---0---2---3---|
D#|---------------------------------|---------------------------------|---------------------------------|


D#|---------------------------------|---------------------------------|--------|--------|
A#|---------------------------------|---------------------------------|--------|--------|
F#|---------------------------------|---------------------------------|--------|--------|
C#|---------------------------------|---------------------------------|--------|--------|
G#|-2---0---3---2---2---0---3---2---|-2---0---3---2---2---0---2---5---|--------|--------|
D#|---------------------------------|---------------------------------|--------|--------|


D#|--------|--------|--------|--------|--------|--------|--------|--------|--------|
A#|--------|--------|--------|--------|--------|--------|--------|--------|--------|
F#|--------|--------|--------|--------|--------|--------|--------|--------|--------|
C#|--------|--------|--------|--------|--------|--------|--------|--------|--------|
G#|--------|--------|--------|--------|--------|--------|--------|--------|--------|
D#|--------|--------|--------|--------|--------|--------|--------|--------|--------|


D#|--------|--------|-------------|-------------|---------------------|--------|-----------------|
A#|--------|--------|-------------|-------------|----------------3----|-3------|-3-----3---------|
F#|--------|-6------|-6-----6-----|-------------|----------------2----|-2------|-2-----2---------|
C#|--------|-6------|-6-----6-----|-4------4----|-4----2----2----0----|-0------|-0-----0---------|
G#|--------|-4------|-4-----4-----|-4------4----|-4----2----2----0----|-0------|-0-----0----4----|
D#|--------|--------|-------------|-2------2----|-2----0----0---------|--------|-----------------|


D#|--------|-----------------|--------|-------------|--------|-------------|-------------|
A#|--------|-----------------|--------|-------------|--------|-------------|-15----------|
F#|-4------|-4-----4---------|--------|-------------|--------|-------------|--------11---|
C#|-4------|-4-----4---------|--------|-------------|-5------|-5-----5-----|-12----------|
G#|-2------|-2-----2----0----|--------|-------------|-5------|-5-----5-----|--------9----|
D#|--------|-----------------|-4------|-4-----4-----|-3------|-3-----3-----|-------------|


D#|-------------|-------------|-------------|-------------|-------------|-------------|
A#|-------15----|-14----------|-------14----|-13----------|-------------|-------------|
F#|-11----------|--------11---|-11----------|--------14---|-13----11----|-13-----14---|
C#|-------12----|-11----------|-------11----|-10----------|-------------|-------------|
G#|-9-----------|--------9----|-9-----------|--------12---|-11----9-----|-11-----12---|
D#|-------------|-------------|-------------|-------------|-------------|-------------|


D#|--------|-------------|-------------|-------------|-------------|-------------|
A#|--------|-15----------|-------15----|-14----------|-------14----|-13----------|
F#|-13-----|--------11---|-11----------|--------11---|-11----------|--------14---|
C#|--------|-12----------|-------12----|-11----------|-------11----|-10----------|
G#|-11-----|--------9----|-9-----------|--------9----|-9-----------|--------12---|
D#|--------|-------------|-------------|-------------|-------------|-------------|


D#|-------------|--------|--------|---------------------------------|---------------------------------|
A#|-------------|-14-----|-14-----|---------------------------------|---------------------------------|
F#|-13----11----|--------|--------|---------------------------------|---------------------------------|
C#|-------------|-11-----|-11-----|---------------------------------|---------------------------------|
G#|-11----9-----|--------|--------|-------------0---------------3---|-----2---0---1---2---------------|
D#|-------------|--------|--------|-2---0---2-------0---1---2-------|-2-------------------2---3---0---|


D#|---------------------------------|---------------------------------|---------------------------------|
A#|---------------------------------|---------------------------------|---------------------------------|
F#|---------------------------------|---------------------------------|---------------------------------|
C#|---------------------------------|---------------------------------|---------------------------------|
G#|-------------0---------------3---|-----2---0---1---2---------------|-------------0---------------3---|
D#|-2---0---2-------0---1---2-------|-2-------------------2---3---0---|-2---0---2-------0---1---2-------|


D#|---------------------------------|---------------------------------|---------------------------------|
A#|---------------------------------|---------------------------------|---------------------------------|
F#|---------------------------------|---------------------------------|---------------------------------|
C#|---------------------------------|---------------------------------|---------------------------------|
G#|-----2---0---1---2---------------|-------------0---------------3---|-----2---0---1---2---------------|
D#|-2-------------------2---3---0---|-2---0---2-------0---1---2-------|-2-------------------2---3---0---|


D#|---------------------------------|---------------------------------|---------------------------------|
A#|---------------------------------|---------------------------------|---------------------------------|
F#|---------------------------------|---------------------------------|---------------------------------|
C#|-----------------------------4---|-----2---------------------------|-----------------------------4---|
G#|-------------4-------------------|---------0---1---2---------------|-------------4-------------------|
D#|-2---0---2-------0---1---2-------|-2-------------------0---3---0---|-2---0---2-------0---1---2-------|


D#|---------------------------------|---------------------------------|---------------------------------|
A#|---------------------------------|---------------------------------|---------------------------------|
F#|---------------------------------|---------------------------------|---------------------------------|
C#|-----2---------------------------|-----------------------------4---|-----2---------------------------|
G#|---------0---1---2---------------|-------------4-------------------|---------0---1---2---------------|
D#|-2-------------------0---3---0---|-2---0---2-------0---1---2-------|-2-------------------0---3---0---|


D#|---------------------------------|---------------------------------|--------|--------|
A#|---------------------------------|---------------------------------|--------|--------|
F#|---------------------------------|---------------------------------|--------|--------|
C#|-----------------------------4---|-----2---------------------------|-4------|-4------|
G#|-------------4-------------------|---------0---1---2---------------|-4------|-4------|
D#|-2---0---2-------0---1---2-------|-2-------------------0---3---0---|-2------|-2------|


D#|--------|--------|
A#|--------|--------|
F#|--------|--------|
C#|-4------|-4------|
G#|-4------|-4------|
D#|-2------|-2------|





Track 3: Distorted Guitar 2

D#|--------|--------|--------|--------|--------|--------|--------|--------|--------|
A#|--------|--------|--------|--------|--------|--------|--------|--------|--------|
F#|--------|--------|--------|--------|--------|--------|--------|--------|--------|
C#|--------|--------|--------|--------|--------|--------|--------|--------|--------|
G#|--------|--------|--------|--------|--------|--------|--------|--------|--------|
D#|--------|--------|--------|--------|--------|--------|--------|--------|--------|


D#|--------|--------|--------|--------|--------|--------|--------|-------------|--------|
A#|--------|--------|--------|--------|--------|--------|--------|-------------|--------|
F#|--------|--------|--------|--------|--------|--------|--------|--------11---|--------|
C#|--------|--------|--------|--------|--------|--------|--------|--------10---|--------|
G#|--------|--------|--------|--------|--------|--------|--------|--------9----|--------|
D#|--------|--------|--------|--------|--------|--------|--------|-------------|--------|


D#|--------|--------|--------|--------|--------|--------|--------|--------|--------|
A#|--------|--------|--------|--------|--------|--------|--------|--------|--------|
F#|--------|--------|--------|--------|--------|--------|--------|--------|--------|
C#|--------|--------|--------|--------|--------|--------|--------|--------|--------|
G#|--------|--------|--------|--------|--------|--------|--------|--------|--------|
D#|--------|--------|--------|--------|--------|--------|--------|--------|--------|


D#|--------|--------|--------|--------|--------|--------|--------|--------|--------|
A#|--------|--------|--------|--------|--------|--------|--------|--------|--------|
F#|--------|--------|--------|--------|--------|--------|--------|--------|--------|
C#|--------|--------|--------|--------|--------|--------|--------|--------|--------|
G#|--------|--------|--------|--------|--------|--------|--------|--------|--------|
D#|--------|--------|--------|--------|--------|--------|--------|--------|--------|


D#|--------|--------|--------|--------|--------|--------|--------|--------|--------|
A#|--------|--------|--------|--------|--------|--------|--------|--------|--------|
F#|--------|--------|--------|--------|--------|--------|--------|--------|--------|
C#|--------|--------|--------|--------|--------|--------|--------|--------|--------|
G#|--------|--------|--------|--------|--------|--------|--------|--------|--------|
D#|--------|--------|--------|--------|--------|--------|--------|--------|--------|


D#|--------|--------|--------|--------|--------|--------|--------|--------|--------|
A#|--------|--------|--------|--------|--------|--------|--------|--------|--------|
F#|--------|--------|--------|--------|--------|--------|--------|--------|--------|
C#|--------|--------|--------|--------|--------|--------|--------|--------|--------|
G#|--------|--------|--------|--------|--------|--------|--------|--------|--------|
D#|--------|--------|--------|--------|--------|--------|--------|--------|--------|


D#|--------|--------|--------|--------|--------|--------|--------|--------|--------|
A#|--------|--------|--------|--------|--------|--------|--------|--------|--------|
F#|--------|--------|--------|--------|--------|--------|--------|--------|--------|
C#|--------|--------|--------|--------|--------|--------|--------|--------|--------|
G#|--------|--------|--------|--------|--------|--------|--------|--------|--------|
D#|--------|--------|--------|--------|--------|--------|--------|--------|--------|


D#|--------|--------|---------------------------------|---------------------------------|
A#|--------|--------|---------------------------------|---------------------------------|
F#|--------|--------|---------------------------------|---------------------------------|
C#|--------|--------|-------------2---------------5---|-----4---2---3---4---------------|
G#|--------|--------|-4---2---4-------2---3---4-------|-4-------------------4---5---2---|
D#|--------|--------|---------------------------------|---------------------------------|


D#|---------------------------------|---------------------------------|--------|--------|
A#|---------------------------------|---------------------------------|--------|--------|
F#|---------------------------------|---------------------------------|--------|--------|
C#|-------------2---------------5---|-----4---2---3---4---------------|--------|--------|
G#|-4---2---4-------2---3---4-------|-4-------------------4---5---2---|--------|--------|
D#|---------------------------------|---------------------------------|--------|--------|


D#|--------|--------|--------|--------|--------|--------|--------|--------|--------|
A#|--------|--------|--------|--------|--------|--------|--------|--------|--------|
F#|--------|--------|--------|--------|--------|--------|--------|--------|--------|
C#|--------|--------|--------|--------|--------|--------|--------|--------|--------|
G#|--------|--------|--------|--------|--------|--------|--------|--------|--------|
D#|--------|--------|--------|--------|--------|--------|--------|--------|--------|


D#|--------|--------|--------|--------|--------|--------|--------|--------|--------|
A#|--------|--------|--------|--------|--------|--------|--------|--------|--------|
F#|--------|--------|--------|--------|--------|--------|--------|--------|--------|
C#|--------|--------|--------|--------|--------|--------|--------|--------|--------|
G#|--------|--------|--------|--------|--------|--------|--------|--------|--------|
D#|--------|--------|--------|--------|--------|--------|--------|--------|--------|


D#|--------|--------|--------|--------|--------|--------|--------|--------|--------|
A#|--------|--------|--------|--------|--------|--------|--------|--------|--------|
F#|--------|--------|--------|--------|--------|--------|--------|--------|--------|
C#|--------|--------|--------|--------|--------|--------|--------|--------|--------|
G#|--------|--------|--------|--------|--------|--------|--------|--------|--------|
D#|--------|--------|--------|--------|--------|--------|--------|--------|--------|


D#|--------|--------|--------|--------|--------|--------|--------|--------|--------|
A#|--------|--------|--------|--------|--------|--------|--------|--------|--------|
F#|--------|--------|--------|--------|--------|--------|--------|--------|--------|
C#|--------|--------|--------|--------|--------|--------|--------|--------|--------|
G#|--------|--------|--------|--------|--------|--------|--------|--------|--------|
D#|--------|--------|--------|--------|--------|--------|--------|--------|--------|


D#|--------|--------|--------|--------|--------|--------|--------|--------|--------|
A#|--------|--------|--------|--------|--------|--------|--------|--------|--------|
F#|--------|--------|--------|--------|--------|--------|--------|--------|--------|
C#|--------|--------|--------|--------|--------|--------|--------|--------|--------|
G#|--------|--------|--------|--------|--------|--------|--------|--------|--------|
D#|--------|--------|--------|--------|--------|--------|--------|--------|--------|


D#|--------|--------|--------|--------|--------|--------|--------|--------|--------|
A#|--------|--------|--------|--------|--------|--------|--------|--------|--------|
F#|--------|--------|--------|--------|--------|--------|--------|--------|--------|
C#|--------|--------|--------|--------|--------|--------|--------|--------|--------|
G#|--------|--------|--------|--------|--------|--------|--------|--------|--------|
D#|--------|--------|--------|--------|--------|--------|--------|--------|--------|


D#|--------|--------|--------|--------|--------|--------|--------|--------|--------|
A#|--------|--------|--------|--------|--------|--------|--------|--------|--------|
F#|--------|--------|--------|--------|--------|--------|--------|--------|--------|
C#|--------|--------|--------|--------|--------|--------|--------|--------|--------|
G#|--------|--------|--------|--------|--------|--------|--------|--------|--------|
D#|--------|--------|--------|--------|--------|--------|--------|--------|--------|


D#|--------|--------|--------|--------|--------|--------|--------|--------|--------|
A#|--------|--------|--------|--------|--------|--------|--------|--------|--------|
F#|--------|--------|--------|--------|--------|--------|--------|--------|--------|
C#|--------|--------|--------|--------|--------|--------|--------|--------|--------|
G#|--------|--------|--------|--------|--------|--------|--------|--------|--------|
D#|--------|--------|--------|--------|--------|--------|--------|--------|--------|


D#|--------|--------|--------|--------|--------|--------|--------|--------|--------|
A#|--------|--------|--------|--------|--------|--------|--------|--------|--------|
F#|--------|--------|--------|--------|--------|--------|--------|--------|--------|
C#|--------|--------|--------|--------|--------|--------|--------|--------|--------|
G#|--------|--------|--------|--------|--------|--------|--------|--------|--------|
D#|--------|--------|--------|--------|--------|--------|--------|--------|--------|


D#|--------|--------|--------|--------|--------|--------|--------|--------|--------|
A#|--------|--------|--------|--------|--------|--------|--------|--------|--------|
F#|--------|--------|--------|--------|--------|--------|--------|--------|--------|
C#|--------|--------|--------|--------|--------|--------|--------|--------|--------|
G#|--------|--------|--------|--------|--------|--------|--------|--------|--------|
D#|--------|--------|--------|--------|--------|--------|--------|--------|--------|


D#|--------|--------|--------|--------|--------|--------|--------|--------|--------|
A#|--------|--------|--------|--------|--------|--------|--------|--------|--------|
F#|--------|--------|--------|--------|--------|--------|--------|--------|--------|
C#|--------|--------|--------|--------|--------|--------|--------|--------|--------|
G#|--------|--------|--------|--------|--------|--------|--------|--------|--------|
D#|--------|--------|--------|--------|--------|--------|--------|--------|--------|


D#|--------|--------|--------|--------|--------|--------|--------|--------|--------|
A#|--------|--------|--------|--------|--------|--------|--------|--------|--------|
F#|--------|--------|--------|--------|--------|--------|--------|--------|--------|
C#|--------|--------|--------|--------|--------|--------|--------|--------|--------|
G#|--------|--------|--------|--------|--------|--------|--------|--------|--------|
D#|--------|--------|--------|--------|--------|--------|--------|--------|--------|


D#|--------|--------|--------|--------|--------|--------|--------|--------|--------|
A#|--------|--------|--------|--------|--------|--------|--------|--------|--------|
F#|--------|--------|--------|--------|--------|--------|--------|--------|--------|
C#|--------|--------|--------|--------|--------|--------|--------|--------|--------|
G#|--------|--------|--------|--------|--------|--------|--------|--------|--------|
D#|--------|--------|--------|--------|--------|--------|--------|--------|--------|


D#|--------|--------|--------|--------|--------|--------|--------|--------|--------|
A#|--------|--------|--------|--------|--------|--------|--------|--------|--------|
F#|--------|--------|--------|--------|--------|--------|--------|--------|--------|
C#|--------|--------|--------|--------|--------|--------|--------|--------|--------|
G#|--------|--------|--------|--------|--------|--------|--------|--------|--------|
D#|--------|--------|--------|--------|--------|--------|--------|--------|--------|


D#|--------|--------|--------|--------|--------|--------|--------|--------|--------|
A#|--------|--------|--------|--------|--------|--------|--------|--------|--------|
F#|--------|--------|--------|--------|--------|--------|--------|--------|--------|
C#|--------|--------|--------|--------|--------|--------|--------|--------|--------|
G#|--------|--------|--------|--------|--------|--------|--------|--------|--------|
D#|--------|--------|--------|--------|--------|--------|--------|--------|--------|


D#|--------|--------|--------|--------|--------|--------|--------|--------|--------|
A#|--------|--------|--------|--------|--------|--------|--------|--------|--------|
F#|--------|--------|--------|--------|--------|--------|--------|--------|--------|
C#|--------|--------|--------|--------|--------|--------|--------|--------|--------|
G#|--------|--------|--------|--------|--------|--------|--------|--------|--------|
D#|--------|--------|--------|--------|--------|--------|--------|--------|--------|


D#|--------|--------|--------|--------|--------|--------|--------|--------|--------|
A#|--------|--------|--------|--------|--------|--------|--------|--------|--------|
F#|--------|--------|--------|--------|--------|--------|--------|--------|--------|
C#|--------|--------|--------|--------|--------|--------|--------|--------|--------|
G#|--------|--------|--------|--------|--------|--------|--------|--------|--------|
D#|--------|--------|--------|--------|--------|--------|--------|--------|--------|


D#|--------|--------|--------|--------|--------|--------|--------|--------|--------|
A#|--------|--------|--------|--------|--------|--------|--------|--------|--------|
F#|--------|--------|--------|--------|--------|--------|--------|--------|--------|
C#|--------|--------|--------|--------|--------|--------|--------|--------|--------|
G#|--------|--------|--------|--------|--------|--------|--------|--------|--------|
D#|--------|--------|--------|--------|--------|--------|--------|--------|--------|


D#|--------|--------|--------|--------|--------|--------|--------|--------|--------|
A#|--------|--------|--------|--------|--------|--------|--------|--------|--------|
F#|--------|--------|--------|--------|--------|--------|--------|--------|--------|
C#|--------|--------|--------|--------|--------|--------|--------|--------|--------|
G#|--------|--------|--------|--------|--------|--------|--------|--------|--------|
D#|--------|--------|--------|--------|--------|--------|--------|--------|--------|


D#|--------|--------|--------|--------|--------|--------|--------|--------|--------|
A#|--------|--------|--------|--------|--------|--------|--------|--------|--------|
F#|--------|--------|--------|--------|--------|--------|--------|--------|--------|
C#|--------|--------|--------|--------|--------|--------|--------|--------|--------|
G#|--------|--------|--------|--------|--------|--------|--------|--------|--------|
D#|--------|--------|--------|--------|--------|--------|--------|--------|--------|


D#|--------|--------|--------|--------|--------|--------|--------|--------|--------|
A#|--------|--------|--------|--------|--------|--------|--------|--------|--------|
F#|--------|--------|--------|--------|--------|--------|--------|--------|--------|
C#|--------|--------|--------|--------|--------|--------|--------|--------|--------|
G#|--------|--------|--------|--------|--------|--------|--------|--------|--------|
D#|--------|--------|--------|--------|--------|--------|--------|--------|--------|


D#|--------|
A#|--------|
F#|--------|
C#|--------|
G#|--------|
D#|--------|





Track 4: Distorted Guitar 3

D#|--------|--------|--------|--------|--------|--------|--------|--------|--------|
A#|--------|--------|--------|--------|--------|--------|--------|--------|--------|
F#|--------|--------|--------|--------|--------|--------|--------|--------|--------|
C#|--------|--------|--------|--------|--------|--------|--------|--------|--------|
G#|--------|--------|--------|--------|--------|--------|--------|--------|--------|
D#|--------|--------|--------|--------|--------|--------|--------|--------|--------|


D#|--------|--------|--------|--------|--------|--------|--------|--------|--------|
A#|--------|--------|--------|--------|--------|--------|--------|--------|--------|
F#|--------|--------|--------|--------|--------|--------|--------|--------|--------|
C#|--------|--------|--------|--------|--------|--------|--------|--------|--------|
G#|--------|--------|--------|--------|--------|--------|--------|--------|--------|
D#|--------|--------|--------|--------|--------|--------|--------|--------|--------|


D#|--------|--------|--------|--------|--------|--------|--------|--------|--------|
A#|--------|--------|--------|--------|--------|--------|--------|--------|--------|
F#|--------|--------|--------|--------|--------|--------|--------|--------|--------|
C#|--------|--------|--------|--------|--------|--------|--------|--------|--------|
G#|--------|--------|--------|--------|--------|--------|--------|--------|--------|
D#|--------|--------|--------|--------|--------|--------|--------|--------|--------|


D#|--------|--------|--------|--------|--------|--------|--------|--------|--------|
A#|--------|--------|--------|--------|--------|--------|--------|--------|--------|
F#|--------|--------|--------|--------|--------|--------|--------|--------|--------|
C#|--------|--------|--------|--------|--------|--------|--------|--------|--------|
G#|--------|--------|--------|--------|--------|--------|--------|--------|--------|
D#|--------|--------|--------|--------|--------|--------|--------|--------|--------|


D#|--------|--------|--------|--------|--------|--------|--------|--------|--------|
A#|--------|--------|--------|--------|--------|--------|--------|--------|--------|
F#|--------|--------|--------|--------|--------|--------|--------|--------|--------|
C#|--------|--------|--------|--------|--------|--------|--------|--------|--------|
G#|--------|--------|--------|--------|--------|--------|--------|--------|--------|
D#|--------|--------|--------|--------|--------|--------|--------|--------|--------|


D#|--------|--------|--------|--------|--------|--------|--------|--------|--------|
A#|--------|--------|--------|--------|--------|--------|--------|--------|--------|
F#|--------|--------|--------|--------|--------|--------|--------|--------|--------|
C#|--------|--------|--------|--------|--------|--------|--------|--------|--------|
G#|--------|--------|--------|--------|--------|--------|--------|--------|--------|
D#|--------|--------|--------|--------|--------|--------|--------|--------|--------|


D#|--------|--------|--------|--------|--------|--------|--------|--------|--------|
A#|--------|--------|--------|--------|--------|--------|--------|--------|--------|
F#|--------|--------|--------|--------|--------|--------|--------|--------|--------|
C#|--------|--------|--------|--------|--------|--------|--------|--------|--------|
G#|--------|--------|--------|--------|--------|--------|--------|--------|--------|
D#|--------|--------|--------|--------|--------|--------|--------|--------|--------|


D#|--------|--------|--------|--------|--------|--------|--------|--------|--------|
A#|--------|--------|--------|--------|--------|--------|--------|--------|--------|
F#|--------|--------|--------|--------|--------|--------|--------|--------|--------|
C#|--------|--------|--------|--------|--------|--------|--------|--------|--------|
G#|--------|--------|--------|--------|--------|--------|--------|--------|--------|
D#|--------|--------|--------|--------|--------|--------|--------|--------|--------|


D#|--------|--------|--------|--------|--------|--------|--------|--------|--------|
A#|--------|--------|--------|--------|--------|--------|--------|--------|--------|
F#|--------|--------|--------|--------|--------|--------|--------|--------|--------|
C#|--------|--------|--------|--------|--------|--------|--------|--------|--------|
G#|--------|--------|--------|--------|--------|--------|--------|--------|--------|
D#|--------|--------|--------|--------|--------|--------|--------|--------|--------|


D#|--------|--------|--------|--------|--------|--------|--------|--------|--------|
A#|--------|--------|--------|--------|--------|--------|--------|--------|--------|
F#|--------|--------|--------|--------|--------|--------|--------|--------|--------|
C#|--------|--------|--------|--------|--------|--------|--------|--------|--------|
G#|--------|--------|--------|--------|--------|--------|--------|--------|--------|
D#|--------|--------|--------|--------|--------|--------|--------|--------|--------|


D#|--------|--------|--------|--------|--------|--------|--------|--------|--------|
A#|--------|--------|--------|--------|--------|--------|--------|--------|--------|
F#|--------|--------|--------|--------|--------|--------|--------|--------|--------|
C#|--------|--------|--------|--------|--------|--------|--------|--------|--------|
G#|--------|--------|--------|--------|--------|--------|--------|--------|--------|
D#|--------|--------|--------|--------|--------|--------|--------|--------|--------|


D#|--------|--------|--------|--------|--------|--------|--------|--------|--------|
A#|--------|--------|--------|--------|--------|--------|--------|--------|--------|
F#|--------|--------|--------|--------|--------|--------|--------|--------|--------|
C#|--------|--------|--------|--------|--------|--------|--------|--------|--------|
G#|--------|--------|--------|--------|--------|--------|--------|--------|--------|
D#|--------|--------|--------|--------|--------|--------|--------|--------|--------|


D#|--------|--------|--------|--------|--------|--------|--------|--------|--------|
A#|--------|--------|--------|--------|--------|--------|--------|--------|--------|
F#|--------|--------|--------|--------|--------|--------|--------|--------|--------|
C#|--------|--------|--------|--------|--------|--------|--------|--------|--------|
G#|--------|--------|--------|--------|--------|--------|--------|--------|--------|
D#|--------|--------|--------|--------|--------|--------|--------|--------|--------|


D#|--------|--------|--------|--------|--------|--------|--------|--------|--------|
A#|--------|--------|--------|--------|--------|--------|--------|--------|--------|
F#|--------|--------|--------|--------|--------|--------|--------|--------|--------|
C#|--------|--------|--------|--------|--------|--------|--------|--------|--------|
G#|--------|--------|--------|--------|--------|--------|--------|--------|--------|
D#|--------|--------|--------|--------|--------|--------|--------|--------|--------|


D#|--------|--------|--------|--------|--------|--------|--------|--------|--------|
A#|--------|--------|--------|--------|--------|--------|--------|--------|--------|
F#|--------|--------|--------|--------|--------|--------|--------|--------|--------|
C#|--------|--------|--------|--------|--------|--------|--------|--------|--------|
G#|--------|--------|--------|--------|--------|--------|--------|--------|--------|
D#|--------|--------|--------|--------|--------|--------|--------|--------|--------|


D#|--------|--------|--------|--------|--------|--------|--------|--------|--------|
A#|--------|--------|--------|--------|--------|--------|--------|--------|--------|
F#|--------|--------|--------|--------|--------|--------|--------|--------|--------|
C#|--------|--------|--------|--------|--------|--------|--------|--------|--------|
G#|--------|--------|--------|--------|--------|--------|--------|--------|--------|
D#|--------|--------|--------|--------|--------|--------|--------|--------|--------|


D#|--------|--------|--------|--------|--------|--------|--------|--------|--------|
A#|--------|--------|--------|--------|--------|--------|--------|--------|--------|
F#|--------|--------|--------|--------|--------|--------|--------|--------|--------|
C#|--------|--------|--------|--------|--------|--------|--------|--------|--------|
G#|--------|--------|--------|--------|--------|--------|--------|--------|--------|
D#|--------|--------|--------|--------|--------|--------|--------|--------|--------|


D#|--------|--------|--------|--------|--------|--------|--------|--------|--------|
A#|--------|--------|--------|--------|--------|--------|--------|--------|--------|
F#|--------|--------|--------|--------|--------|--------|--------|--------|--------|
C#|--------|--------|--------|--------|--------|--------|--------|--------|--------|
G#|--------|--------|--------|--------|--------|--------|--------|--------|--------|
D#|--------|--------|--------|--------|--------|--------|--------|--------|--------|


D#|--------|--------|--------|--------|--------|--------|--------|--------|--------|
A#|--------|--------|--------|--------|--------|--------|--------|--------|--------|
F#|--------|--------|--------|--------|--------|--------|--------|--------|--------|
C#|--------|--------|--------|--------|--------|--------|--------|--------|--------|
G#|--------|--------|--------|--------|--------|--------|--------|--------|--------|
D#|--------|--------|--------|--------|--------|--------|--------|--------|--------|


D#|--------|--------|--------|--------|--------|--------|--------|--------|--------|
A#|--------|--------|--------|--------|--------|--------|--------|--------|--------|
F#|--------|--------|--------|--------|--------|--------|--------|--------|--------|
C#|--------|--------|--------|--------|--------|--------|--------|--------|--------|
G#|--------|--------|--------|--------|--------|--------|--------|--------|--------|
D#|--------|--------|--------|--------|--------|--------|--------|--------|--------|


D#|--------|--------|--------|--------|--------|--------|--------|--------|--------|
A#|--------|--------|--------|--------|--------|--------|--------|--------|--------|
F#|--------|--------|--------|--------|--------|--------|--------|--------|--------|
C#|--------|--------|--------|--------|--------|--------|--------|--------|--------|
G#|--------|--------|--------|--------|--------|--------|--------|--------|--------|
D#|--------|--------|--------|--------|--------|--------|--------|--------|--------|


D#|--------|--------|--------|--------|-------------------------------------|---------------------------|
A#|--------|--------|--------|--------|-12--10--13--12--12--12--10-8--------|---------------------------|
F#|--------|--------|--------|--------|-------------------------------11-9--|-8-------9---8---8----8----|
C#|--------|--------|--------|--------|-------------------------------------|-----10--------------------|
G#|--------|--------|--------|--------|-------------------------------------|---------------------------|
D#|--------|--------|--------|--------|-------------------------------------|---------------------------|


D#|-------------------------------------------------|-------------------------------|
A#|-------------------------------------------------|-------------------------------|
F#|----------8--9--8-----8--------------------------|-------------------------------|
C#|----9--10----------10----10-9--7--10-9--7--------|-------------------------------|
G#|-------------------------------------------10-9--|-7--10-9--7-----7--------------|
D#|-------------------------------------------------|-------------11----11-8--7-----|


D#|-----------------------------------|-----------------------------------------|-------------------------------------------------|
A#|-----12--12-12-12------------------|-----------------------------------------|-------------------------------------------------|
F#|-------------------11---12-12--14--|-8----9--9---11--------------------------|-------9--------9--11----9--11-12-9--11----9-----|
C#|-----------------------------------|-----------------9--10-9-----9--10-13-9--|-10-13----10-13-------13----------------13----10-|
G#|-----------------------------------|--------------------------13-------------|-------------------------------------------------|
D#|-----------------------------------|-----------------------------------------|-------------------------------------------------|


D#|---------------------------------------------------------|---------------------|
A#|-------------------------------------------------12--12--|-7-----10--10----13--|
F#|----------------------9--11-12-9--11-12-11-12-14---------|-9-----12--12----15--|
C#|-13-9--10----9--10-13------------------------------------|---------------------|
G#|----------13---------------------------------------------|---------------------|
D#|---------------------------------------------------------|---------------------|


D#|---------------------|-----------14----------------------|---------------------------------------------|
A#|-13------------------|-----17-------17-14----16-14----14-|---------------------------------------------|
F#|-15---15---15----15--|--------------------17-------17----|-17-16-14-17-16-14-------16-14-------14--14--|
C#|---------------------|-----------------------------------|-------------------16-14-------16-14---------|
G#|---------------------|-----------------------------------|---------------------------------------------|
D#|---------------------|-----------------------------------|---------------------------------------------|


D#|-----------------19--20--21--19--21---|-21-21-------20-21-20----------19-20-19-------------|
A#|-2---19--19--22-----------------------|-------19-22----------22-19-22----------22-19---19--|
F#|--------------------------------------|----------------------------------------------------|
C#|--------------------------------------|----------------------------------------------------|
G#|--------------------------------------|----------------------------------------------------|
D#|--------------------------------------|----------------------------------------------------|


D#|-------------------------------------------------14----|-----------------------------------------------|
A#|-------------------------------10-------12-10-------13-|-12-11----11-12-13-14--13-12-10----------------|
F#|-------------------9--11-9--------11-9--------11-------|-------14-----------------------12-11-9--11-12-|
C#|-------------9--11----------11-------------------------|-----------------------------------------------|
G#|-------9--12-------------------------------------------|-----------------------------------------------|
D#|-9--12-------------------------------------------------|-----------------------------------------------|


D#|-----------------|--------|--------|--------|--------|--------|--------|--------|
A#|-12----12--------|--------|--------|--------|--------|--------|--------|--------|
F#|-----------------|--------|--------|--------|--------|--------|--------|--------|
C#|-----------------|--------|--------|--------|--------|--------|--------|--------|
G#|-----------------|--------|--------|--------|--------|--------|--------|--------|
D#|-----------------|--------|--------|--------|--------|--------|--------|--------|


D#|--------|--------|--------|--------|--------|--------|--------|--------|--------|
A#|--------|--------|--------|--------|--------|--------|--------|--------|--------|
F#|--------|--------|--------|--------|--------|--------|--------|--------|--------|
C#|--------|--------|--------|--------|--------|--------|--------|--------|--------|
G#|--------|--------|--------|--------|--------|--------|--------|--------|--------|
D#|--------|--------|--------|--------|--------|--------|--------|--------|--------|


D#|--------|--------|--------|--------|--------|--------|--------|--------|--------|
A#|--------|--------|--------|--------|--------|--------|--------|--------|--------|
F#|--------|--------|--------|--------|--------|--------|--------|--------|--------|
C#|--------|--------|--------|--------|--------|--------|--------|--------|--------|
G#|--------|--------|--------|--------|--------|--------|--------|--------|--------|
D#|--------|--------|--------|--------|--------|--------|--------|--------|--------|


D#|--------|--------|--------|--------|--------|--------|--------|--------|--------|
A#|--------|--------|--------|--------|--------|--------|--------|--------|--------|
F#|--------|--------|--------|--------|--------|--------|--------|--------|--------|
C#|--------|--------|--------|--------|--------|--------|--------|--------|--------|
G#|--------|--------|--------|--------|--------|--------|--------|--------|--------|
D#|--------|--------|--------|--------|--------|--------|--------|--------|--------|


D#|--------|--------|--------|--------|--------|--------|--------|--------|--------|
A#|--------|--------|--------|--------|--------|--------|--------|--------|--------|
F#|--------|--------|--------|--------|--------|--------|--------|--------|--------|
C#|--------|--------|--------|--------|--------|--------|--------|--------|--------|
G#|--------|--------|--------|--------|--------|--------|--------|--------|--------|
D#|--------|--------|--------|--------|--------|--------|--------|--------|--------|


D#|--------|--------|--------|--------|--------|--------|--------|--------|
A#|--------|--------|--------|--------|--------|--------|--------|--------|
F#|--------|--------|--------|--------|--------|--------|--------|--------|
C#|--------|--------|--------|--------|--------|--------|--------|--------|
G#|--------|--------|--------|--------|--------|--------|--------|--------|
D#|--------|--------|--------|--------|--------|--------|--------|--------|





Track 5: Clean Electric

D#|--------|--------|--------|--------|--------|--------|--------|--------|--------|
A#|--------|--------|--------|--------|--------|--------|--------|--------|--------|
F#|--------|--------|--------|--------|--------|--------|--------|--------|--------|
C#|--------|--------|--------|--------|--------|--------|--------|--------|--------|
G#|--------|--------|--------|--------|--------|--------|--------|--------|--------|
D#|--------|--------|--------|--------|--------|--------|--------|--------|--------|


D#|--------|--------|--------|--------|--------|--------|--------|--------|--------|
A#|--------|--------|--------|--------|--------|--------|--------|--------|--------|
F#|--------|--------|--------|--------|--------|--------|--------|--------|--------|
C#|--------|--------|--------|--------|--------|--------|--------|--------|--------|
G#|--------|--------|--------|--------|--------|--------|--------|--------|--------|
D#|--------|--------|--------|--------|--------|--------|--------|--------|--------|


D#|--------|--------|--------|--------|--------|--------|--------|--------|--------|
A#|--------|--------|--------|--------|--------|--------|--------|--------|--------|
F#|--------|--------|--------|--------|--------|--------|--------|--------|--------|
C#|--------|--------|--------|--------|--------|--------|--------|--------|--------|
G#|--------|--------|--------|--------|--------|--------|--------|--------|--------|
D#|--------|--------|--------|--------|--------|--------|--------|--------|--------|


D#|--------|--------|--------|--------|--------|--------|--------|--------|--------|
A#|--------|--------|--------|--------|--------|--------|--------|--------|--------|
F#|--------|--------|--------|--------|--------|--------|--------|--------|--------|
C#|--------|--------|--------|--------|--------|--------|--------|--------|--------|
G#|--------|--------|--------|--------|--------|--------|--------|--------|--------|
D#|--------|--------|--------|--------|--------|--------|--------|--------|--------|


D#|--------|--------|--------|--------|--------|--------|--------|--------|--------|
A#|--------|--------|--------|--------|--------|--------|--------|--------|--------|
F#|--------|--------|--------|--------|--------|--------|--------|--------|--------|
C#|--------|--------|--------|--------|--------|--------|--------|--------|--------|
G#|--------|--------|--------|--------|--------|--------|--------|--------|--------|
D#|--------|--------|--------|--------|--------|--------|--------|--------|--------|


D#|--------|--------|--------|--------|--------|--------|--------|--------|--------|
A#|--------|--------|--------|--------|--------|--------|--------|--------|--------|
F#|--------|--------|--------|--------|--------|--------|--------|--------|--------|
C#|--------|--------|--------|--------|--------|--------|--------|--------|--------|
G#|--------|--------|--------|--------|--------|--------|--------|--------|--------|
D#|--------|--------|--------|--------|--------|--------|--------|--------|--------|


D#|--------|--------|--------|--------|--------|--------|--------|--------|--------|
A#|--------|--------|--------|--------|--------|--------|--------|--------|--------|
F#|--------|--------|--------|--------|--------|--------|--------|--------|--------|
C#|--------|--------|--------|--------|--------|--------|--------|--------|--------|
G#|--------|--------|--------|--------|--------|--------|--------|--------|--------|
D#|--------|--------|--------|--------|--------|--------|--------|--------|--------|


D#|--------|--------|--------|--------|--------|--------|--------|--------|--------|
A#|--------|--------|--------|--------|--------|--------|--------|--------|--------|
F#|--------|--------|--------|--------|--------|--------|--------|--------|--------|
C#|--------|--------|--------|--------|--------|--------|--------|--------|--------|
G#|--------|--------|--------|--------|--------|--------|--------|--------|--------|
D#|--------|--------|--------|--------|--------|--------|--------|--------|--------|


D#|--------|--------|--------|--------|--------|--------|--------|--------|--------|
A#|--------|--------|--------|--------|--------|--------|--------|--------|--------|
F#|--------|--------|--------|--------|--------|--------|--------|--------|--------|
C#|--------|--------|--------|--------|--------|--------|--------|--------|--------|
G#|--------|--------|--------|--------|--------|--------|--------|--------|--------|
D#|--------|--------|--------|--------|--------|--------|--------|--------|--------|


D#|--------|--------|--------|--------|--------|--------|--------|--------|--------|
A#|--------|--------|--------|--------|--------|--------|--------|--------|--------|
F#|--------|--------|--------|--------|--------|--------|--------|--------|--------|
C#|--------|--------|--------|--------|--------|--------|--------|--------|--------|
G#|--------|--------|--------|--------|--------|--------|--------|--------|--------|
D#|--------|--------|--------|--------|--------|--------|--------|--------|--------|


D#|--------|--------|--------|--------|--------|--------|--------|--------|--------|
A#|--------|--------|--------|--------|--------|--------|--------|--------|--------|
F#|--------|--------|--------|--------|--------|--------|--------|--------|--------|
C#|--------|--------|--------|--------|--------|--------|--------|--------|--------|
G#|--------|--------|--------|--------|--------|--------|--------|--------|--------|
D#|--------|--------|--------|--------|--------|--------|--------|--------|--------|


D#|--------|--------|--------|--------|--------|--------|--------|--------|--------|
A#|--------|--------|--------|--------|--------|--------|--------|--------|--------|
F#|--------|--------|--------|--------|--------|--------|--------|--------|--------|
C#|--------|--------|--------|--------|--------|--------|--------|--------|--------|
G#|--------|--------|--------|--------|--------|--------|--------|--------|--------|
D#|--------|--------|--------|--------|--------|--------|--------|--------|--------|


D#|--------|--------|--------|--------|--------|--------|--------|--------|--------|
A#|--------|--------|--------|--------|--------|--------|--------|--------|--------|
F#|--------|--------|--------|--------|--------|--------|--------|--------|--------|
C#|--------|--------|--------|--------|--------|--------|--------|--------|--------|
G#|--------|--------|--------|--------|--------|--------|--------|--------|--------|
D#|--------|--------|--------|--------|--------|--------|--------|--------|--------|


D#|--------|--------|--------|--------|--------|--------|--------|--------|--------|
A#|--------|--------|--------|--------|--------|--------|--------|--------|--------|
F#|--------|--------|--------|--------|--------|--------|--------|--------|--------|
C#|--------|--------|--------|--------|--------|--------|--------|--------|--------|
G#|--------|--------|--------|--------|--------|--------|--------|--------|--------|
D#|--------|--------|--------|--------|--------|--------|--------|--------|--------|


D#|--------|--------|--------|--------|--------|--------|--------|--------|--------|
A#|--------|--------|--------|--------|--------|--------|--------|--------|--------|
F#|--------|--------|--------|--------|--------|--------|--------|--------|--------|
C#|--------|--------|--------|--------|--------|--------|--------|--------|--------|
G#|--------|--------|--------|--------|--------|--------|--------|--------|--------|
D#|--------|--------|--------|--------|--------|--------|--------|--------|--------|


D#|--------|--------|--------|--------|--------|--------|--------|--------|--------|
A#|--------|--------|--------|--------|--------|--------|--------|--------|--------|
F#|--------|--------|--------|--------|--------|--------|--------|--------|--------|
C#|--------|--------|--------|--------|--------|--------|--------|--------|--------|
G#|--------|--------|--------|--------|--------|--------|--------|--------|--------|
D#|--------|--------|--------|--------|--------|--------|--------|--------|--------|


D#|--------|--------|--------|--------|--------|--------|--------|--------|--------|
A#|--------|--------|--------|--------|--------|--------|--------|--------|--------|
F#|--------|--------|--------|--------|--------|--------|--------|--------|--------|
C#|--------|--------|--------|--------|--------|--------|--------|--------|--------|
G#|--------|--------|--------|--------|--------|--------|--------|--------|--------|
D#|--------|--------|--------|--------|--------|--------|--------|--------|--------|


D#|--------|--------|--------|--------|--------|--------|--------|--------|--------|
A#|--------|--------|--------|--------|--------|--------|--------|--------|--------|
F#|--------|--------|--------|--------|--------|--------|--------|--------|--------|
C#|--------|--------|--------|--------|--------|--------|--------|--------|--------|
G#|--------|--------|--------|--------|--------|--------|--------|--------|--------|
D#|--------|--------|--------|--------|--------|--------|--------|--------|--------|


D#|--------|--------|--------|--------|--------|--------|--------|--------|--------|
A#|--------|--------|--------|--------|--------|--------|--------|--------|--------|
F#|--------|--------|--------|--------|--------|--------|--------|--------|--------|
C#|--------|--------|--------|--------|--------|--------|--------|--------|--------|
G#|--------|--------|--------|--------|--------|--------|--------|--------|--------|
D#|--------|--------|--------|--------|--------|--------|--------|--------|--------|


D#|--------|--------|--------|--------|--------|--------|--------|--------|--------|
A#|--------|--------|--------|--------|--------|--------|--------|--------|--------|
F#|--------|--------|--------|--------|--------|--------|--------|--------|--------|
C#|--------|--------|--------|--------|--------|--------|--------|--------|--------|
G#|--------|--------|--------|--------|--------|--------|--------|--------|--------|
D#|--------|--------|--------|--------|--------|--------|--------|--------|--------|


D#|--------|--------|--------|--------|--------|--------|--------|--------|--------|
A#|--------|--------|--------|--------|--------|--------|--------|--------|--------|
F#|--------|--------|--------|--------|--------|--------|--------|--------|--------|
C#|--------|--------|--------|--------|--------|--------|--------|--------|--------|
G#|--------|--------|--------|--------|--------|--------|--------|--------|--------|
D#|--------|--------|--------|--------|--------|--------|--------|--------|--------|


D#|--------|--------|--------|--------|--------|--------|--------|--------|--------|
A#|--------|--------|--------|--------|--------|--------|--------|--------|--------|
F#|--------|--------|--------|--------|--------|--------|--------|--------|--------|
C#|--------|--------|--------|--------|--------|--------|--------|--------|--------|
G#|--------|--------|--------|--------|--------|--------|--------|--------|--------|
D#|--------|--------|--------|--------|--------|--------|--------|--------|--------|


D#|--------|--------|--------|---------------------------------|---------------------------------|
A#|--------|--------|--------|---------------------------------|---------------------------------|
F#|--------|--------|--------|-----------------------------5---|-5---4---5-----------------------|
C#|--------|--------|--------|-4-----------7---7-----------5---|-5---4---5-----------------------|
G#|--------|--------|--------|-4---2---4---7---7---2---4---3---|-3---2---3---2---2---2---2---2---|
D#|--------|--------|--------|-2---0---2---5---5---0---2-------|-------------0---0---0---0---0---|


D#|---------------------------------|---------------------------------|---------------------------------|
A#|---------------------------------|---------------------------------|---------------------------------|
F#|-----------------------------5---|-5---4---5---------------5--4----|-----------------------------5---|
C#|-4-----------7---7-----------5---|-5---4---5---------------5--4----|-4-----------7---7-----------5---|
G#|-4---2---4---7---7---2---4---3---|-3---2---3---2---2---2---3--2----|-4---2---4---7---7---2---4---3---|
D#|-2---0---2---5---5---0---2-------|-------------0---0---0-----------|-2---0---2---5---5---0---2-------|


D#|---------------------------------|---------------------------------|-----------------------------------------|
A#|---------------------------------|---------------------------------|-----------------------------------------|
F#|-5---4---5-----------------------|-----------------------------5---|-5---4---5-------------------------------|
C#|-5---4---5-----------------------|-4-----------7---7-----------5---|-5---4---5-------------------------------|
G#|-3---2---3---2---2---2---2---2---|-4---2---4---7---7---2---4---3---|-3---2---3---2---3--2--0-----------------|
D#|-------------0---0---0---0---0---|-2---0---2---5---5---0---2-------|-------------0------------3--2--0--2--3--|


D#|--------|-------------|--------|-------------|--------|--------|--------|--------|
A#|--------|-------------|--------|-------------|--------|--------|--------|--------|
F#|-4------|-4-----4-----|-2------|-2-----2-----|--------|--------|--------|--------|
C#|-4------|-4-----4-----|-2------|-2-----2-----|--------|--------|--------|--------|
G#|-2------|-2-----2-----|-0------|-0-----0-----|--------|--------|--------|--------|
D#|--------|-------------|--------|-------------|--------|--------|--------|--------|


D#|--------|--------|--------|--------|--------|--------|--------|--------|--------|
A#|--------|--------|--------|--------|--------|--------|--------|--------|--------|
F#|--------|--------|--------|--------|--------|--------|--------|--------|--------|
C#|--------|--------|--------|--------|--------|--------|--------|--------|--------|
G#|--------|--------|--------|--------|--------|--------|--------|--------|--------|
D#|--------|--------|--------|--------|--------|--------|--------|--------|--------|


D#|--------|--------|--------|--------|--------|--------|--------|--------|--------|
A#|--------|--------|--------|--------|--------|--------|--------|--------|--------|
F#|--------|--------|--------|--------|--------|--------|--------|--------|--------|
C#|--------|--------|--------|--------|--------|--------|--------|--------|--------|
G#|--------|--------|--------|--------|--------|--------|--------|--------|--------|
D#|--------|--------|--------|--------|--------|--------|--------|--------|--------|


D#|--------|--------|--------|--------|--------|--------|--------|--------|--------|
A#|--------|--------|--------|--------|--------|--------|--------|--------|--------|
F#|--------|--------|--------|--------|--------|--------|--------|--------|--------|
C#|--------|--------|--------|--------|--------|--------|--------|--------|--------|
G#|--------|--------|--------|--------|--------|--------|--------|--------|--------|
D#|--------|--------|--------|--------|--------|--------|--------|--------|--------|


D#|--------|--------|--------|--------|--------|--------|--------|--------|--------|
A#|--------|--------|--------|--------|--------|--------|--------|--------|--------|
F#|--------|--------|--------|--------|--------|--------|--------|--------|--------|
C#|--------|--------|--------|--------|--------|--------|--------|--------|--------|
G#|--------|--------|--------|--------|--------|--------|--------|--------|--------|
D#|--------|--------|--------|--------|--------|--------|--------|--------|--------|


D#|--------|--------|--------|--------|--------|--------|--------|--------|
A#|--------|--------|--------|--------|--------|--------|--------|--------|
F#|--------|--------|--------|--------|--------|--------|--------|--------|
C#|--------|--------|--------|--------|--------|--------|--------|--------|
G#|--------|--------|--------|--------|--------|--------|--------|--------|
D#|--------|--------|--------|--------|--------|--------|--------|--------|





Track 6: 6-String Bass

 B|--------|--------|--------|--------|--------|--------|--------|--------|--------|
F#|--------|--------|--------|--------|--------|--------|--------|--------|--------|
C#|--------|--------|--------|--------|--------|--------|--------|--------|--------|
G#|--------|--------|--------|--------|--------|--------|--------|--------|--------|
D#|--------|--------|--------|--------|--------|--------|--------|--------|--------|
A#|--------|--------|--------|--------|--------|--------|--------|--------|--------|


 B|--------|--------|--------|--------|--------|--------|--------|--------|--------|
F#|--------|--------|--------|--------|--------|--------|--------|--------|--------|
C#|--------|--------|--------|--------|--------|--------|--------|--------|--------|
G#|--------|--------|--------|--------|--------|--------|--------|--------|--------|
D#|--------|--------|--------|--------|--------|--------|--------|--------|--------|
A#|--------|--------|--------|--------|--------|--------|--------|--------|--------|


 B|--------|--------|--------|---------------------------------|---------------------------------|
F#|--------|--------|--------|---------------------------------|---------------------------------|
C#|--------|--------|--------|---------------------------------|---------------------------------|
G#|--------|--------|--------|-------------0---------------3---|-----2---0---1---2---------------|
D#|--------|--------|--------|-2---0---2-------0---1---2-------|-2-------------------2---3---0---|
A#|--------|--------|--------|---------------------------------|---------------------------------|


 B|---------------------------------|---------------------------------|---------------------------------|
F#|---------------------------------|---------------------------------|---------------------------------|
C#|---------------------------------|---------------------------------|---------------------------------|
G#|-------------0---------------3---|-----2---0---1---2---------------|-------------0---------------3---|
D#|-2---0---2-------0---1---2-------|-2-------------------2---3---0---|-2---0---2-------0---1---2-------|
A#|---------------------------------|---------------------------------|---------------------------------|


 B|---------------------------------|---------------------------------|---------------------------------|
F#|---------------------------------|---------------------------------|---------------------------------|
C#|---------------------------------|---------------------------------|---------------------------------|
G#|-----2---0---1---2---------------|-------------0---------------3---|-----2---0---1---2---------------|
D#|-2-------------------2---3---0---|-2---0---2-------0---1---2-------|-2-------------------2---3---0---|
A#|---------------------------------|---------------------------------|---------------------------------|


 B|---------------------------------|---------------------------------|---------------------------------|
F#|---------------------------------|---------------------------------|---------------------------------|
C#|---------------------------------|---------------------------------|---------------------------------|
G#|---------------------------------|---------------------------------|---------------------------------|
D#|-2---0---3---2---2---0---3---2---|-2---0---3---2---2---0---2---3---|-2---0---3---2---2---0---3---2---|
A#|---------------------------------|---------------------------------|---------------------------------|


 B|---------------------------------|---------------------------------|---------------------------------|
F#|---------------------------------|---------------------------------|---------------------------------|
C#|---------------------------------|---------------------------------|---------------------------------|
G#|---------------------------------|---------------------------------|---------------------------------|
D#|-2---0---3---2---2---0---2---5---|-2---0---3---2---2---0---3---2---|-2---0---3---2---2---0---2---3---|
A#|---------------------------------|---------------------------------|---------------------------------|


 B|---------------------------------|--------------------------------|---------------------------------|
F#|---------------------------------|--------------------------------|---------------------------------|
C#|---------------------------------|--------------------------------|---------------------------------|
G#|---------------------------------|--------------------------------|---------------------------------|
D#|-2---0---3---2---2---0---3---2---|-2---0---3---2-------------1----|-2---0---3---2---2---0---3---2---|
A#|---------------------------------|-----------------1----2---------|---------------------------------|


 B|---------------------------------|---------------------------------|---------------------------------|
F#|---------------------------------|---------------------------------|---------------------------------|
C#|---------------------------------|---------------------------------|---------------------------------|
G#|---------------------------------|---------------------------------|---------------------------------|
D#|-2---0---3---2---2---0---2---3---|-2---0---3---2---2---0---3---2---|-2---0---3---2---2---0---2---5---|
A#|---------------------------------|---------------------------------|---------------------------------|


 B|---------------------------------|---------------------------------|---------------------------------|
F#|---------------------------------|---------------------------------|---------------------------------|
C#|---------------------------------|---------------------------------|---------------------------------|
G#|---------------------------------|---------------------------------|---------------------------------|
D#|-2---0---3---2---2---0---3---2---|-2---0---3---2---2---0---2---3---|-2---0---3---2---2---0---3---2---|
A#|---------------------------------|---------------------------------|---------------------------------|


 B|---------------------------------|---------------------------------|---------------------------------|
F#|---------------------------------|---------------------------------|---------------------------------|
C#|---------------------------------|---------------------------------|---------------------------------|
G#|---------------------------------|---------------------------------|---------------------------------|
D#|-2---0---3---2---2---0---2---5---|-2---0---3---2---2---0---3---2---|-2---0---3---2---2---0---2---3---|
A#|---------------------------------|---------------------------------|---------------------------------|


 B|---------------------------------|---------------------------------|---------------------------------|
F#|---------------------------------|---------------------------------|---------------------------------|
C#|---------------------------------|---------------------------------|---------------------------------|
G#|---------------------------------|---------------------------------|---------------------------------|
D#|-2---0---3---2---2---0---3---2---|-2---0---3---2---2---0---2---5---|-2---0---3---2---2---0---3---2---|
A#|---------------------------------|---------------------------------|---------------------------------|


 B|---------------------------------|---------------------------------|---------------------------------|
F#|---------------------------------|---------------------------------|---------------------------------|
C#|---------------------------------|---------------------------------|---------------------------------|
G#|---------------------------------|---------------------------------|---------------------------------|
D#|-2---0---3---2---2---0---2---3---|-2---0---3---2---2---0---3---2---|-2---0---3---2---2---0---2---5---|
A#|---------------------------------|---------------------------------|---------------------------------|


 B|---------------------------------|---------------------------------|---------------------------------|
F#|---------------------------------|---------------------------------|---------------------------------|
C#|---------------------------------|---------------------------------|---------------------------------|
G#|-----------------------------3---|-3---2---3-----------------------|-----------------------------3---|
D#|-2---0---2---5---5---0---2-------|-------------0---0---0---0---0---|-2---0---2---5---5---0---2-------|
A#|---------------------------------|---------------------------------|---------------------------------|


 B|---------------------------------|---------------------------------|---------------------------------|
F#|---------------------------------|---------------------------------|---------------------------------|
C#|---------------------------------|---------------------------------|---------------------------------|
G#|-3---2---3---------------3--2----|-----------------------------3---|-3---2---3-----------------------|
D#|-------------0---0---0-----------|-2---0---2---5---5---0---2-------|-------------0---0---0---0---0---|
A#|---------------------------------|---------------------------------|---------------------------------|


 B|---------------------------------|---------------------------------|---------------------------------|
F#|---------------------------------|---------------------------------|---------------------------------|
C#|---------------------------------|---------------------------------|---------------------------------|
G#|-----------------------------3---|-3---2---3-----------------------|-------------0---------------3---|
D#|-2---0---2---5---5---0---2-------|-------------0---0---0---0---0---|-2---0---2-------0---1---2-------|
A#|---------------------------------|---------------------------------|---------------------------------|


 B|---------------------------------|---------------------------------|---------------------------------|
F#|---------------------------------|---------------------------------|---------------------------------|
C#|---------------------------------|---------------------------------|---------------------------------|
G#|-----2---0---1---2---------------|-------------0---------------3---|-----2---0---1---2---------------|
D#|-2-------------------2---3---0---|-2---0---2-------0---1---2-------|-2-------------------2---3---0---|
A#|---------------------------------|---------------------------------|---------------------------------|


 B|---------------------------------|---------------------------------|---------------------------------|
F#|---------------------------------|---------------------------------|---------------------------------|
C#|---------------------------------|---------------------------------|---------------------------------|
G#|-------------0---------------3---|-----2---0---1---2---------------|-------------0---------------3---|
D#|-2---0---2-------0---1---2-------|-2-------------------2---3---0---|-2---0---2-------0---1---2-------|
A#|---------------------------------|---------------------------------|---------------------------------|


 B|---------------------------------|---------------------------------|---------------------------------|
F#|---------------------------------|---------------------------------|---------------------------------|
C#|---------------------------------|---------------------------------|---------------------------------|
G#|-----2---0---1---2---------------|---------------------------------|---------------------------------|
D#|-2-------------------2---3---0---|-2---0---3---2---2---0---3---2---|-2---0---3---2---2---0---2---3---|
A#|---------------------------------|---------------------------------|---------------------------------|


 B|---------------------------------|---------------------------------|---------------------------------|
F#|---------------------------------|---------------------------------|---------------------------------|
C#|---------------------------------|---------------------------------|---------------------------------|
G#|---------------------------------|---------------------------------|---------------------------------|
D#|-2---0---3---2---2---0---3---2---|-2---0---3---2---2---0---2---5---|-2---0---3---2---2---0---3---2---|
A#|---------------------------------|---------------------------------|---------------------------------|


 B|---------------------------------|---------------------------------|---------------------------------|
F#|---------------------------------|---------------------------------|---------------------------------|
C#|---------------------------------|---------------------------------|---------------------------------|
G#|---------------------------------|---------------------------------|---------------------------------|
D#|-2---0---3---2---2---0---2---3---|-2---0---3---2---2---0---3---2---|-2---0---3---2---2---0---2---5---|
A#|---------------------------------|---------------------------------|---------------------------------|


 B|---------------------------------|---------------------------------|---------------------------------|
F#|---------------------------------|---------------------------------|---------------------------------|
C#|---------------------------------|---------------------------------|---------------------------------|
G#|---------------------------------|---------------------------------|---------------------------------|
D#|-2---0---3---2---2---0---3---2---|-2---0---3---2---2---0---2---3---|-2---0---3---2---2---0---3---2---|
A#|---------------------------------|---------------------------------|---------------------------------|


 B|---------------------------------|---------------------------------|---------------------------------|
F#|---------------------------------|---------------------------------|---------------------------------|
C#|---------------------------------|---------------------------------|---------------------------------|
G#|---------------------------------|---------------------------------|---------------------------------|
D#|-2---0---3---2---2---0---2---5---|-2---0---3---2---2---0---3---2---|-2---0---3---2---2---0---2---3---|
A#|---------------------------------|---------------------------------|---------------------------------|


 B|---------------------------------|---------------------------------|---------------------------------|
F#|---------------------------------|---------------------------------|---------------------------------|
C#|---------------------------------|---------------------------------|---------------------------------|
G#|---------------------------------|---------------------------------|-----------------------------3---|
D#|-2---0---3---2---2---0---3---2---|-2---0---3---2---2---0---2---5---|-2---0---2---5---5---0---2-------|
A#|---------------------------------|---------------------------------|---------------------------------|


 B|---------------------------------|---------------------------------|---------------------------------|
F#|---------------------------------|---------------------------------|---------------------------------|
C#|---------------------------------|---------------------------------|---------------------------------|
G#|-3---2---3-----------------------|-----------------------------3---|-3---2---3---------------3--2----|
D#|-------------0---0---0---0---0---|-2---0---2---5---5---0---2-------|-------------0---0---0-----------|
A#|---------------------------------|---------------------------------|---------------------------------|


 B|---------------------------------|---------------------------------|---------------------------------|
F#|---------------------------------|---------------------------------|---------------------------------|
C#|---------------------------------|---------------------------------|---------------------------------|
G#|-----------------------------3---|-3---2---3-----------------------|-----------------------------3---|
D#|-2---0---2---5---5---0---2-------|-------------0---0---0---0---0---|-2---0---2---5---5---0---2-------|
A#|---------------------------------|---------------------------------|---------------------------------|


 B|------------------------------|---------------------------------|---------------------------------|
F#|------------------------------|---------------------------------|---------------------------------|
C#|------------------------------|---------------------------------|---------------------------------|
G#|-3---2---3--------------------|-2---2---2---2---2---2---2---2---|-2---2---2---2---2---2---2---2---|
D#|-------------0---0---0---17---|---------------------------------|---------------------------------|
A#|------------------------------|---------------------------------|---------------------------------|


 B|---------------------------------|---------------------------------|---------------------------------|
F#|---------------------------------|---------------------------------|---------------------------------|
C#|---------------------------------|---------------------------------|---------------------------------|
G#|-0---0---0---0---0---0---0---0---|-0---0---0---0---0---0---0---0---|-4---4---4---4---4---4---4---4---|
D#|---------------------------------|---------------------------------|---------------------------------|
A#|---------------------------------|---------------------------------|---------------------------------|


 B|---------------------------------|---------------------------------|---------------------------------|
F#|---------------------------------|---------------------------------|---------------------------------|
C#|---------------------------------|---------------------------------|---------------------------------|
G#|-4---4---4---4---4---4---4---4---|---------------------------------|---------7---7---7---7---5---5---|
D#|---------------------------------|-2---2---2---2---2---2---2---2---|-2---2---------------------------|
A#|---------------------------------|---------------------------------|---------------------------------|


 B|---------------------------------|---------------------------------|---------------------------------|
F#|---------------------------------|---------------------------------|---------------------------------|
C#|---------------------------------|---------------------------------|---------------------------------|
G#|-5---5---5---5---5---5---5---5---|-5---5---5---5---5---5---4---4---|-2---2---2---2---2---2---2---2---|
D#|---------------------------------|---------------------------------|---------------------------------|
A#|---------------------------------|---------------------------------|---------------------------------|


 B|---------------------------------|---------------------------------|---------------------------------|
F#|---------------------------------|---------------------------------|---------------------------------|
C#|---------------------------------|---------------------------------|---------------------------------|
G#|-2---2---2---2---2---2---0---0---|---------------------------------|---------------------------------|
D#|---------------------------------|-4---4---4---4---4---4---4---4---|-4---4---4---4---4---4---4---4---|
A#|---------------------------------|---------------------------------|---------------------------------|


 B|---------------------------------|---------------------------------|---------------------------------|
F#|---------------------------------|---------------------------------|---------------------------------|
C#|---------------------------------|---------------------------------|---------------------------------|
G#|---------------------------------|---------------------------------|-2---2---2---2---2---2---2---2---|
D#|-3---3---3---3---3---3---3---3---|-3---3---3---3---3---3---3---3---|---------------------------------|
A#|---------------------------------|---------------------------------|---------------------------------|


 B|---------------------------------|---------------------------------|---------------------------------|
F#|---------------------------------|---------------------------------|---------------------------------|
C#|---------------------------------|---------------------------------|---------------------------------|
G#|-2---2---2---2---2---2---2---2---|---------------------------------|---------------------------------|
D#|---------------------------------|-2---2---2---2---2---2---2---2---|-2---2---2---2---2---2---2---2---|
A#|---------------------------------|---------------------------------|---------------------------------|


 B|---------------------------------|---------------------------------|---------------------------------|
F#|---------------------------------|---------------------------------|---------------------------------|
C#|---------------------------------|---------------------------------|---------------------------------|
G#|-3---3---3---3---3---3---3---3---|-3---3---3---3---3---3---3---3---|-4---4---4---4---4---4---4---4---|
D#|---------------------------------|---------------------------------|---------------------------------|
A#|---------------------------------|---------------------------------|---------------------------------|


 B|---------------------------------|------------------------------|---------------------------|
F#|---------------------------------|------------------------------|---------------------------|
C#|---------------------------------|------------------------------|---------------------------|
G#|-4---4---4---4---4---4---4---4---|------------------------------|---------------------------|
D#|---------------------------------|-2---2---2---0---0---2----5---|-5---2----0---0---2---3----|
A#|---------------------------------|------------------------------|---------------------------|


 B|------------------------------|---------------------------|---------------------------------|
F#|------------------------------|---------------------------|---------------------------------|
C#|------------------------------|---------------------------|---------------------------------|
G#|------------------------------|----------------------3----|---------------------------------|
D#|-2---2---2---0---0---2----5---|-5---2----0---0---2--------|-2---2---2---0---0---2---2---5---|
A#|------------------------------|---------------------------|---------------------------------|


 B|------------------------------|---------------------------------|------------------------------|
F#|------------------------------|---------------------------------|------------------------------|
C#|------------------------------|---------------------------------|------------------------------|
G#|------------------------------|---------------------------------|-------------------------3----|
D#|-5---2---2---0---0---2---3----|-2---2---2---0---0---2---2---5---|-5---2---2---0---0---2--------|
A#|------------------------------|---------------------------------|------------------------------|


 B|---------------------------------|---------------------------------|---------------------------------|
F#|---------------------------------|---------------------------------|---------------------------------|
C#|---------------------------------|---------------------------------|---------------------------------|
G#|---------------------------------|---------------------------------|---------------------------------|
D#|-2---2---2---0---0---2---2---5---|-5---2---2---0---0---2---3---3---|-2---2---2---0---0---2---2---5---|
A#|---------------------------------|---------------------------------|---------------------------------|


 B|---------------------------------|---------------------------------|---------------------------------|
F#|---------------------------------|---------------------------------|---------------------------------|
C#|---------------------------------|---------------------------------|---------------------------------|
G#|-------------------------3---3---|---------------------------------|---------------------------------|
D#|-5---2---2---0---0---2-----------|-2---2---2---0---0---2---2---5---|-5---2---2---0---0---2---3---3---|
A#|---------------------------------|---------------------------------|---------------------------------|


 B|---------------------------------|---------------------------------|---------------------------------|
F#|---------------------------------|---------------------------------|---------------------------------|
C#|---------------------------------|---------------------------------|---------------------------------|
G#|---------------------------------|-------------------------3---3---|---------------------------------|
D#|-2---2---2---0---0---2---2---5---|-5---2---2---0---0---2-----------|-2---2---2---0---0---2---2---5---|
A#|---------------------------------|---------------------------------|---------------------------------|


 B|---------------------------------|---------------------------------|---------------------------------|
F#|---------------------------------|---------------------------------|---------------------------------|
C#|---------------------------------|---------------------------------|---------------------------------|
G#|---------------------------------|---------------------------------|-------------------------3---3---|
D#|-5---2---2---0---0---2---3---3---|-2---2---2---0---0---2---2---5---|-5---2---2---0---0---2-----------|
A#|---------------------------------|---------------------------------|---------------------------------|


 B|---------------------------------|---------------------------------|---------------------------------|
F#|---------------------------------|---------------------------------|---------------------------------|
C#|---------------------------------|---------------------------------|---------------------------------|
G#|---------------------------------|---------------------------------|---------------------------------|
D#|-2---2---2---0---0---2---2---5---|-5---2---2---0---0---2---3---3---|-2---2---2---0---0---2---2---5---|
A#|---------------------------------|---------------------------------|---------------------------------|


 B|---------------------------------|------------------------------|---------------------------|
F#|---------------------------------|------------------------------|---------------------------|
C#|---------------------------------|------------------------------|---------------------------|
G#|-------------------------3---3---|------------------------------|---------------------------|
D#|-5---2---2---0---0---2-----------|------------------------------|---------------------------|
A#|---------------------------------|-2---2---2---0---0---2----5---|-5---2----0---0---2---3----|


 B|------------------------------|---------------------------|------------------------------|
F#|------------------------------|---------------------------|------------------------------|
C#|------------------------------|---------------------------|------------------------------|
G#|------------------------------|---------------------------|------------------------------|
D#|------------------------------|----------------------3----|------------------------------|
A#|-2---2---2---0---0---2----5---|-5---2----0---0---2--------|-2---2---2---0---0---2----5---|


 B|---------------------------|------------------------------|---------------------------|
F#|---------------------------|------------------------------|---------------------------|
C#|---------------------------|------------------------------|---------------------------|
G#|---------------------------|------------------------------|---------------------------|
D#|---------------------------|------------------------------|----------------------3----|
A#|-5---2----0---0---2---3----|-2---2---2---0---0---2----5---|-5---2----0---0---2--------|


 B|---------------------------------|---------------------------------|---------------------------------|
F#|-----------------------------2---|-----------------------------4---|-----------------------------2---|
C#|-----4-------2-------4-----------|-----4-------2-------4---5-------|-----4-------2-------4-----------|
G#|---------------------------------|---------------------------------|---------------------------------|
D#|-2-------2-------2-------2-------|-2-------2-------2---------------|-2-------2-------2-------2-------|
A#|---------------------------------|---------------------------------|---------------------------------|


 B|---------------------------------|---------------------------------|---------------------------------|
F#|-----------------------------4---|-----------------------------2---|-----------------------------4---|
C#|-----4-------2-------4---5-------|-----4-------2-------4-----------|-----4-------2-------4---5-------|
G#|---------------------------------|---------------------------------|---------------------------------|
D#|-2-------2-------2---------------|-2-------2-------2-------2-------|-2-------2-------2---------------|
A#|---------------------------------|---------------------------------|---------------------------------|


 B|---------------------------------|---------------------------------|---------------------------------|
F#|-----------------------------2---|-----------------------------4---|---------------------------------|
C#|-----4-------2-------4-----------|-----4-------2-------4---5-------|---------------------------------|
G#|---------------------------------|---------------------------------|-2---4-------4---4---4---5---4---|
D#|-2-------2-------2-------2-------|-2-------2-------2---------------|---------------------------------|
A#|---------------------------------|---------------------------------|---------2-----------------------|


 B|---------------------------------|---------------------------------|---------------------------------|
F#|---------------------------------|---------------------------------|---------------------------------|
C#|---------------------------------|---------------------------------|-------------4---4-------2---4---|
G#|-----------------2---4-------4---|-4---4---5---4-------------------|---------------------------------|
D#|---------------------------------|---------------------------------|-2---2---2-----------2-----------|
A#|-2---2---2---2-----------2-------|-----------------2---2---2---2---|---------------------------------|


 B|---------------------------------|---------------------------------|---------------------------------|
F#|---------------------------------|---------------------------------|---------------------------------|
C#|-4-------------------------------|---------------------------------|---------------------------------|
G#|-----------------0---0---0---0---|-0---0---2---2---2---2---2---2---|-2---4-------4---4---4---5---4---|
D#|-----2---2---2-------------------|---------------------------------|---------------------------------|
A#|---------------------------------|---------------------------------|---------2-----------------------|


 B|---------------------------------|------------------------------|------------------------------|
F#|---------------------------------|------------------------------|------------------------------|
C#|---------------------------------|------------------------------|------------------------------|
G#|-----------------2---4-------4---|-4---4---0----0---0---0---0---|------------------------------|
D#|---------------------------------|------------------------------|-4---4---4---4---4---4---4----|
A#|-2---2---2---2-----------2-------|------------------------------|------------------------------|


 B|---------------------------------|------------------------------|-----------------|
F#|---------------------------------|------------------------------|-----------------|
C#|---------------------------------|------------------------------|-----------------|
G#|---------------------------------|------------------------------|-----------------|
D#|-4---4---4---4---2---2---2---2---|-2---2---0----0---0---0---0---|-2---------------|
A#|---------------------------------|------------------------------|-----------------|


 B|--------|--------|--------|-------------------------------------------------------------------------|
F#|--------|--------|--------|-------------------------------------------------------------------------|
C#|--------|--------|--------|-14-7--9--------------------16-7--9--14-7--9--------------------16-7--9--|
G#|--------|--------|--------|----------16-7--9--14-7--9--------------------16-7--9--14-7--9-----------|
D#|--------|--------|--------|-------------------------------------------------------------------------|
A#|--------|--------|--------|-------------------------------------------------------------------------|


 B|-------------------------------------16-9--11-------------------18-9--11-|-16-9--11-------------------18-9--11-16-9--11-------------------18-9--11-|
F#|----------------------------------------------18-9--11-16-9--11----------|----------18-9--11-16-9--11-------------------18-9--11-16-9--11----------|
C#|-14-7--9--------------------16-7--9--------------------------------------|-------------------------------------------------------------------------|
G#|----------16-7--9--14-7--9-----------------------------------------------|-------------------------------------------------------------------------|
D#|-------------------------------------------------------------------------|-------------------------------------------------------------------------|
A#|-------------------------------------------------------------------------|-------------------------------------------------------------------------|


 B|-16-9--11-------------------18-9--11-16-9--11-------------------18-9--11-|---------------------------------|
F#|----------18-9--11-16-9--11-------------------18-9--11-16-9--11----------|---------------------------------|
C#|-------------------------------------------------------------------------|---------------------------------|
G#|-------------------------------------------------------------------------|---------------------------------|
D#|-------------------------------------------------------------------------|-4---2---5---4---4---2---5---4---|
A#|-------------------------------------------------------------------------|---------------------------------|


 B|---------------------------------|---------------------------------|---------------------------------|
F#|---------------------------------|---------------------------------|---------------------------------|
C#|---------------------------------|---------------------------------|---------------------------------|
G#|---------------------------------|---------------------------------|-----------------------------2---|
D#|-4---2---5---4---4---2---4---5---|-4---2---5---4---4---2---5---4---|-4---2---5---4---4---2---4-------|
A#|---------------------------------|---------------------------------|---------------------------------|


 B|---------------------------------|---------------------------------|---------------------------------|
F#|---------------------------------|---------------------------------|---------------------------------|
C#|---------------------------------|---------------------------------|---------------------------------|
G#|---------------------------------|---------------------------------|---------------------------------|
D#|-4---2---5---4---4---2---5---4---|-4---2---5---4---4---2---4---5---|-4---2---5---4---4---2---5---4---|
A#|---------------------------------|---------------------------------|---------------------------------|


 B|---------------------------------|---------------------------------|---------------------------------|
F#|---------------------------------|---------------------------------|---------------------------------|
C#|---------------------------------|---------------------------------|---------------------------------|
G#|-----------------------------2---|-------------0---------------3---|-----2---0---1---2---------------|
D#|-4---2---5---4---4---2---4-------|-2---0---2-------0---1---2-------|-2-------------------2---3---0---|
A#|---------------------------------|---------------------------------|---------------------------------|


 B|---------------------------------|---------------------------------|---------------------------------|
F#|---------------------------------|---------------------------------|---------------------------------|
C#|---------------------------------|---------------------------------|---------------------------------|
G#|-------------0---------------3---|-----2---0---1---2---------------|-------------0---------------3---|
D#|-2---0---2-------0---1---2-------|-2-------------------2---3---0---|-2---0---2-------0---1---2-------|
A#|---------------------------------|---------------------------------|---------------------------------|


 B|---------------------------------|---------------------------------|---------------------------------|
F#|---------------------------------|---------------------------------|---------------------------------|
C#|---------------------------------|---------------------------------|---------------------------------|
G#|-----2---0---1---2---------------|-------------0---------------3---|-----2---0---1---2---------------|
D#|-2-------------------2---3---0---|-2---0---2-------0---1---2-------|-2-------------------2---3---0---|
A#|---------------------------------|---------------------------------|---------------------------------|


 B|---------------------------------|---------------------------------|---------------------------------|
F#|---------------------------------|---------------------------------|---------------------------------|
C#|---------------------------------|---------------------------------|---------------------------------|
G#|-2---0---3---2---2---0---3---2---|-2---0---3---2---2---0---2---3---|-2---0---3---2---2---0---3---2---|
D#|---------------------------------|---------------------------------|---------------------------------|
A#|---------------------------------|---------------------------------|---------------------------------|


 B|---------------------------------|---------------------------------|---------------------------------|
F#|---------------------------------|---------------------------------|---------------------------------|
C#|---------------------------------|---------------------------------|---------------------------------|
G#|-2---0---3---2---2---0---2---5---|-2---0---3---2---2---0---3---2---|-2---0---3---2---2---0---2---3---|
D#|---------------------------------|---------------------------------|---------------------------------|
A#|---------------------------------|---------------------------------|---------------------------------|


 B|---------------------------------|---------------------------------|---------------------------------|
F#|---------------------------------|---------------------------------|---------------------------------|
C#|---------------------------------|---------------------------------|---------------------------------|
G#|-2---0---3---2---2---0---3---2---|-2---0---3---2---2---0---2---5---|-----------------------------3---|
D#|---------------------------------|---------------------------------|-2---0---2---5---5---0---2-------|
A#|---------------------------------|---------------------------------|---------------------------------|


 B|---------------------------------|---------------------------------|---------------------------------|
F#|---------------------------------|---------------------------------|---------------------------------|
C#|---------------------------------|---------------------------------|---------------------------------|
G#|-3---2---3-----------------------|-----------------------------3---|-3---2---3---------------3--2----|
D#|-------------0---0---0---0---0---|-2---0---2---5---5---0---2-------|-------------0---0---0-----------|
A#|---------------------------------|---------------------------------|---------------------------------|


 B|---------------------------------|---------------------------------|---------------------------------|
F#|---------------------------------|---------------------------------|---------------------------------|
C#|---------------------------------|---------------------------------|---------------------------------|
G#|-----------------------------3---|-3---2---3-----------------------|-----------------------------3---|
D#|-2---0---2---5---5---0---2-------|-------------0---0---0---0---0---|-2---0---2---5---5---0---2-------|
A#|---------------------------------|---------------------------------|---------------------------------|


 B|-----------------------------------------|---------------------------------|---------------------------------|
F#|-----------------------------------------|---------------------------------|---------------------------------|
C#|-----------------------------------------|---------------------------------|---------------------------------|
G#|-3---2---3-------3--2--0-----------------|-2---2---2---2---2---2---2---2---|-2---2---2---2---2---2---2---2---|
D#|-------------0------------3--2--0--2--3--|---------------------------------|---------------------------------|
A#|-----------------------------------------|---------------------------------|---------------------------------|


 B|---------------------------------|---------------------------------|---------------------------------|
F#|---------------------------------|---------------------------------|---------------------------------|
C#|---------------------------------|---------------------------------|---------------------------------|
G#|-0---0---0---0---0---0---0---0---|-0---0---0---0---0---0---0---0---|-4---4---4---4---4---4---4---4---|
D#|---------------------------------|---------------------------------|---------------------------------|
A#|---------------------------------|---------------------------------|---------------------------------|


 B|---------------------------------|---------------------------------|---------------------------------|
F#|---------------------------------|---------------------------------|---------------------------------|
C#|---------------------------------|---------------------------------|---------------------------------|
G#|-4---4---4---4---4---4---4---4---|---------------------------------|---------7---7---7---7---5---5---|
D#|---------------------------------|-2---2---2---2---2---2---2---2---|-2---2---------------------------|
A#|---------------------------------|---------------------------------|---------------------------------|


 B|---------------------------------|---------------------------------|---------------------------------|
F#|---------------------------------|---------------------------------|---------------------------------|
C#|---------------------------------|---------------------------------|---------------------------------|
G#|-5---5---5---5---5---5---5---5---|-5---5---5---5---5---5---4---4---|-2---2---2---2---2---2---2---2---|
D#|---------------------------------|---------------------------------|---------------------------------|
A#|---------------------------------|---------------------------------|---------------------------------|


 B|---------------------------------|---------------------------------|---------------------------------|
F#|---------------------------------|---------------------------------|---------------------------------|
C#|---------------------------------|---------------------------------|---------------------------------|
G#|-2---2---2---2---2---2---0---0---|---------------------------------|---------------------------------|
D#|---------------------------------|-4---4---4---4---4---4---4---4---|-4---4---4---4---4---4---4---4---|
A#|---------------------------------|---------------------------------|---------------------------------|


 B|---------------------------------|---------------------------------|---------------------------------|
F#|---------------------------------|---------------------------------|---------------------------------|
C#|---------------------------------|---------------------------------|---------------------------------|
G#|---------------------------------|---------------------------------|-2---2---2---2---2---2---2---2---|
D#|-3---3---3---3---3---3---3---3---|-3---3---3---3---3---3---3---3---|---------------------------------|
A#|---------------------------------|---------------------------------|---------------------------------|


 B|---------------------------------|---------------------------------|---------------------------------|
F#|---------------------------------|---------------------------------|---------------------------------|
C#|---------------------------------|---------------------------------|---------------------------------|
G#|-2---2---2---2---2---2---2---2---|---------------------------------|---------------------------------|
D#|---------------------------------|-2---2---2---2---2---2---2---2---|-2---2---2---2---2---2---2---2---|
A#|---------------------------------|---------------------------------|---------------------------------|


 B|---------------------------------|---------------------------------|---------------------------------|
F#|---------------------------------|---------------------------------|---------------------------------|
C#|---------------------------------|---------------------------------|---------------------------------|
G#|-3---3---3---3---3---3---3---3---|-3---3---3---3---3---3---3---3---|-4---4---4---4---4---4---4---4---|
D#|---------------------------------|---------------------------------|---------------------------------|
A#|---------------------------------|---------------------------------|---------------------------------|


 B|---------------------------------|---------------------------------|---------------------------------|
F#|---------------------------------|---------------------------------|---------------------------------|
C#|---------------------------------|---------------------------------|---------------------------------|
G#|-4---4---4---4---4---4---4---4---|-2---2---2---2---2---2---2---2---|-2---2---2---2---2---2---2---2---|
D#|---------------------------------|---------------------------------|---------------------------------|
A#|---------------------------------|---------------------------------|---------------------------------|


 B|---------------------------------|---------------------------------|---------------------------------|
F#|---------------------------------|---------------------------------|---------------------------------|
C#|---------------------------------|---------------------------------|---------------------------------|
G#|-1---1---1---1---1---1---1---1---|-1---1---1---1---1---1---1---1---|-6---6---6---6---6---6---6---6---|
D#|---------------------------------|---------------------------------|---------------------------------|
A#|---------------------------------|---------------------------------|---------------------------------|


 B|---------------------------------|---------------------------------|------------------------------|
F#|---------------------------------|---------------------------------|------------------------------|
C#|---------------------------------|---------------------------------|------------------------------|
G#|-5---5---5---5---5---5---5---5---|-4---4---4---4---4---4---4---4---|-16--16--16--16--16--16--16---|
D#|---------------------------------|---------------------------------|------------------------------|
A#|---------------------------------|---------------------------------|------------------------------|


 B|---------------------------------|---------------------------------|---------------------------------|
F#|---------------------------------|---------------------------------|---------------------------------|
C#|---------------------------------|---------------------------------|---------------------------------|
G#|-------------0---------------3---|-----2---0---1---2---------------|-------------0---------------3---|
D#|-2---0---2-------0---1---2-------|-2-------------------2---3---0---|-2---0---2-------0---1---2-------|
A#|---------------------------------|---------------------------------|---------------------------------|


 B|---------------------------------|---------------------------------|---------------------------------|
F#|---------------------------------|---------------------------------|---------------------------------|
C#|---------------------------------|---------------------------------|---------------------------------|
G#|-----2---0---1---2---------------|-------------0---------------3---|-----2---0---1---2---------------|
D#|-2-------------------2---3---0---|-2---0---2-------0---1---2-------|-2-------------------2---3---0---|
A#|---------------------------------|---------------------------------|---------------------------------|


 B|---------------------------------|---------------------------------|---------------------------------|
F#|---------------------------------|---------------------------------|---------------------------------|
C#|---------------------------------|---------------------------------|-----------------------------4---|
G#|-------------0---------------3---|-----2---0---1---2---------------|-------------4-------------------|
D#|-2---0---2-------0---1---2-------|-2-------------------2---3---0---|-2---0---2-------0---1---2-------|
A#|---------------------------------|---------------------------------|---------------------------------|


 B|---------------------------------|---------------------------------|---------------------------------|
F#|---------------------------------|---------------------------------|---------------------------------|
C#|-----2---------------------------|-----------------------------4---|-----2---------------------------|
G#|---------0---1---2---------------|-------------4-------------------|---------0---1---2---------------|
D#|-2-------------------0---3---0---|-2---0---2-------0---1---2-------|-2-------------------0---3---0---|
A#|---------------------------------|---------------------------------|---------------------------------|


 B|---------------------------------|---------------------------------|---------------------------------|
F#|---------------------------------|---------------------------------|---------------------------------|
C#|-----------------------------4---|-----2---------------------------|-----------------------------4---|
G#|-------------4-------------------|---------0---1---2---------------|-------------4-------------------|
D#|-2---0---2-------0---1---2-------|-2-------------------0---3---0---|-2---0---2-------0---1---2-------|
A#|---------------------------------|---------------------------------|---------------------------------|


 B|---------------------------------|--------|--------|--------|--------|
F#|---------------------------------|--------|--------|--------|--------|
C#|-----2---------------------------|--------|--------|--------|--------|
G#|---------0---1---2---------------|--------|--------|--------|--------|
D#|-2-------------------0---3---0---|-2------|-2------|-2------|-2------|
A#|---------------------------------|--------|--------|--------|--------|