Menu:

 

Search:

 

dream theater - the root of all evil:

 



Title: The Root Of All Evil
Artist: 
Album: Octavarium
Author: Dream Theater


Track 1: Clean Guitar

D#|--------|--------|--------|--------|--------|--------|--------|-------------|-----------------|
A#|--------|--------|--------|--------|--------|--------|--------|-------------|-----------------|
F#|--------|--------|--------|--------|--------|--------|--------|--------11---|-11---11---11----|
C#|--------|--------|--------|--------|--------|--------|--------|--------10---|-10---10---10----|
G#|--------|--------|--------|--------|--------|--------|--------|--------9----|-9----9----9-----|
D#|--------|--------|--------|--------|--------|--------|--------|-------------|-----------------|


D#|--------|--------|--------|--------|--------|--------|-------------|-----------------|
A#|--------|--------|--------|--------|--------|--------|-------------|-----------------|
F#|--------|--------|--------|--------|--------|--------|--------11---|-11---11---11----|
C#|--------|--------|--------|--------|--------|--------|--------10---|-10---10---10----|
G#|--------|--------|--------|--------|--------|--------|--------9----|-9----9----9-----|
D#|--------|--------|--------|--------|--------|--------|-------------|-----------------|


D#|--------|--------|--------|--------|--------|--------|--------|--------|--------|
A#|--------|--------|--------|--------|--------|--------|--------|--------|--------|
F#|--------|--------|--------|--------|--------|--------|--------|--------|--------|
C#|--------|--------|--------|--------|--------|--------|--------|--------|--------|
G#|--------|--------|--------|--------|--------|--------|--------|--------|--------|
D#|--------|--------|--------|--------|--------|--------|--------|--------|--------|


D#|--------|--------|--------|--------|--------|--------|--------|--------|--------|
A#|--------|--------|--------|--------|--------|--------|--------|--------|--------|
F#|--------|--------|--------|--------|--------|--------|--------|--------|--------|
C#|--------|--------|--------|--------|--------|--------|--------|--------|--------|
G#|--------|--------|--------|--------|--------|--------|--------|--------|--------|
D#|--------|--------|--------|--------|--------|--------|--------|--------|--------|


D#|--------|--------|--------|--------|--------|--------|--------|--------|--------|
A#|--------|--------|--------|--------|--------|--------|--------|--------|--------|
F#|--------|--------|--------|--------|--------|--------|--------|--------|--------|
C#|--------|--------|--------|--------|--------|--------|--------|--------|--------|
G#|--------|--------|--------|--------|--------|--------|--------|--------|--------|
D#|--------|--------|--------|--------|--------|--------|--------|--------|--------|


D#|--------|--------|--------|--------|--------|--------|--------|--------|--------|
A#|--------|--------|--------|--------|--------|--------|--------|--------|--------|
F#|--------|--------|--------|--------|--------|--------|--------|--------|--------|
C#|--------|--------|--------|--------|--------|--------|--------|--------|--------|
G#|--------|--------|--------|--------|--------|--------|--------|--------|--------|
D#|--------|--------|--------|--------|--------|--------|--------|--------|--------|


D#|--------|--------|--------|--------|--------|--------|--------|--------|--------|
A#|--------|--------|--------|--------|--------|--------|--------|--------|--------|
F#|--------|--------|--------|--------|--------|--------|--------|--------|--------|
C#|--------|--------|--------|--------|--------|--------|--------|--------|--------|
G#|--------|--------|--------|--------|--------|--------|--------|--------|--------|
D#|--------|--------|--------|--------|--------|--------|--------|--------|--------|


D#|--------|--------|--------|--------|--------|--------|--------|--------|--------|
A#|--------|--------|--------|--------|--------|--------|--------|--------|--------|
F#|--------|--------|--------|--------|--------|--------|--------|--------|--------|
C#|--------|--------|--------|--------|--------|--------|--------|--------|--------|
G#|--------|--------|--------|--------|--------|--------|--------|--------|--------|
D#|--------|--------|--------|--------|--------|--------|--------|--------|--------|


D#|--------|--------|--------|--------|--------|--------|--------|--------|--------|
A#|--------|--------|--------|--------|--------|--------|--------|--------|--------|
F#|--------|--------|--------|--------|--------|--------|--------|--------|--------|
C#|--------|--------|--------|--------|--------|--------|--------|--------|--------|
G#|--------|--------|--------|--------|--------|--------|--------|--------|--------|
D#|--------|--------|--------|--------|--------|--------|--------|--------|--------|


D#|--------|--------|--------|--------|--------|--------|--------|--------|--------|
A#|--------|--------|--------|--------|--------|--------|--------|--------|--------|
F#|--------|--------|--------|--------|--------|--------|--------|--------|--------|
C#|--------|--------|--------|--------|--------|--------|--------|--------|--------|
G#|--------|--------|--------|--------|--------|--------|--------|--------|--------|
D#|--------|--------|--------|--------|--------|--------|--------|--------|--------|


D#|--------|--------|--------|--------|--------|--------|--------|--------|--------|
A#|--------|--------|--------|--------|--------|--------|--------|--------|--------|
F#|--------|--------|--------|--------|--------|--------|--------|--------|--------|
C#|--------|--------|--------|--------|--------|--------|--------|--------|--------|
G#|--------|--------|--------|--------|--------|--------|--------|--------|--------|
D#|--------|--------|--------|--------|--------|--------|--------|--------|--------|


D#|--------|--------|--------|--------|--------|--------|--------|--------|--------|
A#|--------|--------|--------|--------|--------|--------|--------|--------|--------|
F#|--------|--------|--------|--------|--------|--------|--------|--------|--------|
C#|--------|--------|--------|--------|--------|--------|--------|--------|--------|
G#|--------|--------|--------|--------|--------|--------|--------|--------|--------|
D#|--------|--------|--------|--------|--------|--------|--------|--------|--------|


D#|--------|--------|--------|--------|--------|--------|--------|--------|--------|
A#|--------|--------|--------|--------|--------|--------|--------|--------|--------|
F#|--------|--------|--------|--------|--------|--------|--------|--------|--------|
C#|--------|--------|--------|--------|--------|--------|--------|--------|--------|
G#|--------|--------|--------|--------|--------|--------|--------|--------|--------|
D#|--------|--------|--------|--------|--------|--------|--------|--------|--------|


D#|--------|--------|--------|--------|--------|--------|--------|--------|--------|
A#|--------|--------|--------|--------|--------|--------|--------|--------|--------|
F#|--------|--------|--------|--------|--------|--------|--------|--------|--------|
C#|--------|--------|--------|--------|--------|--------|--------|--------|--------|
G#|--------|--------|--------|--------|--------|--------|--------|--------|--------|
D#|--------|--------|--------|--------|--------|--------|--------|--------|--------|


D#|--------|--------|--------|--------|--------|--------|--------|--------|--------|
A#|--------|--------|--------|--------|--------|--------|--------|--------|--------|
F#|--------|--------|--------|--------|--------|--------|--------|--------|--------|
C#|--------|--------|--------|--------|--------|--------|--------|--------|--------|
G#|--------|--------|--------|--------|--------|--------|--------|--------|--------|
D#|--------|--------|--------|--------|--------|--------|--------|--------|--------|


D#|--------|--------|--------|--------|--------|--------|--------|--------|--------|
A#|--------|--------|--------|--------|--------|--------|--------|--------|--------|
F#|--------|--------|--------|--------|--------|--------|--------|--------|--------|
C#|--------|--------|--------|--------|--------|--------|--------|--------|--------|
G#|--------|--------|--------|--------|--------|--------|--------|--------|--------|
D#|--------|--------|--------|--------|--------|--------|--------|--------|--------|


D#|--------|--------|--------|--------|--------|--------|--------|--------|--------|
A#|--------|--------|--------|--------|--------|--------|--------|--------|--------|
F#|--------|--------|--------|--------|--------|--------|--------|--------|--------|
C#|--------|--------|--------|--------|--------|--------|--------|--------|--------|
G#|--------|--------|--------|--------|--------|--------|--------|--------|--------|
D#|--------|--------|--------|--------|--------|--------|--------|--------|--------|


D#|--------|--------|--------|--------|--------|--------|--------|--------|--------|
A#|--------|--------|--------|--------|--------|--------|--------|--------|--------|
F#|--------|--------|--------|--------|--------|--------|--------|--------|--------|
C#|--------|--------|--------|--------|--------|--------|--------|--------|--------|
G#|--------|--------|--------|--------|--------|--------|--------|--------|--------|
D#|--------|--------|--------|--------|--------|--------|--------|--------|--------|


D#|--------|--------|--------|--------|--------|--------|--------|--------|--------|
A#|--------|--------|--------|--------|--------|--------|--------|--------|--------|
F#|--------|--------|--------|--------|--------|--------|--------|--------|--------|
C#|--------|--------|--------|--------|--------|--------|--------|--------|--------|
G#|--------|--------|--------|--------|--------|--------|--------|--------|--------|
D#|--------|--------|--------|--------|--------|--------|--------|--------|--------|


D#|--------|--------|--------|--------|--------|--------|--------|--------|--------|
A#|--------|--------|--------|--------|--------|--------|--------|--------|--------|
F#|--------|--------|--------|--------|--------|--------|--------|--------|--------|
C#|--------|--------|--------|--------|--------|--------|--------|--------|--------|
G#|--------|--------|--------|--------|--------|--------|--------|--------|--------|
D#|--------|--------|--------|--------|--------|--------|--------|--------|--------|


D#|--------|--------|--------|--------|--------|--------|--------|--------|--------|
A#|--------|--------|--------|--------|--------|--------|--------|--------|--------|
F#|--------|--------|--------|--------|--------|--------|--------|--------|--------|
C#|--------|--------|--------|--------|--------|--------|--------|--------|--------|
G#|--------|--------|--------|--------|--------|--------|--------|--------|--------|
D#|--------|--------|--------|--------|--------|--------|--------|--------|--------|


D#|--------|--------|--------|--------|--------|--------|--------|--------|--------|
A#|--------|--------|--------|--------|--------|--------|--------|--------|--------|
F#|--------|--------|--------|--------|--------|--------|--------|--------|--------|
C#|--------|--------|--------|--------|--------|--------|--------|--------|--------|
G#|--------|--------|--------|--------|--------|--------|--------|--------|--------|
D#|--------|--------|--------|--------|--------|--------|--------|--------|--------|


D#|--------|--------|--------|--------|--------|--------|--------|--------|--------|
A#|--------|--------|--------|--------|--------|--------|--------|--------|--------|
F#|--------|--------|--------|--------|--------|--------|--------|--------|--------|
C#|--------|--------|--------|--------|--------|--------|--------|--------|--------|
G#|--------|--------|--------|--------|--------|--------|--------|--------|--------|
D#|--------|--------|--------|--------|--------|--------|--------|--------|--------|


D#|--------|--------|--------|--------|--------|--------|--------|--------|--------|
A#|--------|--------|--------|--------|--------|--------|--------|--------|--------|
F#|--------|--------|--------|--------|--------|--------|--------|--------|--------|
C#|--------|--------|--------|--------|--------|--------|--------|--------|--------|
G#|--------|--------|--------|--------|--------|--------|--------|--------|--------|
D#|--------|--------|--------|--------|--------|--------|--------|--------|--------|


D#|--------|--------|--------|--------|--------|--------|--------|--------|--------|
A#|--------|--------|--------|--------|--------|--------|--------|--------|--------|
F#|--------|--------|--------|--------|--------|--------|--------|--------|--------|
C#|--------|--------|--------|--------|--------|--------|--------|--------|--------|
G#|--------|--------|--------|--------|--------|--------|--------|--------|--------|
D#|--------|--------|--------|--------|--------|--------|--------|--------|--------|


D#|--------|--------|--------|--------|--------|--------|--------|--------|--------|
A#|--------|--------|--------|--------|--------|--------|--------|--------|--------|
F#|--------|--------|--------|--------|--------|--------|--------|--------|--------|
C#|--------|--------|--------|--------|--------|--------|--------|--------|--------|
G#|--------|--------|--------|--------|--------|--------|--------|--------|--------|
D#|--------|--------|--------|--------|--------|--------|--------|--------|--------|


D#|--------|--------|--------|--------|--------|--------|--------|--------|--------|
A#|--------|--------|--------|--------|--------|--------|--------|--------|--------|
F#|--------|--------|--------|--------|--------|--------|--------|--------|--------|
C#|--------|--------|--------|--------|--------|--------|--------|--------|--------|
G#|--------|--------|--------|--------|--------|--------|--------|--------|--------|
D#|--------|--------|--------|--------|--------|--------|--------|--------|--------|


D#|--------|--------|--------|--------|--------|--------|--------|--------|--------|
A#|--------|--------|--------|--------|--------|--------|--------|--------|--------|
F#|--------|--------|--------|--------|--------|--------|--------|--------|--------|
C#|--------|--------|--------|--------|--------|--------|--------|--------|--------|
G#|--------|--------|--------|--------|--------|--------|--------|--------|--------|
D#|--------|--------|--------|--------|--------|--------|--------|--------|--------|


D#|--------|--------|--------|--------|--------|--------|--------|--------|--------|
A#|--------|--------|--------|--------|--------|--------|--------|--------|--------|
F#|--------|--------|--------|--------|--------|--------|--------|--------|--------|
C#|--------|--------|--------|--------|--------|--------|--------|--------|--------|
G#|--------|--------|--------|--------|--------|--------|--------|--------|--------|
D#|--------|--------|--------|--------|--------|--------|--------|--------|--------|


D#|--------|--------|--------|--------|--------|--------|--------|--------|
A#|--------|--------|--------|--------|--------|--------|--------|--------|
F#|--------|--------|--------|--------|--------|--------|--------|--------|
C#|--------|--------|--------|--------|--------|--------|--------|--------|
G#|--------|--------|--------|--------|--------|--------|--------|--------|
D#|--------|--------|--------|--------|--------|--------|--------|--------|





Track 2: Distorted Guitar 1

D#|--------|--------|--------|--------|--------|--------|--------|--------|--------|
A#|--------|--------|--------|--------|--------|--------|--------|--------|--------|
F#|--------|--------|--------|--------|--------|--------|--------|--------|--------|
C#|--------|--------|--------|--------|--------|--------|--------|--------|--------|
G#|--------|--------|--------|--------|--------|--------|--------|--------|--------|
D#|--------|--------|--------|--------|--------|--------|--------|--------|--------|


D#|--------|--------|--------|--------|--------|--------|--------|--------|--------|
A#|--------|--------|--------|--------|--------|--------|--------|--------|--------|
F#|--------|--------|--------|--------|--------|--------|--------|--------|--------|
C#|--------|--------|--------|--------|--------|--------|--------|--------|--------|
G#|--------|--------|--------|--------|--------|--------|--------|--------|--------|
D#|--------|--------|--------|--------|--------|--------|--------|--------|--------|


D#|--------|--------|-------------|--------|-------------|--------|-------------|--------|
A#|--------|--------|-------------|--------|-------------|--------|-------------|--------|
F#|--------|--------|--------11---|--------|--------11---|--------|--------11---|--------|
C#|--------|--------|--------10---|--------|--------10---|--------|--------10---|--------|
G#|--------|--------|--------9----|--------|--------9----|--------|--------9----|--------|
D#|--------|--------|-------------|--------|-------------|--------|-------------|--------|


D#|-------------|---------------------------------|---------------------------------|
A#|-------------|---------------------------------|---------------------------------|
F#|--------11---|---------------------------------|---------------------------------|
C#|--------10---|---------------------------------|---------------------------------|
G#|--------9----|-----------------------------3---|-----2---0---1---2---------------|
D#|-------------|-2---0---2---5---0---1---2-------|-2-------------------2---3---0---|


D#|---------------------------------|---------------------------------|---------------------------------|
A#|---------------------------------|---------------------------------|---------------------------------|
F#|---------------------------------|---------------------------------|---------------------------------|
C#|---------------------------------|---------------------------------|---------------------------------|
G#|-----------------------------3---|-----2---0---1---2---------------|-----------------------------3---|
D#|-2---0---2---5---0---1---2-------|-2-------------------2---3---0---|-2---0---2---5---0---1---2-------|


D#|---------------------------------|---------------------------------|---------------------------------|
A#|---------------------------------|---------------------------------|---------------------------------|
F#|---------------------------------|---------------------------------|---------------------------------|
C#|---------------------------------|---------------------------------|---------------------------------|
G#|-----2---0---1---2---------------|-----------------------------3---|-----2---0---1---2---------------|
D#|-2-------------------2---3---0---|-2---0---2---5---0---1---2-------|-2-------------------2---3---0---|


D#|---------------------------------|---------------------------------|---------------------------------|
A#|---------------------------------|---------------------------------|---------------------------------|
F#|---------------------------------|---------------------------------|---------------------------------|
C#|-4-----------4---4-----------4---|-4-----------4---4-----------5---|-4-----------4---4-----------4---|
G#|-4---2---5---4---4---2---5---4---|-4---2---5---4---4---2---4---5---|-4---2---5---4---4---2---5---4---|
D#|-2---0---3---2---2---0---3---2---|-2---0---3---2---2---0---2---3---|-2---0---3---2---2---0---3---2---|


D#|---------------------------------|---------------------------------|---------------------------------|
A#|---------------------------------|---------------------------------|---------------------------------|
F#|-----------------------------2---|---------------------------------|---------------------------------|
C#|-4-----------4---4-----------2---|-4-----------4---4-----------4---|-4-----------4---4-----------5---|
G#|-4---2---5---4---4---2---4---0---|-4---2---5---4---4---2---5---4---|-4---2---5---4---4---2---4---5---|
D#|-2---0---3---2---2---0---2-------|-2---0---3---2---2---0---3---2---|-2---0---3---2---2---0---2---3---|


D#|---------------------------------|--------------------------------|---------------------------------|
A#|---------------------------------|--------------------------------|---------------------------------|
F#|---------------------------------|--------------------------------|---------------------------------|
C#|-4-----------4---4-----------4---|-4-------------------------2----|---------------------------------|
G#|-4---2---5---4---4---2---5---4---|-4---2---5---4---3----4----2----|-4---2---5---4---4---2---5---4---|
D#|-2---0---3---2---2---0---3---2---|-2---0---3---2---3----4---------|-2---0---3---2---2---0---3---2---|


D#|---------------------------------|---------------------------------|---------------------------------|
A#|---------------------------------|---------------------------------|---------------------------------|
F#|---------------------------------|---------------------------------|---------------------------------|
C#|---------------------------------|---------------------------------|-----------------------------2---|
G#|-4---2---5---4---4---2---4---5---|-4---2---5---4---4---2---5---4---|-4---2---5---4---4---2---4---0---|
D#|-2---0---3---2---2---0---2---3---|-2---0---3---2---2---0---3---2---|-2---0---3---2---2---0---2-------|


D#|---------------------------------|---------------------------------|---------------------------------|
A#|---------------------------------|---------------------------------|---------------------------------|
F#|---------------------------------|---------------------------------|---------------------------------|
C#|---------------------------------|---------------------------------|---------------------------------|
G#|-4---2---5---4---4---2---5---4---|-4---2---5---4---4---2---4---5---|-4---2---5---4---4---2---5---4---|
D#|-2---0---3---2---2---0---3---2---|-2---0---3---2---2---0---2---3---|-2---0---3---2---2---0---3---2---|


D#|---------------------------------|---------------------------------|---------------------------------|
A#|---------------------------------|---------------------------------|---------------------------------|
F#|---------------------------------|---------------------------------|---------------------------------|
C#|-----------------------------2---|---------------------------------|---------------------------------|
G#|-4---2---5---4---4---2---4---0---|-4---2---5---4---4---2---5---4---|-4---2---5---4---4---2---4---5---|
D#|-2---0---3---2---2---0---2-------|-2---0---3---2---2---0---3---2---|-2---0---3---2---2---0---2---3---|


D#|---------------------------------|---------------------------------|---------------------------------|
A#|---------------------------------|---------------------------------|---------------------------------|
F#|---------------------------------|---------------------------------|---------------------------------|
C#|---------------------------------|-----------------------------2---|---------------------------------|
G#|-4---2---5---4---4---2---5---4---|-4---2---5---4---4---2---4---0---|-4---2---5---4---4---2---5---4---|
D#|-2---0---3---2---2---0---3---2---|-2---0---3---2---2---0---2-------|-2---0---3---2---2---0---3---2---|


D#|---------------------------------|---------------------------------|---------------------------------|
A#|---------------------------------|---------------------------------|---------------------------------|
F#|---------------------------------|---------------------------------|---------------------------------|
C#|---------------------------------|---------------------------------|-----------------------------2---|
G#|-4---2---5---4---4---2---4---5---|-4---2---5---4---4---2---5---4---|-4---2---5---4---4---2---4---0---|
D#|-2---0---3---2---2---0---2---3---|-2---0---3---2---2---0---3---2---|-2---0---3---2---2---0---2-------|


D#|---------------------------------|---------------------------------|---------------------------------|
A#|---------------------------------|---------------------------------|---------------------------------|
F#|-------------2---2-----------5---|-5---4---5-----------------------|-------------2---2-----------5---|
C#|-4-----------2---2-----------5---|-5---4---5-----------------------|-4-----------2---2-----------5---|
G#|-4---2---4---0---0---2---2---3---|-3---2---3---2---2---2---2---2---|-4---2---4---0---0---2---2---3---|
D#|-2---0---2-----------0---0-------|-------------0---0---0---0---0---|-2---0---2-----------0---0-------|


D#|-----------------------------------|---------------------------------|---------------------------------|
A#|-----------------------------------|---------------------------------|---------------------------------|
F#|-5---4---5------------------5--5---|-------------2---2-----------5---|-5---4---5-----------------------|
C#|-5---4---5------------------5--5---|-4-----------2---2-----------5---|-5---4---5-----------------------|
G#|-3---2---3---2---2---2---2--3--3---|-4---2---4---0---0---2---2---3---|-3---2---3---2---2---2---2---2---|
D#|-------------0---0---0---0---------|-2---0---2-----------0---0-------|-------------0---0---0---0---0---|


D#|---------------------------------|------------------------------|---------------------------------|
A#|---------------------------------|------------------------------|---------------------------------|
F#|-------------2---2-----------5---|-5---4---5--------------------|---------------------------------|
C#|-4-----------2---2-----------5---|-5---4---5--------------------|---------------------------------|
G#|-4---2---4---0---0---2---2---3---|-3---2---3---2---2---2--------|-----------------------------3---|
D#|-2---0---2-----------0---0-------|-------------0---0---0---2----|-2---0---2---5---0---1---2-------|


D#|---------------------------------|---------------------------------|---------------------------------|
A#|---------------------------------|---------------------------------|---------------------------------|
F#|---------------------------------|---------------------------------|---------------------------------|
C#|---------------------------------|---------------------------------|---------------------------------|
G#|-----2---0---1---2---------------|-----------------------------3---|-----2---0---1---2---------------|
D#|-2-------------------2---3---0---|-2---0---2---5---0---1---2-------|-2-------------------2---3---0---|


D#|---------------------------------|---------------------------------|---------------------------------|
A#|---------------------------------|---------------------------------|---------------------------------|
F#|---------------------------------|---------------------------------|---------------------------------|
C#|---------------------------------|---------------------------------|---------------------------------|
G#|-----------------------------3---|-----2---0---1---2---------------|-----------------------------3---|
D#|-2---0---2---5---0---1---2-------|-2-------------------2---3---0---|-2---0---2---5---0---1---2-------|


D#|---------------------------------|---------------------------------|---------------------------------|
A#|---------------------------------|---------------------------------|---------------------------------|
F#|---------------------------------|---------------------------------|---------------------------------|
C#|---------------------------------|---------------------------------|---------------------------------|
G#|-----2---0---1---2---------------|-4---2---5---4---4---2---5---4---|-4---2---5---4---4---2---4---5---|
D#|-2-------------------2---3---0---|-2---0---3---2---2---0---3---2---|-2---0---3---2---2---0---2---3---|


D#|---------------------------------|---------------------------------|---------------------------------|
A#|---------------------------------|---------------------------------|---------------------------------|
F#|---------------------------------|---------------------------------|---------------------------------|
C#|---------------------------------|-----------------------------2---|---------------------------------|
G#|-4---2---5---4---4---2---5---4---|-4---2---5---4---4---2---4---0---|-4---2---5---4---4---2---5---4---|
D#|-2---0---3---2---2---0---3---2---|-2---0---3---2---2---0---2-------|-2---0---3---2---2---0---3---2---|


D#|---------------------------------|---------------------------------|---------------------------------|
A#|---------------------------------|---------------------------------|---------------------------------|
F#|---------------------------------|---------------------------------|---------------------------------|
C#|---------------------------------|---------------------------------|-----------------------------2---|
G#|-4---2---5---4---4---2---4---5---|-4---2---5---4---4---2---5---4---|-4---2---5---4---4---2---4---0---|
D#|-2---0---3---2---2---0---2---3---|-2---0---3---2---2---0---3---2---|-2---0---3---2---2---0---2-------|


D#|---------------------------------|---------------------------------|---------------------------------|
A#|---------------------------------|---------------------------------|---------------------------------|
F#|---------------------------------|---------------------------------|---------------------------------|
C#|---------------------------------|---------------------------------|---------------------------------|
G#|-4---2---5---4---4---2---5---4---|-4---2---5---4---4---2---4---5---|-4---2---5---4---4---2---5---4---|
D#|-2---0---3---2---2---0---3---2---|-2---0---3---2---2---0---2---3---|-2---0---3---2---2---0---3---2---|


D#|---------------------------------|---------------------------------|---------------------------------|
A#|---------------------------------|---------------------------------|---------------------------------|
F#|---------------------------------|---------------------------------|---------------------------------|
C#|-----------------------------2---|---------------------------------|---------------------------------|
G#|-4---2---5---4---4---2---4---0---|-4---2---5---4---4---2---5---4---|-4---2---5---4---4---2---4---5---|
D#|-2---0---3---2---2---0---2-------|-2---0---3---2---2---0---3---2---|-2---0---3---2---2---0---2---3---|


D#|---------------------------------|---------------------------------|---------------------------------|
A#|---------------------------------|---------------------------------|---------------------------------|
F#|---------------------------------|---------------------------------|-------------2---2-----------5---|
C#|---------------------------------|-----------------------------2---|-4-----------2---2-----------5---|
G#|-4---2---5---4---4---2---5---4---|-4---2---5---4---4---2---4---0---|-4---2---4---0---0---2---2---3---|
D#|-2---0---3---2---2---0---3---2---|-2---0---3---2---2---0---2-------|-2---0---2-----------0---0-------|


D#|---------------------------------|---------------------------------|-----------------------------------|
A#|---------------------------------|---------------------------------|-----------------------------------|
F#|-5---4---5-----------------------|-------------2---2-----------5---|-5---4---5------------------5--5---|
C#|-5---4---5-----------------------|-4-----------2---2-----------5---|-5---4---5------------------5--5---|
G#|-3---2---3---2---2---2---2---2---|-4---2---4---0---0---2---2---3---|-3---2---3---2---2---2---2--3--3---|
D#|-------------0---0---0---0---0---|-2---0---2-----------0---0-------|-------------0---0---0---0---------|


D#|---------------------------------|---------------------------------|---------------------------------|
A#|---------------------------------|---------------------------------|---------------------------------|
F#|-------------2---2-----------5---|-5---4---5-----------------------|-------------2---2-----------5---|
C#|-4-----------2---2-----------5---|-5---4---5-----------------------|-4-----------2---2-----------5---|
G#|-4---2---4---0---0---2---2---3---|-3---2---3---2---2---2---2---2---|-4---2---4---0---0---2---2---3---|
D#|-2---0---2-----------0---0-------|-------------0---0---0---0---0---|-2---0---2-----------0---0-------|


D#|---------------------------------|--------|-------------|--------|--------|--------|
A#|---------------------------------|--------|-------------|--------|--------|--------|
F#|-5---4---5-----------------------|-4------|-4------4----|-2------|-2------|-6------|
C#|-5---4---5-----------------------|-4------|-4------4----|-2------|-2------|-6------|
G#|-3---2---3---2---2---2---2---2---|-2------|-2------2----|-0------|-0------|-4------|
D#|-------------0---0---0---0---0---|--------|-------------|--------|--------|--------|


D#|--------|-------------|-----------------|--------|-----------------|--------|-----------------|
A#|--------|-------------|-----------------|--------|-----------------|--------|-----------------|
F#|-6------|-------------|------9-----7----|-7------|-7-----7----6----|-4------|-4-----4---------|
C#|-6------|-4------4----|-4----9-----7----|-7------|-7-----7----6----|-4------|-4-----4---------|
G#|-4------|-4------4----|-4----7-----5----|-5------|-5-----5----4----|-2------|-2-----2---------|
D#|--------|-2------2----|-2---------------|--------|-----------------|--------|------------5----|


D#|--------|-------------|--------|-------------|---------------------------------|
A#|--------|-------------|--------|-------------|---------------------------------|
F#|--------|-------------|--------|-------------|-19--19-19-19-19-19-19-19---11---|
C#|--------|-------------|-5------|-5-----5-----|---------------------------------|
G#|--------|-------------|-5------|-5-----5-----|-17--17-17-17-17-17-17-17---9----|
D#|-4------|-4-----4-----|-3------|-3-----3-----|---------------------------------|


D#|-------------|-------------|-------------|-------------|-------------|-------------|
A#|-------------|-------------|-------------|-------------|-------------|-------------|
F#|-11----19----|-18-----11---|-11----18----|-17-----14---|-13----11----|-13-----14---|
C#|-------------|-------------|-------------|-------------|-------------|-------------|
G#|-9-----17----|-16-----9----|-9-----16----|-15-----12---|-11----9-----|-11-----12---|
D#|-------------|-------------|-------------|-------------|-------------|-------------|


D#|--------|------------------------------|---------------------------|------------------------------|
A#|--------|------------------------------|---------------------------|------------------------------|
F#|-13-----|------------------------------|---------------------------|------------------------------|
C#|--------|--------------------------2---|-2-------------------------|--------------------------2---|
G#|-11-----|-4---4---4---2---2---4----0---|-0---4----2---2---4---5----|-4---4---4---2---2---4----0---|
D#|--------|-2---2---2---0---0---2--------|-----2----0---0---2---3----|-2---2---2---0---0---2--------|


D#|---------------------------|------------------------------|---------------------------|
A#|---------------------------|------------------------------|---------------------------|
F#|---------------------------|------------------------------|---------------------------|
C#|-2-------------------------|--------------------------2---|-2-------------------------|
G#|-0---4----2---2---4--------|-4---4---4---2---2---4----0---|-0---4----2---2---4---5----|
D#|-----2----0---0---2---2----|-2---2---2---0---0---2--------|-----2----0---0---2---3----|


D#|------------------------------|---------------------------|---------------------------------|
A#|------------------------------|---------------------------|---------------------------------|
F#|------------------------------|---------------------------|---------------------------------|
C#|--------------------------2---|-2--------------------2----|-----------------------------2---|
G#|-4---4---4---2---2---4----0---|-0---4----2---2---4---0----|-4---4---4---2---2---4---4---0---|
D#|-2---2---2---0---0---2--------|-----2----0---0---2---0----|-2---2---2---0---0---2---2-------|


D#|---------------------------------|---------------------------------|---------------------------------|
A#|---------------------------------|---------------------------------|---------------------------------|
F#|---------------------------------|---------------------------------|---------------------------------|
C#|-2-------------------------------|-----------------------------2---|-2-----------------------5---5---|
G#|-0---4---4---2---2---4---5---5---|-4---4---4---2---2---4---4---0---|-0---4---4---2---2---4---3---3---|
D#|-----2---2---0---0---2---3---3---|-2---2---2---0---0---2---2-------|-----2---2---0---0---2-----------|


D#|---------------------------------|---------------------------------|---------------------------------|
A#|---------------------------------|---------------------------------|---------------------------------|
F#|---------------------------------|---------------------------------|---------------------------------|
C#|-----------------------------2---|-2-------------------------------|-----------------------------2---|
G#|-4---4---4---2---2---4---4---0---|-0---4---4---2---2---4---5---5---|-4---4---4---2---2---4---4---0---|
D#|-2---2---2---0---0---2---2-------|-----2---2---0---0---2---3---3---|-2---2---2---0---0---2---2-------|


D#|---------------------------------|---------------------------------|---------------------------------|
A#|---------------------------------|---------------------------------|---------------------------------|
F#|---------------------------------|-----------------------------2---|-2-------------------------------|
C#|-2-----------------------5---5---|-4---4---4---2---2---4---4---2---|-2---4---4---2---2---4---5---5---|
G#|-0---4---4---2---2---4---3---3---|-4---4---4---2---2---4---4---0---|-0---4---4---2---2---4---5---5---|
D#|-----2---2---0---0---2-----------|-2---2---2---0---0---2---2-------|-----2---2---0---0---2---3---3---|


D#|---------------------------------|---------------------------------|---------------------------------|
A#|---------------------------------|---------------------------------|---------------------------------|
F#|-----------------------------2---|-2-------------------------------|-----------------------------2---|
C#|-4---4---4---2---2---4---4---2---|-2---4---4---2---2---4---2---2---|-4---4---4---2---2---4---4---2---|
G#|-4---4---4---2---2---4---4---0---|-0---4---4---2---2---4---0---0---|-4---4---4---2---2---4---4---0---|
D#|-2---2---2---0---0---2---2-------|-----2---2---0---0---2---0---0---|-2---2---2---0---0---2---2-------|


D#|---------------------------------|---------------------------------|---------------------------------|
A#|---------------------------------|---------------------------------|---------------------------------|
F#|-2-------------------------------|-----------------------------2---|-2-------------------------------|
C#|-2---4---4---2---2---4---5---5---|-4---4---4---2---2---4---4---2---|-2---4---4---2---2---4---2---2---|
G#|-0---4---4---2---2---4---5---5---|-4---4---4---2---2---4---4---0---|-0---4---4---2---2---4---0---0---|
D#|-----2---2---0---0---2---3---3---|-2---2---2---0---0---2---2-------|-----2---2---0---0---2---0---0---|


D#|---------------------------------|---------------------------------|---------------------------------|
A#|---------------------------------|---------------------------------|---------------------------------|
F#|-6---6---6---4---4---6---6---9---|-9---6---6---4---4---6---7---7---|-6---6---6---4---4---6---6---9---|
C#|-6---6---6---4---4---6---6---9---|-9---6---6---4---4---6---7---7---|-6---6---6---4---4---6---6---9---|
G#|-4---4---4---2---2---4---4---7---|-7---4---4---2---2---4---5---5---|-4---4---4---2---2---4---4---7---|
D#|---------------------------------|---------------------------------|---------------------------------|


D#|---------------------------------|---------------------------------|---------------------------------|
A#|---------------------------------|---------------------------------|---------------------------------|
F#|-9---6---6---4---4---6-----------|-6---6---6---4---4---6---6---9---|-9---6---6---4---4---6---7---7---|
C#|-9---6---6---4---4---6---5---5---|-6---6---6---4---4---6---6---9---|-9---6---6---4---4---6---7---7---|
G#|-7---4---4---2---2---4---5---5---|-4---4---4---2---2---4---4---7---|-7---4---4---2---2---4---5---5---|
D#|-------------------------3---3---|---------------------------------|---------------------------------|


D#|---------------------------------|---------------------------------|---------------------------------|
A#|---------------------------------|---------------------------------|---------------------------------|
F#|-6---6---6---4---4---6---6---9---|-9---6---6---4---4---6-----------|-----------------------------2---|
C#|-6---6---6---4---4---6---6---9---|-9---6---6---4---4---6---5---5---|-----4-------2-------4-----------|
G#|-4---4---4---2---2---4---4---7---|-7---4---4---2---2---4---5---5---|---------------------------------|
D#|---------------------------------|-------------------------3---3---|-2-------2-------2-------2-------|


D#|------------------------------|---------------------------------|------------------------------|
A#|------------------------------|---------------------------------|------------------------------|
F#|--------------------------4---|-----------------------------2---|--------------------------4---|
C#|-----4----2-------4---5-------|-----4-------2-------4-----------|-----4----2-------4---5-------|
G#|------------------------------|---------------------------------|------------------------------|
D#|-2------------2---------------|-2-------2-------2-------2-------|-2------------2---------------|


D#|---------------------------------|------------------------------|---------------------------------|
A#|---------------------------------|------------------------------|---------------------------------|
F#|-----------------------------2---|--------------------------4---|-----------------------------2---|
C#|-----4-------2-------4-----------|-----4----2-------4---5-------|-----4-------2-------4-----------|
G#|---------------------------------|------------------------------|---------------------------------|
D#|-2-------2-------2-------2-------|-2------------2---------------|-2-------2-------2-------2-------|


D#|------------------------------|------------------------------|------------------------------|
A#|------------------------------|------------------------------|------------------------------|
F#|--------------------------4---|-4---6-------6----6---7---6---|-----6----6---4---6-------6---|
C#|-----4----2-------4---5-------|-4---6-------6----6---7---6---|-----6----6---4---6-------6---|
G#|------------------------------|-2---4-------4----4---5---4---|-----4----4---2---4-------4---|
D#|-2------------2---------------|------------------------------|------------------------------|


D#|------------------------------|------------------------------|--------------------|
A#|------------------------------|------------------------------|--------------------|
F#|-----6---7---6-------6----6---|------------------------------|--------------2-----|
C#|-----6---7---6-------6----6---|-4---4-------4----4---2---4---|-----4----4---2-----|
G#|-----4---5---4-------4----4---|-4---4-------4----4---2---4---|-----4----4---0-----|
D#|------------------------------|-2---2-------2----2---0---2---|-----2----2---------|


D#|-----------------|------------------------------|------------------------------|
A#|-----------------|------------------------------|------------------------------|
F#|-2----4----4-----|-4---6-------6----6---7---6---|-----6----6---4---6-------6---|
C#|-2----4----4-----|-4---6-------6----6---7---6---|-----6----6---4---6-------6---|
G#|-0----2----2-----|-2---4-------4----4---5---4---|-----4----4---2---4-------4---|
D#|-----------------|------------------------------|------------------------------|


D#|----------------|--------|-------------|-------------|-----------------|--------|
A#|----------------|--------|-------------|-------------|-----------------|--------|
F#|-----6---2------|--------|-------------|-------------|-----------------|--------|
C#|-----6---2------|-6------|-------4-----|------2------|-4-----4---------|--------|
G#|-----4---0------|-6------|-------4-----|------2------|-4-----4---------|--------|
D#|----------------|-4------|-------2-----|------0------|-2-----2---------|--------|


D#|--------|--------|-------------------------------------------------------------------------|
A#|--------|--------|-------------------------------------------------------------------------|
F#|--------|--------|-------------------------------------------------------------------------|
C#|--------|--------|----------------------------14-9--7--------------------------------------|
G#|--------|--------|-16-9--7--14-9--7-----9--7-----------14-9--7--------------------12-9--7--|
D#|--------|--------|-------------------7--------------------------7--9--7--12-9--7-----------|


D#|----------------------------------------------19-14-12-19-14-12-24-19-17-|-24-12-14-19-12-14----------------------------------------------------|
A#|-------------------------------------19-14-12----------------------------|-------------------24-12-14-------------------------------------------|
F#|----------------------------16-11-9--------------------------------------|----------------------------23-9--11----------------------------------|
C#|----------14-9--7--16-11-9-----------------------------------------------|-------------------------------------9--11----------------------------|
G#|-14-9--7-----------------------------------------------------------------|-------------------------------------------9--7--12-19-7--9--21-17-19-|
D#|-------------------------------------------------------------------------|----------------------------------------------------------------------|


D#|-------------------------------------------------------------------------|---------------------------------|
A#|-------------------------------------------------------------------------|---------------------------------|
F#|-------------------------------------------------------------------------|---------------------------------|
C#|-------------------------------------------------------------------------|---------------------------------|
G#|----------------------------14-12-14-19-7--9--16-7--9--12-7--12-9--7--9--|---------------------------------|
D#|-17-7--9--12-7--9--14-12-14----------------------------------------------|-4---2---5---4---4---2---5---4---|


D#|---------------------------------|---------------------------------|---------------------------------|
A#|---------------------------------|---------------------------------|---------------------------------|
F#|---------------------------------|---------------------------------|---------------------------------|
C#|---------------------------------|---------------------------------|---------------------------------|
G#|---------------------------------|---------------------------------|-----------------------------2---|
D#|-4---2---5---4---4---2---4---5---|-4---2---5---4---4---2---5---4---|-4---2---5---4---4---2---4-------|


D#|---------------------------------|---------------------------------|---------------------------------|
A#|---------------------------------|---------------------------------|---------------------------------|
F#|---------------------------------|---------------------------------|---------------------------------|
C#|---------------------------------|---------------------------------|---------------------------------|
G#|---------------------------------|---------------------------------|---------------------------------|
D#|-4---2---5---4---4---2---5---4---|-4---2---5---4---4---2---4---5---|-4---2---5---4---4---2---5---4---|


D#|---------------------------------|---------------------------------|---------------------------------|
A#|---------------------------------|---------------------------------|---------------------------------|
F#|---------------------------------|---------------------------------|---------------------------------|
C#|---------------------------------|---------------------------------|---------------------------------|
G#|-----------------------------2---|-----------------------------3---|-----2---0---1---2---------------|
D#|-4---2---5---4---4---2---4-------|-2---0---2---5---0---1---2-------|-2-------------------2---3---0---|


D#|---------------------------------|---------------------------------|---------------------------------|
A#|---------------------------------|---------------------------------|---------------------------------|
F#|---------------------------------|---------------------------------|---------------------------------|
C#|---------------------------------|---------------------------------|---------------------------------|
G#|-----------------------------3---|-----2---0---1---2---------------|-----------------------------3---|
D#|-2---0---2---5---0---1---2-------|-2-------------------2---3---0---|-2---0---2---5---0---1---2-------|


D#|---------------------------------|---------------------------------|---------------------------------|
A#|---------------------------------|---------------------------------|---------------------------------|
F#|---------------------------------|---------------------------------|---------------------------------|
C#|---------------------------------|---------------------------------|---------------------------------|
G#|-----2---0---1---2---------------|-----------------------------3---|-----2---0---1---2---------------|
D#|-2-------------------2---3---0---|-2---0---2---5---0---1---2-------|-2-------------------2---3---0---|


D#|---------------------------------|---------------------------------|---------------------------------|
A#|---------------------------------|---------------------------------|---------------------------------|
F#|---------------------------------|---------------------------------|---------------------------------|
C#|---------------------------------|---------------------------------|---------------------------------|
G#|-2---0---3---2---2---0---3---2---|-2---0---3---2---2---0---2---3---|-2---0---3---2---2---0---3---2---|
D#|---------------------------------|---------------------------------|---------------------------------|


D#|---------------------------------|---------------------------------|---------------------------------|
A#|---------------------------------|---------------------------------|---------------------------------|
F#|---------------------------------|---------------------------------|---------------------------------|
C#|---------------------------------|---------------------------------|---------------------------------|
G#|-2---0---3---2---2---0---2---5---|-2---0---3---2---2---0---3---2---|-2---0---3---2---2---0---2---3---|
D#|---------------------------------|---------------------------------|---------------------------------|


D#|---------------------------------|---------------------------------|---------------------------------|
A#|---------------------------------|---------------------------------|---------------------------------|
F#|---------------------------------|---------------------------------|-------------2---2-----------5---|
C#|---------------------------------|---------------------------------|-4-----------2---2-----------5---|
G#|-2---0---3---2---2---0---3---2---|-2---0---3---2---2---0---2---5---|-4---2---4---0---0---2---2---3---|
D#|---------------------------------|---------------------------------|-2---0---2-----------0---0-------|


D#|---------------------------------|---------------------------------|-----------------------------------|
A#|---------------------------------|---------------------------------|-----------------------------------|
F#|-5---4---5-----------------------|-------------2---2-----------5---|-5---4---5------------------5--5---|
C#|-5---4---5-----------------------|-4-----------2---2-----------5---|-5---4---5------------------5--5---|
G#|-3---2---3---2---2---2---2---2---|-4---2---4---0---0---2---2---3---|-3---2---3---2---2---2---2--3--3---|
D#|-------------0---0---0---0---0---|-2---0---2-----------0---0-------|-------------0---0---0---0---------|


D#|---------------------------------|---------------------------------|---------------------------------|
A#|---------------------------------|---------------------------------|---------------------------------|
F#|-------------2---2-----------5---|-5---4---5-----------------------|-------------2---2-----------5---|
C#|-4-----------2---2-----------5---|-5---4---5-----------------------|-4-----------2---2-----------5---|
G#|-4---2---4---0---0---2---2---3---|-3---2---3---2---2---2---2---2---|-4---2---4---0---0---2---2---3---|
D#|-2---0---2-----------0---0-------|-------------0---0---0---0---0---|-2---0---2-----------0---0-------|


D#|---------------------------------|--------|--------|--------|--------|--------|
A#|---------------------------------|-12-----|--------|--------|--------|--------|
F#|-5---4---5-----------------------|--------|--------|--------|--------|--------|
C#|-5---4---5-----------------------|--------|--------|--------|--------|--------|
G#|-3---2---3---2---2---2---2---2---|--------|--------|--------|--------|--------|
D#|-------------0---0---0---0---0---|--------|--------|--------|--------|--------|


D#|--------|--------|--------|--------|--------|--------|--------|--------|--------|
A#|--------|--------|--------|--------|--------|--------|--------|--------|--------|
F#|--------|--------|--------|--------|--------|--------|--------|--------|--------|
C#|--------|--------|--------|--------|--------|--------|--------|--------|--------|
G#|--------|--------|--------|--------|--------|--------|--------|--------|--------|
D#|--------|--------|--------|--------|--------|--------|--------|--------|--------|


D#|--------|--------|--------|--------|--------|--------|--------|--------|--------|
A#|--------|--------|--------|--------|--------|--------|--------|--------|--------|
F#|--------|--------|--------|--------|--------|--------|--------|--------|--------|
C#|--------|--------|--------|--------|--------|--------|--------|--------|--------|
G#|--------|--------|--------|--------|--------|--------|--------|--------|--------|
D#|--------|--------|--------|--------|--------|--------|--------|--------|--------|


D#|--------|--------|--------|--------|--------|--------|--------|--------|--------|
A#|--------|--------|--------|--------|--------|--------|--------|--------|--------|
F#|--------|--------|--------|--------|--------|--------|--------|--------|--------|
C#|--------|--------|--------|--------|--------|--------|--------|--------|--------|
G#|--------|--------|--------|--------|--------|--------|--------|--------|--------|
D#|--------|--------|--------|--------|--------|--------|--------|--------|--------|


D#|--------|--------|--------|--------|--------|--------|--------|--------|--------|
A#|--------|--------|--------|--------|--------|--------|--------|--------|--------|
F#|--------|--------|--------|--------|--------|--------|--------|--------|--------|
C#|--------|--------|--------|--------|--------|--------|--------|--------|--------|
G#|--------|--------|--------|--------|--------|--------|--------|--------|--------|
D#|--------|--------|--------|--------|--------|--------|--------|--------|--------|


D#|--------|--------|--------|--------|--------|--------|--------|--------|--------|
A#|--------|--------|--------|--------|--------|--------|--------|--------|--------|
F#|--------|--------|--------|--------|--------|--------|--------|--------|--------|
C#|--------|--------|--------|--------|--------|--------|--------|--------|--------|
G#|--------|--------|--------|--------|--------|--------|--------|--------|--------|
D#|--------|--------|--------|--------|--------|--------|--------|--------|--------|


D#|--------|--------|--------|
A#|--------|--------|--------|
F#|--------|--------|--------|
C#|--------|--------|--------|
G#|--------|--------|--------|
D#|--------|--------|--------|





Track 3: Distorted Guitar 2

D#|--------|--------|--------|--------|--------|--------|--------|--------|--------|
A#|--------|--------|--------|--------|--------|--------|--------|--------|--------|
F#|--------|--------|--------|--------|--------|--------|--------|--------|--------|
C#|--------|--------|--------|--------|--------|--------|--------|--------|--------|
G#|--------|--------|--------|--------|--------|--------|--------|--------|--------|
D#|--------|--------|--------|--------|--------|--------|--------|--------|--------|


D#|--------|--------|--------|--------|--------|--------|--------|--------|--------|
A#|--------|--------|--------|--------|--------|--------|--------|--------|--------|
F#|--------|--------|--------|--------|--------|--------|--------|--------|--------|
C#|--------|--------|--------|--------|--------|--------|--------|--------|--------|
G#|--------|--------|--------|--------|--------|--------|--------|--------|--------|
D#|--------|--------|--------|--------|--------|--------|--------|--------|--------|


D#|--------|--------|--------|--------|--------|--------|--------|--------|--------|
A#|--------|--------|--------|--------|--------|--------|--------|--------|--------|
F#|--------|--------|--------|--------|--------|--------|--------|--------|--------|
C#|--------|--------|--------|--------|--------|--------|--------|--------|--------|
G#|--------|--------|--------|--------|--------|--------|--------|--------|--------|
D#|--------|--------|--------|--------|--------|--------|--------|--------|--------|


D#|--------|--------|--------|--------|--------|--------|--------|--------|--------|
A#|--------|--------|--------|--------|--------|--------|--------|--------|--------|
F#|--------|--------|--------|--------|--------|--------|--------|--------|--------|
C#|--------|--------|--------|--------|--------|--------|--------|--------|--------|
G#|--------|--------|--------|--------|--------|--------|--------|--------|--------|
D#|--------|--------|--------|--------|--------|--------|--------|--------|--------|


D#|--------|--------|--------|--------|--------|--------|--------|--------|--------|
A#|--------|--------|--------|--------|--------|--------|--------|--------|--------|
F#|--------|--------|--------|--------|--------|--------|--------|--------|--------|
C#|--------|--------|--------|--------|--------|--------|--------|--------|--------|
G#|--------|--------|--------|--------|--------|--------|--------|--------|--------|
D#|--------|--------|--------|--------|--------|--------|--------|--------|--------|


D#|--------|--------|--------|--------|--------|--------|--------|--------|--------|
A#|--------|--------|--------|--------|--------|--------|--------|--------|--------|
F#|--------|--------|--------|--------|--------|--------|--------|--------|--------|
C#|--------|--------|--------|--------|--------|--------|--------|--------|--------|
G#|--------|--------|--------|--------|--------|--------|--------|--------|--------|
D#|--------|--------|--------|--------|--------|--------|--------|--------|--------|


D#|--------|--------|--------|--------|--------|--------|--------|--------|--------|
A#|--------|--------|--------|--------|--------|--------|--------|--------|--------|
F#|--------|--------|--------|--------|--------|--------|--------|--------|--------|
C#|--------|--------|--------|--------|--------|--------|--------|--------|--------|
G#|--------|--------|--------|--------|--------|--------|--------|--------|--------|
D#|--------|--------|--------|--------|--------|--------|--------|--------|--------|


D#|--------|--------|--------|--------|--------|--------|--------|--------|---------------------------------|
A#|--------|--------|--------|--------|--------|--------|--------|--------|---------------------------------|
F#|--------|--------|--------|--------|--------|--------|--------|--------|---------------------------------|
C#|--------|--------|--------|--------|--------|--------|--------|--------|-------------2---------------5---|
G#|--------|--------|--------|--------|--------|--------|--------|--------|-4---2---4-------2---3---4-------|
D#|--------|--------|--------|--------|--------|--------|--------|--------|---------------------------------|


D#|---------------------------------|---------------------------------|---------------------------------|
A#|---------------------------------|---------------------------------|---------------------------------|
F#|---------------------------------|---------------------------------|---------------------------------|
C#|-----4---2---3---4---------------|-------------2---------------5---|-----4---2---3---4---------------|
G#|-4-------------------4---5---2---|-4---2---4-------2---3---4-------|-4-------------------4---5---2---|
D#|---------------------------------|---------------------------------|---------------------------------|


D#|--------|--------|--------|--------|--------|--------|--------|--------|--------|
A#|--------|--------|--------|--------|--------|--------|--------|--------|--------|
F#|--------|--------|--------|--------|--------|--------|--------|--------|--------|
C#|--------|--------|--------|--------|--------|--------|--------|--------|--------|
G#|--------|--------|--------|--------|--------|--------|--------|--------|--------|
D#|--------|--------|--------|--------|--------|--------|--------|--------|--------|


D#|--------|--------|--------|--------|--------|--------|--------|--------|--------|
A#|--------|--------|--------|--------|--------|--------|--------|--------|--------|
F#|--------|--------|--------|--------|--------|--------|--------|--------|--------|
C#|--------|--------|--------|--------|--------|--------|--------|--------|--------|
G#|--------|--------|--------|--------|--------|--------|--------|--------|--------|
D#|--------|--------|--------|--------|--------|--------|--------|--------|--------|


D#|--------|--------|--------|--------|--------|--------|--------|--------|--------|
A#|--------|--------|--------|--------|--------|--------|-12-----|--------|--------|
F#|--------|--------|--------|--------|--------|--------|--------|--------|--------|
C#|--------|--------|--------|--------|--------|--------|--------|--------|--------|
G#|--------|--------|--------|--------|--------|--------|--------|--------|--------|
D#|--------|--------|--------|--------|--------|--------|--------|--------|--------|


D#|--------|--------|--------|--------|--------|--------|--------|--------|--------|
A#|--------|--------|--------|--------|--------|--------|--------|--------|--------|
F#|--------|--------|--------|--------|--------|--------|--------|--------|--------|
C#|--------|--------|--------|--------|--------|--------|--------|--------|--------|
G#|--------|--------|--------|--------|--------|--------|--------|--------|--------|
D#|--------|--------|--------|--------|--------|--------|--------|--------|--------|


D#|--------|--------|--------|--------|--------|--------|--------|--------|--------|
A#|--------|--------|--------|--------|--------|--------|--------|--------|--------|
F#|--------|--------|--------|--------|--------|--------|--------|--------|--------|
C#|--------|--------|--------|--------|--------|--------|--------|--------|--------|
G#|--------|--------|--------|--------|--------|--------|--------|--------|--------|
D#|--------|--------|--------|--------|--------|--------|--------|--------|--------|


D#|--------|--------|--------|--------|--------|--------|--------|--------|--------|
A#|--------|--------|--------|--------|--------|--------|--------|--------|--------|
F#|--------|--------|--------|--------|--------|--------|--------|--------|--------|
C#|--------|--------|--------|--------|--------|--------|--------|--------|--------|
G#|--------|--------|--------|--------|--------|--------|--------|--------|--------|
D#|--------|--------|--------|--------|--------|--------|--------|--------|--------|


D#|--------|--------|--------|--------|--------|--------|--------|--------|--------|
A#|--------|--------|--------|--------|--------|--------|--------|--------|--------|
F#|--------|--------|--------|--------|--------|--------|--------|--------|--------|
C#|--------|--------|--------|--------|--------|--------|--------|--------|--------|
G#|--------|--------|--------|--------|--------|--------|--------|--------|--------|
D#|--------|--------|--------|--------|--------|--------|--------|--------|--------|


D#|--------|--------|--------|--------|--------|--------|--------|--------|--------|
A#|--------|--------|--------|--------|--------|--------|--------|--------|--------|
F#|--------|--------|--------|--------|--------|--------|--------|--------|--------|
C#|--------|--------|--------|--------|--------|--------|--------|--------|--------|
G#|--------|--------|--------|--------|--------|--------|--------|--------|--------|
D#|--------|--------|--------|--------|--------|--------|--------|--------|--------|


D#|--------|--------|--------|--------|--------|--------|--------|--------|--------|
A#|--------|--------|--------|--------|--------|--------|--------|--------|--------|
F#|--------|--------|--------|--------|--------|--------|--------|--------|--------|
C#|--------|--------|--------|--------|--------|--------|--------|--------|--------|
G#|--------|--------|--------|--------|--------|--------|--------|--------|--------|
D#|--------|--------|--------|--------|--------|--------|--------|--------|--------|


D#|--------|--------|--------|--------|--------|--------|--------|--------|--------|
A#|--------|--------|--------|--------|--------|--------|--------|--------|--------|
F#|--------|--------|--------|--------|--------|--------|--------|--------|--------|
C#|--------|--------|--------|--------|--------|--------|--------|--------|--------|
G#|--------|--------|--------|--------|--------|--------|--------|--------|--------|
D#|--------|--------|--------|--------|--------|--------|--------|--------|--------|


D#|--------|--------|--------|--------|--------|--------|--------|--------|--------|
A#|--------|--------|--------|--------|--------|--------|--------|--------|--------|
F#|--------|--------|--------|--------|--------|--------|--------|--------|--------|
C#|--------|--------|--------|--------|--------|--------|--------|--------|--------|
G#|--------|--------|--------|--------|--------|--------|--------|--------|--------|
D#|--------|--------|--------|--------|--------|--------|--------|--------|--------|


D#|--------|--------|--------|--------|--------|--------|--------|--------|--------|
A#|--------|--------|--------|--------|--------|--------|--------|--------|--------|
F#|--------|--------|--------|--------|--------|--------|--------|--------|--------|
C#|--------|--------|--------|--------|--------|--------|--------|--------|--------|
G#|--------|--------|--------|--------|--------|--------|--------|--------|--------|
D#|--------|--------|--------|--------|--------|--------|--------|--------|--------|


D#|--------|--------|--------|--------|--------|--------|--------|--------|--------|
A#|--------|--------|--------|--------|--------|--------|--------|--------|--------|
F#|--------|--------|--------|--------|--------|--------|--------|--------|--------|
C#|--------|--------|--------|--------|--------|--------|--------|--------|--------|
G#|--------|--------|--------|--------|--------|--------|--------|--------|--------|
D#|--------|--------|--------|--------|--------|--------|--------|--------|--------|


D#|--------|--------|--------|--------|--------|--------|--------|----------------------------------|
A#|--------|--------|--------|--------|--------|--------|--------|-12--10--13--12--12---10-8--7-----|
F#|--------|--------|--------|--------|--------|--------|--------|-------------------------------9--|
C#|--------|--------|--------|--------|--------|--------|--------|----------------------------------|
G#|--------|--------|--------|--------|--------|--------|--------|----------------------------------|
D#|--------|--------|--------|--------|--------|--------|--------|----------------------------------|


D#|---------------------------|-------------------------------------------------|-------------------------------|
A#|-----------------------0---|-------------------------------------------------|-------------------------------|
F#|-8-------9---8---8-----0---|----------8--9--8-----8--------------------------|-------------------------------|
C#|-----10----------------0---|-7--9--10----------10----10-9--7--10-9--7--------|-------------------------------|
G#|---------------------------|-------------------------------------------10-9--|-10-9--7--10-9--7-----7--------|
D#|---------------------------|-------------------------------------------------|-------------------11----11----|


D#|-----------------------------|----------------------------------------|-------------------------------------------------|
A#|-----12---12--7----8----10---|-4----5----7----------------------------|-------5--------5--7--4--5--7--8--5--7--4--5-----|
F#|-----------------------------|----------------4--5--4-----4--5--8--4--|-5--8-----5--8--------------------------------5--|
C#|-----------------------------|-------------------------7--------------|-------------------------------------------------|
G#|-----------------------------|----------------------------------------|-------------------------------------------------|
D#|-----------------------------|----------------------------------------|-------------------------------------------------|


D#|----------------------------------------5--6--7---7---|------------------------|
A#|-------------------7--8--5--7--8--7--8----------------|-7---7----10--10----13--|
F#|-8--4--5-----4----------------------------------------|-9---9----12--12----15--|
C#|----------7-----4-------------------------------------|------------------------|
G#|------------------------------------------------------|------------------------|
D#|------------------------------------------------------|------------------------|


D#|-----------------|-----12-14-14---14-12-------------------|------------------------------------------|
A#|-13--------------|-----12---------------14-13-16-14-13-14-|-13-12----13-12----------12---------------|
F#|-15---15---15----|----------------------------------------|-------14-------14-11-------14-11----11---|
C#|-----------------|----------------------------------------|----------------------14----------14------|
G#|-----------------|----------------------------------------|------------------------------------------|
D#|-----------------|----------------------------------------|------------------------------------------|


D#|-----------17--19--20--21--19--22-----171920-|-21-201917----17-19-201917------------------|
A#|------19---------------------------19--------|-----------19--------------19-19--19----0---|
F#|---------------------------------------------|----------------------------------------0---|
C#|---------------------------------------------|----------------------------------------0---|
G#|-16------------------------------------------|--------------------------------------------|
D#|---------------------------------------------|--------------------------------------------|


D#|----------------------------------------------14----|-------------------9-----------------------------|
A#|-------------------------------------10----------13-|-12-11-10-11-12-13----12-13-12-10----------------|
F#|----------------9--11-9-----11-9--------11-9--------|----------------------------------12-11-9--11-12-|
C#|-------9--10-11----------11-------11----------------|-------------------------------------------------|
G#|-9--12----------------------------------------------|-------------------------------------------------|
D#|----------------------------------------------------|-------------------------------------------------|


D#|--------|-------------|--------|--------|--------|--------|-------------|-----------------|
A#|--------|-------------|--------|--------|--------|--------|-------------|-----------------|
F#|-4------|-4------4----|-2------|-2------|-6------|-6------|-------------|------9-----7----|
C#|-4------|-4------4----|-2------|-2------|-6------|-6------|-4------4----|-4----9-----7----|
G#|-2------|-2------2----|-0------|-0------|-4------|-4------|-4------4----|-4----7-----5----|
D#|--------|-------------|--------|--------|--------|--------|-2------2----|-2---------------|


D#|--------|-----------------|--------|-----------------|--------|-------------|--------|
A#|--------|-----------------|--------|-----------------|--------|-------------|--------|
F#|-7------|-7-----7----6----|-4------|-4-----4---------|--------|-------------|--------|
C#|-7------|-7-----7----6----|-4------|-4-----4---------|--------|-------------|-5------|
G#|-5------|-5-----5----4----|-2------|-2-----2---------|--------|-------------|-5------|
D#|--------|-----------------|--------|------------5----|-4------|-4-----4-----|-3------|


D#|-------------|---------------------------------|-------------|-------------|-------------|
A#|-------------|---------------------------------|-------------|-------------|-------------|
F#|-------------|-19--19-19-19-19-19-19-19---11---|-11----19----|-18-----11---|-11----18----|
C#|-5-----5-----|---------------------------------|-------------|-------------|-------------|
G#|-5-----5-----|-17--17-17-17-17-17-17-17---9----|-9-----17----|-16-----9----|-9-----16----|
D#|-3-----3-----|---------------------------------|-------------|-------------|-------------|


D#|-------------|-------------|-------------|--------|---------------------------------|
A#|-------------|-------------|-------------|--------|---------------------------------|
F#|-17-----14---|-13----11----|-13-----14---|-13-----|-19--19-19-19-19-19-19-19---11---|
C#|-------------|-------------|-------------|--------|---------------------------------|
G#|-15-----12---|-11----9-----|-11-----12---|-11-----|-17--17-17-17-17-17-17-17---9----|
D#|-------------|-------------|-------------|--------|---------------------------------|


D#|-------------|-------------|-------------|-------------|-------------|-------------|
A#|-------------|-------------|-------------|-------------|-------------|-------------|
F#|-11----19----|-18-----11---|-11----18----|-17-----14---|-13----11----|-13-----14---|
C#|-------------|-------------|-------------|-------------|-------------|-------------|
G#|-9-----17----|-16-----9----|-9-----16----|-15-----12---|-11----9-----|-11-----12---|
D#|-------------|-------------|-------------|-------------|-------------|-------------|


D#|--------|---------------------------------|---------------------------------|---------------------------------|
A#|--------|---------------------------------|---------------------------------|---------------------------------|
F#|-13-----|---------------------------------|---------------------------------|---------------------------------|
C#|--------|---------------------------------|---------------------------------|---------------------------------|
G#|-11-----|-----------------------------3---|-----2---0---1---2---------------|-----------------------------3---|
D#|--------|-2---0---2---5---0---1---2-------|-2-------------------2---3---0---|-2---0---2---5---0---1---2-------|


D#|---------------------------------|---------------------------------|---------------------------------|
A#|---------------------------------|---------------------------------|---------------------------------|
F#|---------------------------------|---------------------------------|---------------------------------|
C#|---------------------------------|---------------------------------|---------------------------------|
G#|-----2---0---1---2---------------|-----------------------------3---|-----2---0---1---2---------------|
D#|-2-------------------2---3---0---|-2---0---2---5---0---1---2-------|-2-------------------2---3---0---|


D#|---------------------------------|---------------------------------|---------------------------------|
A#|---------------------------------|---------------------------------|---------------------------------|
F#|---------------------------------|---------------------------------|---------------------------------|
C#|---------------------------------|---------------------------------|-----------------------------4---|
G#|-----------------------------3---|-----2---0---1---2---------------|-------------4-------------------|
D#|-2---0---2---5---0---1---2-------|-2-------------------2---3---0---|-2---0---2-------0---1---2-------|


D#|---------------------------------|---------------------------------|---------------------------------|
A#|---------------------------------|---------------------------------|---------------------------------|
F#|---------------------------------|---------------------------------|---------------------------------|
C#|-----2---------------------------|-----------------------------4---|-----2---------------------------|
G#|---------0---1---2---------------|-------------4-------------------|---------0---1---2---------------|
D#|-2-------------------0---3---0---|-2---0---2-------0---1---2-------|-2-------------------0---3---0---|


D#|---------------------------------|---------------------------------|---------------------------------|
A#|---------------------------------|---------------------------------|---------------------------------|
F#|---------------------------------|---------------------------------|---------------------------------|
C#|-----------------------------4---|-----2---------------------------|-----------------------------4---|
G#|-------------4-------------------|---------0---1---2---------------|-------------4-------------------|
D#|-2---0---2-------0---1---2-------|-2-------------------0---3---0---|-2---0---2-------0---1---2-------|


D#|---------------------------------|--------|--------|--------|--------|--------|
A#|---------------------------------|--------|--------|--------|--------|--------|
F#|---------------------------------|--------|--------|--------|--------|--------|
C#|-----2---------------------------|-4------|-4------|-4------|-4------|-4------|
G#|---------0---1---2---------------|-4------|-4------|-4------|-4------|-4------|
D#|-2-------------------0---3---0---|-2------|-2------|-2------|-2------|-2------|





Track 4: Untitled

G|--------|--------|--------|--------|--------|--------|--------|--------|--------|
D|--------|--------|--------|--------|--------|--------|--------|--------|--------|
A|--------|--------|--------|--------|--------|--------|--------|--------|--------|
E|--------|--------|--------|--------|--------|--------|--------|--------|--------|


G|--------|--------|--------|--------|--------|--------|--------|--------|--------|
D|--------|--------|--------|--------|--------|--------|--------|--------|--------|
A|--------|--------|--------|--------|--------|--------|--------|--------|--------|
E|--------|--------|--------|--------|--------|--------|--------|--------|--------|


G|--------|--------|--------|--------|--------|--------|--------|--------|--------|
D|--------|--------|--------|--------|--------|--------|--------|--------|--------|
A|--------|--------|--------|--------|--------|--------|--------|--------|--------|
E|--------|--------|--------|--------|--------|--------|--------|--------|--------|


G|--------|--------|--------|--------|--------|--------|--------|--------|--------|
D|--------|--------|--------|--------|--------|--------|--------|--------|--------|
A|--------|--------|--------|--------|--------|--------|--------|--------|--------|
E|--------|--------|--------|--------|--------|--------|--------|--------|--------|


G|--------|--------|--------|--------|--------|--------|--------|--------|--------|
D|--------|--------|--------|--------|--------|--------|--------|--------|--------|
A|--------|--------|--------|--------|--------|--------|--------|--------|--------|
E|--------|--------|--------|--------|--------|--------|--------|--------|--------|


G|--------|--------|--------|--------|--------|--------|--------|--------|--------|
D|--------|--------|--------|--------|--------|--------|--------|--------|--------|
A|--------|--------|--------|--------|--------|--------|--------|--------|--------|
E|--------|--------|--------|--------|--------|--------|--------|--------|--------|


G|--------|--------|--------|--------|--------|--------|--------|--------|--------|
D|--------|--------|--------|--------|--------|--------|--------|--------|--------|
A|--------|--------|--------|--------|--------|--------|--------|--------|--------|
E|--------|--------|--------|--------|--------|--------|--------|--------|--------|


G|--------|--------|--------|--------|--------|--------|--------|--------|--------|
D|--------|--------|--------|--------|--------|--------|--------|--------|--------|
A|--------|--------|--------|--------|--------|--------|--------|--------|--------|
E|--------|--------|--------|--------|--------|--------|--------|--------|--------|


G|--------|--------|--------|--------|--------|--------|--------|--------|--------|
D|--------|--------|--------|--------|--------|--------|--------|--------|--------|
A|--------|--------|--------|--------|--------|--------|--------|--------|--------|
E|--------|--------|--------|--------|--------|--------|--------|--------|--------|


G|--------|--------|--------|--------|--------|--------|--------|--------|--------|
D|--------|--------|--------|--------|--------|--------|--------|--------|--------|
A|--------|--------|--------|--------|--------|--------|--------|--------|--------|
E|--------|--------|--------|--------|--------|--------|--------|--------|--------|


G|--------|--------|--------|--------|--------|--------|--------|--------|--------|
D|--------|--------|--------|--------|--------|--------|--------|--------|--------|
A|--------|--------|--------|--------|--------|--------|--------|--------|--------|
E|--------|--------|--------|--------|--------|--------|--------|--------|--------|


G|--------|--------|--------|--------|--------|--------|--------|--------|--------|
D|--------|--------|--------|--------|--------|--------|--------|--------|--------|
A|--------|--------|--------|--------|--------|--------|--------|--------|--------|
E|--------|--------|--------|--------|--------|--------|--------|--------|--------|


G|--------|--------|--------|--------|--------|--------|--------|--------|--------|
D|--------|--------|--------|--------|--------|--------|--------|--------|--------|
A|--------|--------|--------|--------|--------|--------|--------|--------|--------|
E|--------|--------|--------|--------|--------|--------|--------|--------|--------|


G|--------|--------|--------|--------|--------|--------|--------|--------|--------|
D|--------|--------|--------|--------|--------|--------|--------|--------|--------|
A|--------|--------|--------|--------|--------|--------|--------|--------|--------|
E|--------|--------|--------|--------|--------|--------|--------|--------|--------|


G|--------|--------|--------|--------|--------|--------|--------|--------|--------|
D|--------|--------|--------|--------|--------|--------|--------|--------|--------|
A|--------|--------|--------|--------|--------|--------|--------|--------|--------|
E|--------|--------|--------|--------|--------|--------|--------|--------|--------|


G|--------|--------|--------|--------|--------|--------|--------|--------|--------|
D|--------|--------|--------|--------|--------|--------|--------|--------|--------|
A|--------|--------|--------|--------|--------|--------|--------|--------|--------|
E|--------|--------|--------|--------|--------|--------|--------|--------|--------|


G|--------|--------|--------|--------|--------|--------|--------|--------|--------|
D|--------|--------|--------|--------|--------|--------|--------|--------|--------|
A|--------|--------|--------|--------|--------|--------|--------|--------|--------|
E|--------|--------|--------|--------|--------|--------|--------|--------|--------|


G|--------|--------|--------|--------|--------|--------|--------|--------|--------|
D|--------|--------|--------|--------|--------|--------|--------|--------|--------|
A|--------|--------|--------|--------|--------|--------|--------|--------|--------|
E|--------|--------|--------|--------|--------|--------|--------|--------|--------|


G|--------|--------|--------|--------|--------|--------|--------|--------|--------|
D|--------|--------|--------|--------|--------|--------|--------|--------|--------|
A|--------|--------|--------|--------|--------|--------|--------|--------|--------|
E|--------|--------|--------|--------|--------|--------|--------|--------|--------|


G|--------|--------|--------|--------|--------|--------|--------|--------|--------|
D|--------|--------|--------|--------|--------|--------|--------|--------|--------|
A|--------|--------|--------|--------|--------|--------|--------|--------|--------|
E|--------|--------|--------|--------|--------|--------|--------|--------|--------|


G|--------|--------|--------|--------|--------|--------|--------|--------|--------|
D|--------|--------|--------|--------|--------|--------|--------|--------|--------|
A|--------|--------|--------|--------|--------|--------|--------|--------|--------|
E|--------|--------|--------|--------|--------|--------|--------|--------|--------|


G|--------|--------|--------|--------|--------|--------|--------|--------|--------|
D|--------|--------|--------|--------|--------|--------|--------|--------|--------|
A|--------|--------|--------|--------|--------|--------|--------|--------|--------|
E|--------|--------|--------|--------|--------|--------|--------|--------|--------|


G|--------|--------|--------|--------|--------|--------|--------|--------|--------|
D|--------|--------|--------|--------|--------|--------|--------|--------|--------|
A|--------|--------|--------|--------|--------|--------|--------|--------|--------|
E|--------|--------|--------|--------|--------|--------|--------|--------|--------|


G|--------|--------|--------|--------|--------|--------|--------|--------|--------|
D|--------|--------|--------|--------|--------|--------|--------|--------|--------|
A|--------|--------|--------|--------|--------|--------|--------|--------|--------|
E|--------|--------|--------|--------|--------|--------|--------|--------|--------|


G|--------|--------|--------|--------|--------|--------|--------|--------|--------|
D|--------|--------|--------|--------|--------|--------|--------|--------|--------|
A|--------|--------|--------|--------|--------|--------|--------|--------|--------|
E|--------|--------|--------|--------|--------|--------|--------|--------|--------|


G|--------|--------|--------|--------|--------|--------|--------|--------|--------|
D|--------|--------|--------|--------|--------|--------|--------|--------|--------|
A|--------|--------|--------|--------|--------|--------|--------|--------|--------|
E|--------|--------|--------|--------|--------|--------|--------|--------|--------|


G|--------|--------|--------|--------|--------|--------|--------|--------|--------|
D|--------|--------|--------|--------|--------|--------|--------|--------|--------|
A|--------|--------|--------|--------|--------|--------|--------|--------|--------|
E|--------|--------|--------|--------|--------|--------|--------|--------|--------|


G|--------|--------|--------|--------|--------|--------|--------|--------|--------|
D|--------|--------|--------|--------|--------|--------|--------|--------|--------|
A|--------|--------|--------|--------|--------|--------|--------|--------|--------|
E|--------|--------|--------|--------|--------|--------|--------|--------|--------|


G|--------|--------|--------|--------|--------|--------|--------|--------|--------|
D|--------|--------|--------|--------|--------|--------|--------|--------|--------|
A|--------|--------|--------|--------|--------|--------|--------|--------|--------|
E|--------|--------|--------|--------|--------|--------|--------|--------|--------|


G|--------|--------|--------|--------|--------|--------|--------|
D|--------|--------|--------|--------|--------|--------|--------|
A|--------|--------|--------|--------|--------|--------|--------|
E|--------|--------|--------|--------|--------|--------|--------|