Menu:

 

Search:

 

dream theater - the killing hand:

 



Title: The Killing Hand
Artist: 
Album: When Dream And Day Unite
Author: Dream Theater


Track 1: Untitled

E|--------|--------|--------|--------|--------|--------|--------|--------|--------|
B|--------|--------|--------|--------|--------|--------|--------|--------|--------|
G|--------|--------|--------|--------|--------|--------|--------|--------|--------|
D|--------|--------|--------|--------|--------|--------|--------|--------|--------|
A|--------|--------|--------|--------|--------|--------|--------|--------|--------|
E|--------|--------|--------|--------|--------|--------|--------|--------|--------|


E|--------|--------|--------|--------|--------|--------|--------|--------|--------|
B|--------|--------|--------|--------|--------|--------|--------|--------|--------|
G|--------|--------|--------|--------|--------|--------|--------|--------|--------|
D|--------|--------|--------|--------|--------|--------|--------|--------|--------|
A|--------|--------|--------|--------|--------|--------|--------|--------|--------|
E|--------|--------|--------|--------|--------|--------|--------|--------|--------|


E|--------|--------|--------|--------|--------|--------|--------|--------|--------|
B|--------|--------|--------|--------|--------|--------|--------|--------|--------|
G|--------|--------|--------|--------|--------|--------|--------|--------|--------|
D|--------|--------|--------|--------|--------|--------|--------|--------|--------|
A|--------|--------|--------|--------|--------|--------|--------|--------|--------|
E|--------|--------|--------|--------|--------|--------|--------|--------|--------|


E|--------|--------|--------|--------|--------|--------|--------|--------|--------|
B|--------|--------|--------|--------|--------|--------|--------|--------|--------|
G|--------|--------|--------|--------|--------|--------|--------|--------|--------|
D|--------|--------|--------|--------|--------|--------|--------|--------|--------|
A|--------|--------|--------|--------|--------|--------|--------|--------|--------|
E|--------|--------|--------|--------|--------|--------|--------|--------|--------|


E|--------|--------|--------|--------|--------|--------|--------|--------|--------|
B|--------|--------|--------|--------|--------|--------|--------|--------|--------|
G|--------|--------|--------|--------|--------|--------|--------|--------|--------|
D|--------|--------|--------|--------|--------|--------|--------|--------|--------|
A|--------|--------|--------|--------|--------|--------|--------|--------|--------|
E|--------|--------|--------|--------|--------|--------|--------|--------|--------|


E|--------|--------|--------|--------|--------|--------|--------|--------|--------|
B|--------|--------|--------|--------|--------|--------|--------|--------|--------|
G|--------|--------|--------|--------|--------|--------|--------|--------|--------|
D|--------|--------|--------|--------|--------|--------|--------|--------|--------|
A|--------|--------|--------|--------|--------|--------|--------|--------|--------|
E|--------|--------|--------|--------|--------|--------|--------|--------|--------|


E|--------|--------|--------|--------|--------|--------|--------|--------|--------|
B|--------|--------|--------|--------|--------|--------|--------|--------|--------|
G|--------|--------|--------|--------|--------|--------|--------|--------|--------|
D|--------|--------|--------|--------|--------|--------|--------|--------|--------|
A|--------|--------|--------|--------|--------|--------|--------|--------|--------|
E|--------|--------|--------|--------|--------|--------|--------|--------|--------|


E|--------|--------|--------|--------|--------|--------|--------|--------|--------|
B|--------|--------|--------|--------|--------|--------|--------|--------|--------|
G|--------|--------|--------|--------|--------|--------|--------|--------|--------|
D|--------|--------|--------|--------|--------|--------|--------|--------|--------|
A|--------|--------|--------|--------|--------|--------|--------|--------|--------|
E|--------|--------|--------|--------|--------|--------|--------|--------|--------|


E|--------|--------|--------|--------|--------|--------|--------|--------|--------|
B|--------|--------|--------|--------|--------|--------|--------|--------|--------|
G|--------|--------|--------|--------|--------|--------|--------|--------|--------|
D|--------|--------|--------|--------|--------|--------|--------|--------|--------|
A|--------|--------|--------|--------|--------|--------|--------|--------|--------|
E|--------|--------|--------|--------|--------|--------|--------|--------|--------|


E|--------|--------|--------|--------|--------|--------|--------|--------|--------|
B|--------|--------|--------|--------|--------|--------|--------|--------|--------|
G|--------|--------|--------|--------|--------|--------|--------|--------|--------|
D|--------|--------|--------|--------|--------|--------|--------|--------|--------|
A|--------|--------|--------|--------|--------|--------|--------|--------|--------|
E|--------|--------|--------|--------|--------|--------|--------|--------|--------|


E|--------|--------|--------|--------|--------|--------|--------|--------|--------|
B|--------|--------|--------|--------|--------|--------|--------|--------|--------|
G|--------|--------|--------|--------|--------|--------|--------|--------|--------|
D|--------|--------|--------|--------|--------|--------|--------|--------|--------|
A|--------|--------|--------|--------|--------|--------|--------|--------|--------|
E|--------|--------|--------|--------|--------|--------|--------|--------|--------|


E|--------|--------|--------|--------|--------|--------|--------|--------|--------|
B|--------|--------|--------|--------|--------|--------|--------|--------|--------|
G|--------|--------|--------|--------|--------|--------|--------|--------|--------|
D|--------|--------|--------|--------|--------|--------|--------|--------|--------|
A|--------|--------|--------|--------|--------|--------|--------|--------|--------|
E|--------|--------|--------|--------|--------|--------|--------|--------|--------|


E|--------|--------|--------|--------|--------|--------|--------|--------|--------|
B|--------|--------|--------|--------|--------|--------|--------|--------|--------|
G|--------|--------|--------|--------|--------|--------|--------|--------|--------|
D|--------|--------|--------|--------|--------|--------|--------|--------|--------|
A|--------|--------|--------|--------|--------|--------|--------|--------|--------|
E|--------|--------|--------|--------|--------|--------|--------|--------|--------|


E|--------|--------|--------|--------|--------|--------|--------|--------|--------|
B|--------|--------|--------|--------|--------|--------|--------|--------|--------|
G|--------|--------|--------|--------|--------|--------|--------|--------|--------|
D|--------|--------|--------|--------|--------|--------|--------|--------|--------|
A|--------|--------|--------|--------|--------|--------|--------|--------|--------|
E|--------|--------|--------|--------|--------|--------|--------|--------|--------|


E|--------|--------|--------|--------|--------|--------|--------|--------|--------|
B|--------|--------|--------|--------|--------|--------|--------|--------|--------|
G|--------|--------|--------|--------|--------|--------|--------|--------|--------|
D|--------|--------|--------|--------|--------|--------|--------|--------|--------|
A|--------|--------|--------|--------|--------|--------|--------|--------|--------|
E|--------|--------|--------|--------|--------|--------|--------|--------|--------|


E|--------|--------|--------|--------|--------|--------|--------|--------|--------|
B|--------|--------|--------|--------|--------|--------|--------|--------|--------|
G|--------|--------|--------|--------|--------|--------|--------|--------|--------|
D|--------|--------|--------|--------|--------|--------|--------|--------|--------|
A|--------|--------|--------|--------|--------|--------|--------|--------|--------|
E|--------|--------|--------|--------|--------|--------|--------|--------|--------|


E|--------|--------|--------|--------|--------|--------|--------|--------|--------|
B|--------|--------|--------|--------|--------|--------|--------|--------|--------|
G|--------|--------|--------|--------|--------|--------|--------|--------|--------|
D|--------|--------|--------|--------|--------|--------|--------|--------|--------|
A|--------|--------|--------|--------|--------|--------|--------|--------|--------|
E|--------|--------|--------|--------|--------|--------|--------|--------|--------|


E|--------|--------|--------|--------|--------|--------|--------|--------|--------|
B|--------|--------|--------|--------|--------|--------|--------|--------|--------|
G|--------|--------|--------|--------|--------|--------|--------|--------|--------|
D|--------|--------|--------|--------|--------|--------|--------|--------|--------|
A|--------|--------|--------|--------|--------|--------|--------|--------|--------|
E|--------|--------|--------|--------|--------|--------|--------|--------|--------|


E|--------|--------|--------|--------|--------|--------|--------|--------|--------|
B|--------|--------|--------|--------|--------|--------|--------|--------|--------|
G|--------|--------|--------|--------|--------|--------|--------|--------|--------|
D|--------|--------|--------|--------|--------|--------|--------|--------|--------|
A|--------|--------|--------|--------|--------|--------|--------|--------|--------|
E|--------|--------|--------|--------|--------|--------|--------|--------|--------|


E|--------|--------|--------|--------|--------|--------|--------|--------|--------|
B|--------|--------|--------|--------|--------|--------|--------|--------|--------|
G|--------|--------|--------|--------|--------|--------|--------|--------|--------|
D|--------|--------|--------|--------|--------|--------|--------|--------|--------|
A|--------|--------|--------|--------|--------|--------|--------|--------|--------|
E|--------|--------|--------|--------|--------|--------|--------|--------|--------|


E|--------|--------|--------|--------|--------|--------|--------|--------|--------|
B|--------|--------|--------|--------|--------|--------|--------|--------|--------|
G|--------|--------|--------|--------|--------|--------|--------|--------|--------|
D|--------|--------|--------|--------|--------|--------|--------|--------|--------|
A|--------|--------|--------|--------|--------|--------|--------|--------|--------|
E|--------|--------|--------|--------|--------|--------|--------|--------|--------|


E|--------|--------|--------|--------|--------|--------|--------|--------|--------|
B|--------|--------|--------|--------|--------|--------|--------|--------|--------|
G|--------|--------|--------|--------|--------|--------|--------|--------|--------|
D|--------|--------|--------|--------|--------|--------|--------|--------|--------|
A|--------|--------|--------|--------|--------|--------|--------|--------|--------|
E|--------|--------|--------|--------|--------|--------|--------|--------|--------|


E|--------|--------|--------|--------|--------|--------|--------|--------|--------|
B|--------|--------|--------|--------|--------|--------|--------|--------|--------|
G|--------|--------|--------|--------|--------|--------|--------|--------|--------|
D|--------|--------|--------|--------|--------|--------|--------|--------|--------|
A|--------|--------|--------|--------|--------|--------|--------|--------|--------|
E|--------|--------|--------|--------|--------|--------|--------|--------|--------|


E|--------|--------|--------|--------|--------|--------|--------|--------|--------|
B|--------|--------|--------|--------|--------|--------|--------|--------|--------|
G|--------|--------|--------|--------|--------|--------|--------|--------|--------|
D|--------|--------|--------|--------|--------|--------|--------|--------|--------|
A|--------|--------|--------|--------|--------|--------|--------|--------|--------|
E|--------|--------|--------|--------|--------|--------|--------|--------|--------|


E|--------|--------|--------|--------|--------|--------|--------|--------|--------|
B|--------|--------|--------|--------|--------|--------|--------|--------|--------|
G|--------|--------|--------|--------|--------|--------|--------|--------|--------|
D|--------|--------|--------|--------|--------|--------|--------|--------|--------|
A|--------|--------|--------|--------|--------|--------|--------|--------|--------|
E|--------|--------|--------|--------|--------|--------|--------|--------|--------|


E|--------|--------|--------|--------|--------|--------|--------|--------|--------|
B|--------|--------|--------|--------|--------|--------|--------|--------|--------|
G|--------|--------|--------|--------|--------|--------|--------|--------|--------|
D|--------|--------|--------|--------|--------|--------|--------|--------|--------|
A|--------|--------|--------|--------|--------|--------|--------|--------|--------|
E|--------|--------|--------|--------|--------|--------|--------|--------|--------|


E|--------|--------|--------|--------|--------|--------|--------|--------|--------|
B|--------|--------|--------|--------|--------|--------|--------|--------|--------|
G|--------|--------|--------|--------|--------|--------|--------|--------|--------|
D|--------|--------|--------|--------|--------|--------|--------|--------|--------|
A|--------|--------|--------|--------|--------|--------|--------|--------|--------|
E|--------|--------|--------|--------|--------|--------|--------|--------|--------|


E|--------|--------|--------|--------|--------|--------|--------|--------|--------|
B|--------|--------|--------|--------|--------|--------|--------|--------|--------|
G|--------|--------|--------|--------|--------|--------|--------|--------|--------|
D|--------|--------|--------|--------|--------|--------|--------|--------|--------|
A|--------|--------|--------|--------|--------|--------|--------|--------|--------|
E|--------|--------|--------|--------|--------|--------|--------|--------|--------|


E|--------|--------|--------|--------|--------|--------|--------|--------|--------|
B|--------|--------|--------|--------|--------|--------|--------|--------|--------|
G|--------|--------|--------|--------|--------|--------|--------|--------|--------|
D|--------|--------|--------|--------|--------|--------|--------|--------|--------|
A|--------|--------|--------|--------|--------|--------|--------|--------|--------|
E|--------|--------|--------|--------|--------|--------|--------|--------|--------|


E|--------|--------|--------|--------|--------|
B|--------|--------|--------|--------|--------|
G|--------|--------|--------|--------|--------|
D|--------|--------|--------|--------|--------|
A|--------|--------|--------|--------|--------|
E|--------|--------|--------|--------|--------|





Track 2: Bass

G|--------|--------|--------|--------|--------|--------|--------|--------|--------|
D|--------|--------|--------|--------|--------|--------|--------|--------|--------|
A|--------|--------|--------|--------|--------|--------|--------|--------|--------|
E|--------|--------|--------|--------|--------|--------|--------|--------|--------|


G|--------|--------|--------|--------|--------|--------|--------|-------5---------|
D|--------|--------|--------|--------|--------|--------|--------|-------------5---|
A|--------|--------|--------|--------|--------|--------|--------|-----------------|
E|--------|--------|--------|--------|--------|--------|--------|-3---------------|


G|--------|-------5---------|-------------------------|--------------------|-------------------------|
D|-5------|-------------5---|-5-----5----5------------|--------------------|-------------------------|
A|--------|-----------------|-------------------------|--------------------|-------------------------|
E|--------|-3---------------|----------------3--3--3--|-3---3--------------|----------------3--3--3--|


G|--------------------|-------------------------|-----------------------------------|
D|--------------------|-------------------------|-----------------------------------|
A|--------------------|-------------------------|-----------------------------------|
E|-3---3--------------|----------------3--3--3--|-3---3-------3--3--3--3---3--------|


G|-------------------------|-----------------------------------|-------------------------|
D|-------------------------|-----------------------------------|-------------------------|
A|-------------------------|-----------------------------------|-------------------------|
E|----------------3--3--3--|-3---3-------3--3--3--3---3--------|----------------3--3--3--|


G|--------------12----|-12--12--------------|--------------12-------12-14-|-15--14---12------------|
D|--------------------|---------------------|--------------------12-------|---------------15--15---|
A|--------------------|---------------------|-----------------------------|------------------------|
E|-3---3--------------|------------3--3--3--|-3---3-----------------------|------------------------|


G|---------------------------------|---------------------------------|---------------------------------|
D|---------------------------------|---------------------------------|---------------------------------|
A|---------------------------------|---------------------------------|---------------------------------|
E|-3---3---3---3---3---3---3---3---|-3---3---3---3---3---3---3---3---|-3---3---3---3---3---3---3---3---|


G|---------------------------------|---------------------------------|---------------------------|
D|---------------------------------|---------------------------------|--------------5----3---5---|
A|---------------------------------|---------------------------------|---------------------------|
E|-3---3---3---3---3---3---3---3---|-3---3---3---3---3---3---3---3---|-3----3---3----------------|


G|---------------------------|-10-----------------|------------------------------|
D|-----------------------8---|-----10--10---10----|---------12----------10-------|
A|---------------------------|--------------------|-----10----------8------------|
E|-3----3---3---3----3-------|--------------------|-8-----------6-----------3----|


G|----------5---5----5----|-------------|------------------------|-------------|----------5---5----5----|
D|------------------------|-------------|----------5---5----5----|-------------|------------------------|
A|------------------------|-------------|------------------------|-------------|------------------------|
E|------3-----------------|--------3----|------3-----------------|--------3----|------3-----------------|


G|------5----5---------|-----------------|---------------------|-----------------|
D|---------------------|-----------------|---------------------|-----------------|
A|---------------------|-----------------|----------5----------|-----------------|
E|---------------5-----|-----------5-----|-----5---------3-----|-----------3-----|


G|---------------------|-----------------|---------------------|-----------------|
D|---------------------|-----------------|---------------------|-----------------|
A|----------13---12----|-----------12----|-----12--------10----|-----------10----|
E|-----3---------------|-----------------|----------10---------|-----------------|


G|---------------------|---------------------|-----------------|---------15--14--12--12----|
D|---------------10----|-----10---10---7-----|-----------------|---------------------------|
A|-----10---13---------|---------------------|-----8-----10----|-----10--------------------|
E|---------------------|---------------------|-----------------|---------------------------|


G|-----12--------------|-----------------|---------------------|---------12--14--15--15----|
D|---------------------|-----------------|---------------------|---------------------------|
A|----------13---12----|-----------12----|-----12--------10----|-----10--------------------|
E|---------------------|-----------------|----------10---------|---------------------------|


G|-----15--------12----|-----------------|-----------------------------------|-----5-----5-----|
D|----------15---------|-----------12----|-----10---10-----------------------|-----------------|
A|---------------------|-----------------|-----------------------------------|-----------------|
E|---------------------|-----------------|--------------3--3--3--3---3-------|-----------------|


G|-----5----5------------------------|-----------------|-----------------------------------|
D|-----------------------------------|-----5-----5-----|-----5----5------------------------|
A|-----------------------------------|-----------------|-----------------------------------|
E|--------------3--3--3--3---3-------|-----------------|--------------5--5--5--3---3-------|


G|-----5-----5-----|-----5----5------------------------|-----------------|-----------------------------------|
D|-----------------|-----------------------------------|-----5-----5-----|-----5----5------------------------|
A|-----------------|-----------------------------------|-----------------|-----------------------------------|
E|-----------------|--------------3--3--3--3---3-------|-----------------|--------------5--5--5--3---3-------|


G|-----------------|-----------------------------------|-----------------|-----------------------------------|
D|-----5-----5-----|-----5----5------------------------|-----7-----7-----|-----7----7------------------------|
A|-----------------|-----------------------------------|-----------------|-----------------------------------|
E|-----------------|--------------3--3--3--3---3-------|-----------------|--------------3--3--3--3---3-------|


G|-----------------|-----------------------------------|-----------------|---------------------------|
D|-----8-----8-----|-----8----8------------------------|-----13----13----|-----------------------12--|
A|-----------------|-----------------------------------|-----------------|-----11---8--------10------|
E|-----------------|--------------3--3--3--3---3-------|-----------------|---------------8-----------|


G|---------------------------------|---------------------------------|---------------------------------|
D|---------10----------------------|---------------------------------|---------------------------------|
A|-----8---------------------------|---------------------------------|---------------------------------|
E|-6-----------3---3---3---3---3---|-3---3---3---3---3---3---3---3---|-3---3---3---3---3---3---3---3---|


G|-------------3---3---3---3---5---|-5---5---5-----------------------|------------------------------|
D|---------------------------------|---------------------------------|-------------5------------5---|
A|---------------------------------|---------------------------------|------------------------------|
E|-3---3---3-----------------------|-------------3---3---3---3---3---|-3---3---3--------3---3-------|


G|---------------------------------|-------------10---------------|---------------------------|
D|-----------------------------5---|-5---------------10--10---10--|---------------8-----------|
A|---------------------------------|------------------------------|-----------6-----------8---|
E|-----3---3---3---3---3---3-------|-----3---5--------------------|-------4-----------6-------|


G|------------|------------|------------|-----5-----------|------------|------------|
D|-10--5------|-----5------|-----5------|-----------7-----|-----5------|-----3------|
A|------------|------------|------------|-----------------|------------|------------|
E|------------|------------|------------|-----------------|------------|------------|


G|------------|-----5-----------|---------------------------------------|---------------------------------------|
D|-----5------|-----------7-----|------------------5--------------------|------------------5--------------------|
A|------------|-----------------|------------------------------------5--|---------------------------------------|
E|------------|-----------------|-----3---3--3--3-------3---3--3--3-----|-----3---3--3--3-------3---3--3--3--3--|


G|--------------------|-------------8--7--5--------------|-----------------------------------------|
D|-----------6----6---|-8--6--5--------------8--7--5-----|--------------------5--------------------|
A|-5---3--------------|-------------------------------8--|-6--5---------------------------------5--|
E|--------------------|----------------------------------|-------3---3--3--3-------3---3--3--3-----|


G|---------------------------------------|-----------10---8---|-----------12-10-8---------|
D|------------------5--------------------|--------------------|-8---7---------------12-10-|
A|---------------------------------------|--------------------|---------------------------|
E|-----3---3--3--3-------3---3--3--3--3--|-5---6--------------|---------------------------|


G|---------------------------------------|---------------------------------------|
D|-8----------------5--------------------|------------------5--------------------|
A|------------------------------------5--|---------------------------------------|
E|-----3---3--3--3-------3---3--3--3-----|-----3---3--3--3-------3---3--3--3--3--|


G|--------------------|-------------8--7--5--------------|-----------------------------------------|
D|-----------6----6---|-8--6--5--------------8--7--5-----|--------------------5--------------------|
A|-5---3--------------|-------------------------------8--|-6--5---------------------------------5--|
E|--------------------|----------------------------------|-------3---3--3--3-------3---3--3--3-----|


G|---------------------------------------|-----------10---8---|-----------12-10-8-------|
D|------------------5--------------------|--------------------|-8---7---------------12--|
A|---------------------------------------|--------------------|-------------------------|
E|-----3---3--3--3-------3---3--3--3--3--|-5---6--------------|-------------------------|


G|------------|------------|---------------------------------------|---------------------------------------|
D|-8----------|------------|------------------5--------------------|------------------5--------------------|
A|-----6------|-----5------|------------------------------------5--|---------------------------------------|
E|------------|------------|-----3---3--3--3-------3---3--3--3-----|-----3---3--3--3-------3---3--3--3--3--|


G|------------|------------|---------------------------------------|-----157-8-10157-8-10147-8-10147-8-10127-8-10127-8-107---|
D|------------|------------|------------------5--------------------|---------------------------------------------------------|
A|-5---6------|-----8------|------------------------------------5--|---------------------------------------------------------|
E|------------|------------|-----3---3--3--3-------3---3--3--3-----|---------------------------------------------------------|


G|---------------------------------------|---------------------------------------|
D|------------------5--------------------|------------------5--------------------|
A|------------------------------------5--|---------------------------------------|
E|-----3---3--3--3-------3---3--3--3-----|-----3---3--3--3-------3---3--3--3--3--|


G|--------------------|-------------8--7--5--------------|-----------------------------------------|
D|-----------6----6---|-8--6--5--------------8--7--5-----|--------------------5--------------------|
A|-5---3--------------|-------------------------------8--|-6--5---------------------------------5--|
E|--------------------|----------------------------------|-------3---3--3--3-------3---3--3--3-----|


G|---------------------------------------|-----------10---8---|-----------12-10------------|
D|------------------5--------------------|--------------------|-8---7-----------12--10--7--|
A|---------------------------------------|--------------------|----------------------------|
E|-----3---3--3--3-------3---3--3--3--3--|-5---6--------------|----------------------------|


G|---------------|------------|---------------------------------------|---------------------------------------|
D|----8----------|------------|------------------5--------------------|------------------5--------------------|
A|--------6------|-----5------|------------------------------------5--|---------------------------------------|
E|---------------|------------|-----3---3--3--3-------3---3--3--3-----|-----3---3--3--3-------3---3--3--3--3--|


G|------------|------------|---------------------------------------|-----------------------------------------|
D|------------|------------|---------------------------------------|-----------------------------------------|
A|-5---6------|-----8------|---------------------------------------|-----------------------------------------|
E|------------|------------|-----8---8--8--8---8--8--8---8--8--8---|-8--8--8---8--8--8---8--8--8---8--8--8---|


G|--------------------------------------|---------------------|----------17-17-------15-15-----------|
D|--------------------------------------|-----------------8---|--------------------------------------|
A|--------------------------------------|-----11----10--------|-----11---------15-15-------15-15-----|
E|-8--8--8--8--8--8--8----8---8--8--8---|---------------------|----------------------------------8---|


G|-----------------------------------------|-------------------------------------------|
D|-----------------------------------------|-------------------------------------------|
A|-----------------------------------------|-------------------------------------------|
E|-8--8--8---8--8--8---8--8--8---8--8--8---|-8--8--8---8--8--8---8--8--8---8--8--8--8--|


G|-------------------------------|---------------------|-----17-17-------15-15---------------------|
D|-------------------------------|------------8--------|-------------------------------------------|
A|---------------------------11--|------10---------11--|-----------15-15-------15-15---------------|
E|-8--8--8----8---8--8--8--------|---------------------|-----------------------------8---8--8--8---|


G|-----------------------------------------|-------------------------------------------|
D|-----------------------------------------|-------------------------------------------|
A|-----------------------------------------|-------------------------------------------|
E|-8--8--8---8--8--8---8--8--8---8--8--8---|-8--8--8---8--8--8---8--8--8--8--8--8--8---|


G|--------------------------|-----------------17-17-|-------15-15-------------------------------|
D|--------------------------|-------8---------------|-------------------------------------------|
A|--------------------11----|-10---------11---------|-15-15-------15-15-------------------------|
E|-----8---8--8--8----------|-----------------------|-------------------8---8--8--8---8--8--8---|


G|-----------------------------------------|--------------------------------------|
D|-----------------------------------------|--------------------------------------|
A|-----------------------------------------|--------------------------------------|
E|-8--8--8---8--8--8---8--8--8---8--8--8---|-8--8--8---8--8--8--8--8--8--8----8---|


G|-----------------------|---------------17-17-------15-15-|-----------------------------------|
D|-----------------------|-----8---------------------------|-------------------------------10--|
A|------------11----10---|----------11---------15-15-------|-15-15-------------10--8-----------|
E|-8--8--8---------------|---------------------------------|-------8---10--11----------11------|


G|---------------------8------------------|---------------|---------------------------------------|
D|-8-----------------------12--10--9---10-|----12---------|---------------------------------------|
A|-----11--8---10--11---------------------|---------------|---------------------------------------|
E|----------------------------------------|---------------|-----8---8--8--8---8--8--8---8--8--8---|


G|-----------------------------------------|--------------------------------------|
D|-----------------------------------------|--------------------------------------|
A|-----------------------------------------|--------------------------------------|
E|-8--8--8---8--8--8---8--8--8---8--8--8---|-8--8--8--8--8--8--8----8---8--8--8---|


G|---------------------|----------17-17-------15-15-----------|-----------------------------------------|
D|-----------------8---|--------------------------------------|-----------------------------------------|
A|-----11----10--------|-----11---------15-15-------15-15-----|-----------------------------------------|
E|---------------------|----------------------------------8---|-8--8--8---8--8--8---8--8--8---8--8--8---|


G|-------------------------------------------|-------------------------------|---------------------|
D|-------------------------------------------|-------------------------------|------------8--------|
A|-------------------------------------------|---------------------------11--|------10---------11--|
E|-8--8--8---8--8--8---8--8--8---8--8--8--8--|-8--8--8----8---8--8--8--------|---------------------|


G|-----17-17-------15-15-------------------|-----------------|------------------------------|
D|-----------------------------10----------|-----------------|------------------------------|
A|-----------15-15-------15-15-------------|-----------11----|-----11---11--11--12----------|
E|-----------------------------------------|-----------------|------------------------------|


G|-----------------|-----------------------|------------------------|------------------------|
D|-----------8-----|-----9-----10----------|------------------------|------------------------|
A|-----------------|-----------------------|-------10---11----------|-------11---12----------|
E|-----------------|-----------------------|------------------------|------------------------|


G|------------------|-----------------------------|-------------------------------------------------|
D|------------8-----|-----9-----------------------|-------------------------------------------------|
A|-------12---------|-----------3--3--3--3--3--3--|-3--3--3--3--3--3--3--3--3--3--------------------|
E|------------------|-----------------------------|-------------------------------4--4--4--4--4--4--|


G|-------------------------------------------------|-------------------------------------------------|
D|-------------------------------------------------|-------------------------------------------------|
A|-------------------------------------------------|-------------------------------------------------|
E|-4--4--4--4--4--4--4--4--4--4--5--5--5--5--5--5--|-5--5--5--5--5--5--5--5--5--5--6--6--6--6--6--6--|


G|-------------------------------------------------|-------------------------------------------------|
D|-------------------------------------------------|-------------------------------------------------|
A|-------------------------------3--3--3--3--3--3--|-3--3--3--3--3--3--3--3--3--3--------------------|
E|-6--6--7--7--7--7--7--7--7--7--------------------|-------------------------------4--4--4--4--4--4--|


G|-------------------------------------------------|-------------------------------------------------|
D|-------------------------------------------------|-------------------------------------------------|
A|-------------------------------------------------|-------------------------------------------------|
E|-4--4--4--4--4--4--4--4--4--4--5--5--5--5--5--5--|-5--5--5--5--5--5--5--5--5--5--6--6--6--6--6--6--|


G|---------------------------------------------|-----------------------------------------|
D|---------------------------------------------|-----------------------------------------|
A|---------------------------------------------|-----------------------------------------|
E|-6--6--7--7--7--7--7--7--7--7--8---8--8--8---|-8--8--8---8--8--8---8--8--8---8--8--8---|


G|-------------------------------------------|--------------------------|-----------------17-17-|
D|-------------------------------------------|--------------------------|-------8---------------|
A|-------------------------------------------|--------------------11----|-10---------11---------|
E|-8--8--8---8--8--8---8--8--8--8--8--8--8---|-----8---8--8--8----------|-----------------------|


G|-------15-15--------------|--------------|--------------|--------------|-------10-----|
D|-------------------15-----|-------15-----|--------------|--------------|-------8------|
A|-15-15-------15-15-13-----|-------13-----|-------3------|-------3------|--------------|
E|--------------------------|--------------|--------------|--------------|--------------|


G|-----------------|---------------5-----|-------5------|-------8------|-------10-----|
D|-----------------|---------------------|--------------|--------------|--------------|
A|-------10----10--|-----10---3----------|-------3------|--------------|--------------|
E|-----------------|---------------------|--------------|--------------|--------------|


G|------------5-----|-------5------|-------10-----|-----------------|---------------5-----|
D|------------------|--------------|-------8------|-----------------|---------------------|
A|-------3----------|-------3------|--------------|-------10----10--|-----10---3----------|
E|------------------|--------------|--------------|-----------------|---------------------|


G|-------5------|------------12--14--14--|--------------|--------------|--------------|
D|--------------|-------13---------------|-------15-----|--------------|--------------|
A|-------3------|-------11---------------|-------13-----|-------3------|-------3------|
E|--------------|------------------------|--------------|--------------|--------------|


G|-------10-----|-----------------|--------------|--------------|------------12--14--14--|
D|-------8------|-----------------|--------------|--------------|-------13---------------|
A|--------------|-------10----10--|-------3------|-------3------|-------11---------------|
E|--------------|-----------------|--------------|--------------|------------------------|


G|------------12---13--|---------------------------|------------10---10--|-------10-----|
D|-------15------------|---------------5-----------|------------8----8---|-------8------|
A|-------13------------|-----13---3--------3---3---|---------------------|--------------|
E|---------------------|---------------------------|---------------------|--------------|


G|------------------------|--------------|-------10-----|-----------------|---------------------------|
D|------------------------|--------------|-------8------|-----------------|---------------------------|
A|-------3---3------------|--------------|--------------|-------10----10--|-----10---3---3------------|
E|------------------------|--------------|--------------|-----------------|---------------------------|


G|--------------|-------8------|-------10-----|------------------------|------------------------|
D|--------------|-------6------|-------8------|------------------------|------------------------|
A|--------------|--------------|--------------|-------3---3------------|-------3---3------------|
E|--------------|--------------|--------------|------------------------|------------------------|


G|-------10-----|-----------------|---------------------------|------------------------|
D|-------8------|-----------------|---------------------------|------------------------|
A|--------------|-------10----10--|-----10---3---3------------|-------3---3------------|
E|--------------|-----------------|---------------------------|------------------------|


G|------------12--14--14--|------------12---13--|-----------------|----------------------------5--------|
D|-------13---------------|-------15------------|----------7------|-------7--8--7--5--5--7--8-----------|
A|-------11---------------|-------13------------|-----10---5------|-------------------------------8--10-|
E|------------------------|---------------------|-----------------|-------------------------------------|


G|------------12----14--|-------9---------|---------------------------|-10--9----------------------------------10-12-14-------|
D|------------10--------|-------7---------|-------------------12--12--|---------12--------------------10-12-14----------15-17-|
A|-12-13-13-------------|-------------13--|-----------13--12----------|----------------------10-12-13-------------------------|
E|----------------------|-----------------|-------10------------------|-------------10-12-13----------------------------------|


G|-14-17-19--------------------|------------------------|--------------|----------------------------5--------|
D|------------15---17--19--19--|-------17---19--20--20--|-------7------|-------7--8--7--5--5--7--8-----------|
A|-----------------------------|------------------------|-------5------|-------------------------------8--10-|
E|-----------------------------|------------------------|--------------|-------------------------------------|


G|------------12----14--|-------9---------|---------------------------|-10--9----------------------------------------14-------|
D|------------10--------|-------7---------|-------------------12--12--|---------12--15-17-15-14-------14-15-14-15-17----------|
A|-12-13-13-------------|-------------13--|-----------13--12----------|-------------------------17-15-------------------12-13-|
E|----------------------|-----------------|-------10------------------|-------------------------------------------------------|


G|-----------------------------|------------------------|-------------------------------|
D|----12-12---15---17--19--19--|-------17---19--20--20--|-------------------------------|
A|-15--------------------------|------------------------|-------------------------------|
E|-----------------------------|------------------------|-------6---6---6---6---6---6---|


G|-------------------------------|------------------------------------|----------------------------------|
D|-------------------------------|------------------------------------|----------------------------------|
A|-------------------------------|------------------------------------|----------3---3---3---3---3---3---|
E|----6----6----6---6---6----4---|-4---4---4---4---4----4----4----4---|-4---4----------------------------|


G|-------------------------------|------------------------------------|----------------------------------|
D|-------------------------------|------------------------------------|----------10--10--10--10--10--10--|
A|----3----3----3---3---3----3---|-3---3---3---3---3----3----3----3---|-3---3----------------------------|
E|-------------------------------|------------------------------------|----------------------------------|


G|-------------------------------|------------------------------------|----------------------------------|
D|----10---10---10--10--10---10--|-10--10--10--10--10---10---10---10--|-10--10---------------------------|
A|-------------------------------|------------------------------------|----------10--10--10--10--10--10--|
E|-------------------------------|------------------------------------|----------------------------------|


G|-------------------------------|------------------------------------|----------------------------------|
D|-------------------------------|------------------------------------|----------8---8---8---8---8---8---|
A|----10---10---10--10--10---8---|-8---8---8---8---8----8----8----8---|-8---8----------------------------|
E|-------------------------------|------------------------------------|----------------------------------|


G|-------------------------------|----------------|--------------|-----------------|
D|----8----8----8---8---8--------|----------------|--------------|-----------------|
A|-------------------------------|----------------|--------------|-----------------|
E|-------------------------------|----------------|--------------|-----------------|