Menu:

 

Search:

 

dream theater - the killing hand:

 



Title: The Killing Hand
Artist: 
Album: When Dream and Day Unite
Author: Dream Theater


Track 1: Acoustic 1

E|-----------------0-------0-------|-----------------0---------------|-----------------3---------------|
B|-------------6-------6-------6---|-------------6-------6-----------|-------------5-------5-----------|
G|-7-------7-----------------------|-7-------7---------------7-------|-5-------5---------------5-------|
D|-----7---------------------------|-----7-----------------------7---|-----5-----------------------5---|
A|-5-------------------------------|-5-------------------------------|-3-------------------------------|
E|---------------------------------|---------------------------------|---------------------------------|


E|-----------------5---------------|-----------------5---------------|-----------------5---------------|
B|-------------5-------5-----------|-------------6-------6-----------|-------------6-------6-----------|
G|-5-------5---------------5-------|-7-------7---------------7-------|-7-------7---------------7-------|
D|-----7-----------------------7---|-----7-----------------------7---|-----7-----------------------7---|
A|---------------------------------|-5-------------------------------|-5-------------------------------|
E|-5-------------------------------|---------------------------------|---------------------------------|


E|-----------------6---------------|-----------------8---------------|-----------------0-------0-------|
B|---------------------6-----------|---------------------8-----------|-------------6-------6-------6---|
G|-7-----------7-----------7-------|-9-----------9-----------9-------|-7-------7-----------------------|
D|-----8---10------------------8---|-----10--12------------------10--|-----7---------------------------|
A|---------------------------------|---------------------------------|-5-------------------------------|
E|-6-------------------------------|-8-------------------------------|---------------------------------|


E|-----------------0---------------|-----------------3---------------|-----------------5---------------|
B|-------------6-------6-----------|-------------5-------5-----------|-------------5-------5-----------|
G|-7-------7---------------7-------|-5-------5---------------5-------|-5-------5---------------5-------|
D|-----7-----------------------7---|-----5-----------------------5---|-----7-----------------------7---|
A|-5-------------------------------|-3-------------------------------|---------------------------------|
E|---------------------------------|---------------------------------|-5-------------------------------|


E|-----------------5---------------|-----------------5---------------|-----------------6---------------|
B|-------------6-------6-----------|-------------6-------6-----------|---------------------6-----------|
G|-7-------7---------------7-------|-7-------7---------------7-------|-7-----------7-----------7-------|
D|-----7-----------------------7---|-----7-----------------------7---|-----8---10------------------8---|
A|-5-------------------------------|-5-------------------------------|---------------------------------|
E|---------------------------------|---------------------------------|-6-------------------------------|


E|-----------------8---------------|----------------|-------------|--------|--------|
B|---------------------8-----------|----------------|-------------|--------|--------|
G|-9-----------9-----------9-------|---------7------|-7-----------|--------|--------|
D|-----10--12------------------10--|-----7----------|-------------|--------|--------|
A|---------------------------------|-5--------------|-------------|--------|--------|
E|-8-------------------------------|----------------|-------------|--------|--------|


E|--------|--------|--------|--------|--------|--------|--------|--------|--------|
B|--------|--------|--------|--------|--------|--------|--------|--------|--------|
G|--------|--------|--------|--------|--------|--------|--------|--------|--------|
D|--------|--------|--------|--------|--------|--------|--------|--------|--------|
A|--------|--------|--------|--------|--------|--------|--------|--------|--------|
E|--------|--------|--------|--------|--------|--------|--------|--------|--------|


E|--------|--------|--------|--------|--------|--------|--------|--------|--------|
B|--------|--------|--------|--------|--------|--------|--------|--------|--------|
G|--------|--------|--------|--------|--------|--------|--------|--------|--------|
D|--------|--------|--------|--------|--------|--------|--------|--------|--------|
A|--------|--------|--------|--------|--------|--------|--------|--------|--------|
E|--------|--------|--------|--------|--------|--------|--------|--------|--------|


E|--------|--------|--------|--------|--------|--------|--------|--------|--------|
B|--------|--------|--------|--------|--------|--------|--------|--------|--------|
G|--------|--------|--------|--------|--------|--------|--------|--------|--------|
D|--------|--------|--------|--------|--------|--------|--------|--------|--------|
A|--------|--------|--------|--------|--------|--------|--------|--------|--------|
E|--------|--------|--------|--------|--------|--------|--------|--------|--------|


E|--------|--------|--------|-----------------------|-------------10--------------10--|
B|--------|--------|--------|-----------------------|-8---10--11------8---10--11------|
G|--------|--------|--------|-------------------7---|---------------------------------|
D|--------|--------|--------|-------5---7---8-------|---------------------------------|
A|--------|--------|--------|-----------------------|---------------------------------|
E|--------|--------|--------|-----------------------|---------------------------------|


E|-------------10--------------8---|-------------8---------------8---|-------------8-------------------|
B|-8---10--11------6---8---10------|-6---8---10------6---8---10------|-6---8---10----------8---10--11--|
G|---------------------------------|---------------------------------|-----------------7---------------|
D|---------------------------------|---------------------------------|---------------------------------|
A|---------------------------------|---------------------------------|---------------------------------|
E|---------------------------------|---------------------------------|---------------------------------|


E|---------------------------------|---------------------------------|---------------------------------|
B|-----8---10--11------8---10--11--|-----8---10--11------8---10--11--|-----8---10--11------10--11------|
G|-7---------------7---------------|-7---------------8---------------|-8---------------10----------10--|
D|---------------------------------|---------------------------------|---------------------------------|
A|---------------------------------|---------------------------------|---------------------------------|
E|---------------------------------|---------------------------------|---------------------------------|


E|-8---------------------------10--|-------------10--------------10--|-------------10--------------8---|
B|---------11--10--8---10--11------|-8---10--11------8---10--11------|-8---10--11------6---8---10------|
G|-----10--------------------------|---------------------------------|---------------------------------|
D|---------------------------------|---------------------------------|---------------------------------|
A|---------------------------------|---------------------------------|---------------------------------|
E|---------------------------------|---------------------------------|---------------------------------|


E|-------------8---------------8---|-------------8-------------------|---------------------------------|
B|-6---8---10------6---8---10------|-6---8---10----------8---10--11--|-----8---10--11------8---10--11--|
G|---------------------------------|-----------------7---------------|-7---------------7---------------|
D|---------------------------------|---------------------------------|---------------------------------|
A|---------------------------------|---------------------------------|---------------------------------|
E|---------------------------------|---------------------------------|---------------------------------|


E|---------------------------------|---------------------------------|-8-------------------------------|
B|-----8---10--11------8---10--11--|-----8---10--11------10--11------|---------11--10------------------|
G|-7---------------8---------------|-8---------------10----------10--|-----10--------------------------|
D|---------------------------------|---------------------------------|-----------------5---8---7---8---|
A|---------------------------------|---------------------------------|---------------------------------|
E|---------------------------------|---------------------------------|---------------------------------|


E|-------------------------------------------|-----------------------------------------|
B|-------------------------------------------|-----------------------------------------|
G|-5--5------7-------------------------------|-5-------7-------------------------------|
D|-------8-----------5--5--8--8--7--7--8--8--|-----8-----------5--5--8--8--7--7--8--8--|
A|---------------8---------------------------|-------------8---------------------------|
E|-------------------------------------------|-----------------------------------------|


E|-----------------------------------------|-------------------------------------------------|
B|-----------------------------------------|-------------------------------------------------|
G|-5-------7-------------------------------|-5--5--------7--7--------------------------------|
D|-----8-----------5--5--8--8--7--7--8--8--|-------8--8--------------5--5--8--8--7--7--8--8--|
A|-------------8---------------------------|-------------------8--8--------------------------|
E|-----------------------------------------|-------------------------------------------------|


E|-----------------------------------------|-------------------------------------------------|
B|-----------------------------------------|-------------------------------------------------|
G|-5-------7-------------------------------|-7--7--5--5--------------------------------------|
D|-----8-----------5--5--8--8--7--7--8--8--|-------------8--8--7--7--5--5--8--8--7--7--8--8--|
A|-------------8---------------------------|-------------------------------------------------|
E|-----------------------------------------|-------------------------------------------------|


E|-----------------------------------------|-------------------------------|--------|
B|-----------------------------------------|-------------------------------|--------|
G|-5-------7-------------------------------|-5--5--------7--7--------------|--------|
D|-----8-----------5--5--8--8--7--7--8--8--|-------8--8--------------------|--------|
A|-------------8---------------------------|-------------------8--8--------|--------|
E|-----------------------------------------|-------------------------------|--------|


E|--------|--------|--------|--------|--------|--------|--------|--------|--------|
B|--------|--------|--------|--------|--------|--------|--------|--------|--------|
G|--------|--------|--------|--------|--------|--------|--------|--------|--------|
D|--------|--------|--------|--------|--------|--------|--------|--------|--------|
A|--------|--------|--------|--------|--------|--------|--------|--------|--------|
E|--------|--------|--------|--------|--------|--------|--------|--------|--------|


E|--------|--------|--------|--------|--------|--------|--------|--------|--------|
B|--------|--------|--------|--------|--------|--------|--------|--------|--------|
G|--------|--------|--------|--------|--------|--------|--------|--------|--------|
D|--------|--------|--------|--------|--------|--------|--------|--------|--------|
A|--------|--------|--------|--------|--------|--------|--------|--------|--------|
E|--------|--------|--------|--------|--------|--------|--------|--------|--------|


E|--------|--------|--------|--------|--------|--------|--------|--------|--------|
B|--------|--------|--------|--------|--------|--------|--------|--------|--------|
G|--------|--------|--------|--------|--------|--------|--------|--------|--------|
D|--------|--------|--------|--------|--------|--------|--------|--------|--------|
A|--------|--------|--------|--------|--------|--------|--------|--------|--------|
E|--------|--------|--------|--------|--------|--------|--------|--------|--------|


E|--------|--------|--------|--------|--------|--------|--------|--------|--------|
B|--------|--------|--------|--------|--------|--------|--------|--------|--------|
G|--------|--------|--------|--------|--------|--------|--------|--------|--------|
D|--------|--------|--------|--------|--------|--------|--------|--------|--------|
A|--------|--------|--------|--------|--------|--------|--------|--------|--------|
E|--------|--------|--------|--------|--------|--------|--------|--------|--------|


E|--------|--------|--------|--------|--------|--------|--------|--------|--------|
B|--------|--------|--------|--------|--------|--------|--------|--------|--------|
G|--------|--------|--------|--------|--------|--------|--------|--------|--------|
D|--------|--------|--------|--------|--------|--------|--------|--------|--------|
A|--------|--------|--------|--------|--------|--------|--------|--------|--------|
E|--------|--------|--------|--------|--------|--------|--------|--------|--------|


E|--------|--------|--------|--------|--------|--------|--------|--------|--------|
B|--------|--------|--------|--------|--------|--------|--------|--------|--------|
G|--------|--------|--------|--------|--------|--------|--------|--------|--------|
D|--------|--------|--------|--------|--------|--------|--------|--------|--------|
A|--------|--------|--------|--------|--------|--------|--------|--------|--------|
E|--------|--------|--------|--------|--------|--------|--------|--------|--------|


E|--------|--------|--------|--------|--------|--------|--------|--------|--------|
B|--------|--------|--------|--------|--------|--------|--------|--------|--------|
G|--------|--------|--------|--------|--------|--------|--------|--------|--------|
D|--------|--------|--------|--------|--------|--------|--------|--------|--------|
A|--------|--------|--------|--------|--------|--------|--------|--------|--------|
E|--------|--------|--------|--------|--------|--------|--------|--------|--------|


E|--------|--------|--------|--------|--------|--------|--------|--------|--------|
B|--------|--------|--------|--------|--------|--------|--------|--------|--------|
G|--------|--------|--------|--------|--------|--------|--------|--------|--------|
D|--------|--------|--------|--------|--------|--------|--------|--------|--------|
A|--------|--------|--------|--------|--------|--------|--------|--------|--------|
E|--------|--------|--------|--------|--------|--------|--------|--------|--------|


E|--------|--------|--------|--------|--------|--------|--------|--------|--------|
B|--------|--------|--------|--------|--------|--------|--------|--------|--------|
G|--------|--------|--------|--------|--------|--------|--------|--------|--------|
D|--------|--------|--------|--------|--------|--------|--------|--------|--------|
A|--------|--------|--------|--------|--------|--------|--------|--------|--------|
E|--------|--------|--------|--------|--------|--------|--------|--------|--------|


E|--------|--------|--------|--------|--------|--------|--------|--------|--------|
B|--------|--------|--------|--------|--------|--------|--------|--------|--------|
G|--------|--------|--------|--------|--------|--------|--------|--------|--------|
D|--------|--------|--------|--------|--------|--------|--------|--------|--------|
A|--------|--------|--------|--------|--------|--------|--------|--------|--------|
E|--------|--------|--------|--------|--------|--------|--------|--------|--------|


E|--------|--------|--------|--------|--------|--------|--------|--------|--------|
B|--------|--------|--------|--------|--------|--------|--------|--------|--------|
G|--------|--------|--------|--------|--------|--------|--------|--------|--------|
D|--------|--------|--------|--------|--------|--------|--------|--------|--------|
A|--------|--------|--------|--------|--------|--------|--------|--------|--------|
E|--------|--------|--------|--------|--------|--------|--------|--------|--------|


E|--------|--------|--------|--------|--------|--------|--------|--------|--------|
B|--------|--------|--------|--------|--------|--------|--------|--------|--------|
G|--------|--------|--------|--------|--------|--------|--------|--------|--------|
D|--------|--------|--------|--------|--------|--------|--------|--------|--------|
A|--------|--------|--------|--------|--------|--------|--------|--------|--------|
E|--------|--------|--------|--------|--------|--------|--------|--------|--------|


E|--------|--------|--------|--------|--------|--------|--------|--------|-------------|
B|--------|--------|--------|--------|--------|--------|--------|--------|-------------|
G|--------|--------|--------|--------|--------|--------|--------|--------|-------------|
D|--------|--------|--------|--------|--------|--------|--------|--------|-------------|
A|--------|--------|--------|--------|--------|--------|--------|--------|-------3-----|
E|--------|--------|--------|--------|--------|--------|--------|--------|-------------|


E|-----3-----------------|------------------------|-----1------------------------|
B|---------4-------------|--------------------1---|---------1----------------3---|
G|-------------5---------|----------------3-------|-3----------------------------|
D|-----------------------|------------------------|----------------------5-------|
A|-3---------------3-----|------5-----------------|------------------5-----------|
E|-----------------------|------------------------|--------------3---------------|


E|-----3---------------------|------------------------------|-3-------------------------|
B|---------3-----------------|-----4--------------------4---|------4--------------------|
G|-------------------5-------|---------5------------5-------|---------------5-----------|
D|-5---------------------5---|-------------5----------------|-------------------6-------|
A|--------------3------------|-3---------------3------------|-----------------------6---|
E|---------------------------|------------------------------|-----------4---------------|


E|--------------------|--------------------|------------------------------|------------------------------|
B|--------------------|--------------------|-----4------------------------|---------4--------------------|
G|----------------7---|-7----------5-------|---------5------------5-------|-------------5----------------|
D|-------8----8-------|----------------5---|-------------5------------5---|-----5----------------8-------|
A|-6------------------|-------3------------|-3---------------3------------|-3------------------------8---|
E|--------------------|--------------------|------------------------------|-----------------6------------|


E|------------------------------|---------------------------|------------------------------|
B|------------------------------|---------------------------|-----4--------------------4---|
G|-----7----------------7-------|-8---10--7---------5-------|---------5------------5-------|
D|---------8----------------8---|-----------------------5---|-------------5----------------|
A|-------------8----------------|--------------3------------|-3---------------3------------|
E|-6---------------3------------|---------------------------|------------------------------|


E|-3-------------------------|--------------------|------------------------------|
B|------4--------------------|--------------------|------------------------------|
G|---------------5-----------|--------------------|-----7----------------5-------|
D|-------------------6-------|------------8-------|---------8----------------5---|
A|-----------------------6---|-6--------------8---|-------------8---3------------|
E|-----------4---------------|-------6------------|-6----------------------------|


E|------------------------------|------------------------------|------------------------------|
B|-----4------------------------|---------4----------------6---|------------------------------|
G|---------5------------5-------|-------------5----------------|-7--------------------7-------|
D|-------------5------------5---|-----5------------------------|-----8--------------------8---|
A|-3---------------3------------|-3----------------------------|---------8--------------------|
E|------------------------------|-----------------6----6-------|-------------6---3------------|


E|---------------------------|------------------------------|-3------------------6---|
B|---------------------------|-----4--------------------4---|------4---------6-------|
G|-8---10--7---------5-------|---------5------------5-------|------------------------|
D|-----------------------5---|-------------5----------------|------------------------|
A|--------------3------------|-3---------------3------------|------------------------|
E|---------------------------|------------------------------|-----------4------------|


E|------------------------|------------------------------|-----------------------|
B|-9----8-----------------|------------------------------|-----4-----------------|
G|------------------------|-----7----------------5-------|---------5-------------|
D|----------------8-------|---------8----------------5---|-------------5---5-----|
A|--------------------8---|-------------8---3------------|-3---------------------|
E|-----------6------------|-6----------------------------|-----------------------|


E|-------------|--------|--------|--------|--------|--------|--------|--------|--------|
B|-------------|--------|--------|--------|--------|--------|--------|--------|--------|
G|-------------|--------|--------|--------|--------|--------|--------|--------|--------|
D|-------5-----|--------|--------|--------|--------|--------|--------|--------|--------|
A|-------------|--------|--------|--------|--------|--------|--------|--------|--------|
E|-------------|--------|--------|--------|--------|--------|--------|--------|--------|


E|--------|--------|--------|--------|--------|--------|--------|--------|--------|
B|--------|--------|--------|--------|--------|--------|--------|--------|--------|
G|--------|--------|--------|--------|--------|--------|--------|--------|--------|
D|--------|--------|--------|--------|--------|--------|--------|--------|--------|
A|--------|--------|--------|--------|--------|--------|--------|--------|--------|
E|--------|--------|--------|--------|--------|--------|--------|--------|--------|


E|--------|--------|--------|--------|--------|--------|--------|--------|--------|
B|--------|--------|--------|--------|--------|--------|--------|--------|--------|
G|--------|--------|--------|--------|--------|--------|--------|--------|--------|
D|--------|--------|--------|--------|--------|--------|--------|--------|--------|
A|--------|--------|--------|--------|--------|--------|--------|--------|--------|
E|--------|--------|--------|--------|--------|--------|--------|--------|--------|


E|--------|--------|--------|--------|--------|--------|--------|--------|--------|
B|--------|--------|--------|--------|--------|--------|--------|--------|--------|
G|--------|--------|--------|--------|--------|--------|--------|--------|--------|
D|--------|--------|--------|--------|--------|--------|--------|--------|--------|
A|--------|--------|--------|--------|--------|--------|--------|--------|--------|
E|--------|--------|--------|--------|--------|--------|--------|--------|--------|


E|--------|--------|--------|--------|--------|--------|--------|--------|--------|
B|--------|--------|--------|--------|--------|--------|--------|--------|--------|
G|--------|--------|--------|--------|--------|--------|--------|--------|--------|
D|--------|--------|--------|--------|--------|--------|--------|--------|--------|
A|--------|--------|--------|--------|--------|--------|--------|--------|--------|
E|--------|--------|--------|--------|--------|--------|--------|--------|--------|


E|--------|--------|
B|--------|--------|
G|--------|--------|
D|--------|--------|
A|--------|--------|
E|--------|--------|





Track 2: Acoustic 2

E|----------------|--------|-------------|-------------|----------------|-------------|
B|----------------|--------|-------------|-------------|----------------|-------10----|
G|-7------9-------|-10-----|-9-----7-----|-------9-----|-7------9-------|-10----------|
D|----------------|--------|-------------|-10----------|----------------|-------------|
A|----------------|--------|-------------|-------------|----------------|-------------|
E|----------------|--------|-------------|-------------|----------------|-------------|


E|-------------|-------------|----------------|--------|-------------|-------------|
B|-8-----------|-------------|-6------8-------|-10-----|-8-----6-----|-------8-----|
G|-------10----|-9-----9-----|-7------9-------|-10-----|-9-----7-----|-9-----9-----|
D|-------------|-------------|----------------|--------|-------------|-10----------|
A|-------------|-------------|----------------|--------|-------------|-------------|
E|-------------|-------------|----------------|--------|-------------|-------------|


E|----------------|-------8-----|-6-----------|-------8-----|-----------------10----|
B|-6------8-------|-10----10----|-8-----10----|-8-----10----|-------------10--------|
G|-7------9-------|-10----------|-------10----|-9-----------|-7---9---10------------|
D|----------------|-------------|-------------|-------------|-----------------------|
A|----------------|-------------|-------------|-------------|-----------------------|
E|----------------|-------------|-------------|-------------|-----------------------|


E|-10----------|--------|--------|--------|--------|--------|--------|--------|--------|
B|-------------|--------|--------|--------|--------|--------|--------|--------|--------|
G|-------------|--------|--------|--------|--------|--------|--------|--------|--------|
D|-------------|--------|--------|--------|--------|--------|--------|--------|--------|
A|-------------|--------|--------|--------|--------|--------|--------|--------|--------|
E|-------------|--------|--------|--------|--------|--------|--------|--------|--------|


E|--------|--------|--------|--------|--------|--------|--------|--------|--------|
B|--------|--------|--------|--------|--------|--------|--------|--------|--------|
G|--------|--------|--------|--------|--------|--------|--------|--------|--------|
D|--------|--------|--------|--------|--------|--------|--------|--------|--------|
A|--------|--------|--------|--------|--------|--------|--------|--------|--------|
E|--------|--------|--------|--------|--------|--------|--------|--------|--------|


E|--------|--------|--------|--------|--------|--------|--------|--------|--------|
B|--------|--------|--------|--------|--------|--------|--------|--------|--------|
G|--------|--------|--------|--------|--------|--------|--------|--------|--------|
D|--------|--------|--------|--------|--------|--------|--------|--------|--------|
A|--------|--------|--------|--------|--------|--------|--------|--------|--------|
E|--------|--------|--------|--------|--------|--------|--------|--------|--------|


E|--------|--------|--------|--------|--------|--------|--------|--------|--------|
B|--------|--------|--------|--------|--------|--------|--------|--------|--------|
G|--------|--------|--------|--------|--------|--------|--------|--------|--------|
D|--------|--------|--------|--------|--------|--------|--------|--------|--------|
A|--------|--------|--------|--------|--------|--------|--------|--------|--------|
E|--------|--------|--------|--------|--------|--------|--------|--------|--------|


E|--------|--------|--------|--------|--------|--------|--------|--------|--------|
B|--------|--------|--------|--------|--------|--------|--------|--------|--------|
G|--------|--------|--------|--------|--------|--------|--------|--------|--------|
D|--------|--------|--------|--------|--------|--------|--------|--------|--------|
A|--------|--------|--------|--------|--------|--------|--------|--------|--------|
E|--------|--------|--------|--------|--------|--------|--------|--------|--------|


E|--------|--------|--------|--------|--------|--------|--------|--------|--------|
B|--------|--------|--------|--------|--------|--------|--------|--------|--------|
G|--------|--------|--------|--------|--------|--------|--------|--------|--------|
D|--------|--------|--------|--------|--------|--------|--------|--------|--------|
A|--------|--------|--------|--------|--------|--------|--------|--------|--------|
E|--------|--------|--------|--------|--------|--------|--------|--------|--------|


E|--------|--------|--------|--------|--------|--------|--------|--------|--------|
B|--------|--------|--------|--------|--------|--------|--------|--------|--------|
G|--------|--------|--------|--------|--------|--------|--------|--------|--------|
D|--------|--------|--------|--------|--------|--------|--------|--------|--------|
A|--------|--------|--------|--------|--------|--------|--------|--------|--------|
E|--------|--------|--------|--------|--------|--------|--------|--------|--------|


E|--------|--------|--------|--------|--------|--------|--------|--------|--------|
B|--------|--------|--------|--------|--------|--------|--------|--------|--------|
G|--------|--------|--------|--------|--------|--------|--------|--------|--------|
D|--------|--------|--------|--------|--------|--------|--------|--------|--------|
A|--------|--------|--------|--------|--------|--------|--------|--------|--------|
E|--------|--------|--------|--------|--------|--------|--------|--------|--------|


E|--------|--------|--------|--------|--------|--------|--------|--------|--------|
B|--------|--------|--------|--------|--------|--------|--------|--------|--------|
G|--------|--------|--------|--------|--------|--------|--------|--------|--------|
D|--------|--------|--------|--------|--------|--------|--------|--------|--------|
A|--------|--------|--------|--------|--------|--------|--------|--------|--------|
E|--------|--------|--------|--------|--------|--------|--------|--------|--------|


E|--------|--------|--------|--------|--------|--------|--------|--------|--------|
B|--------|--------|--------|--------|--------|--------|--------|--------|--------|
G|--------|--------|--------|--------|--------|--------|--------|--------|--------|
D|--------|--------|--------|--------|--------|--------|--------|--------|--------|
A|--------|--------|--------|--------|--------|--------|--------|--------|--------|
E|--------|--------|--------|--------|--------|--------|--------|--------|--------|


E|--------|--------|--------|--------|--------|--------|--------|--------|--------|
B|--------|--------|--------|--------|--------|--------|--------|--------|--------|
G|--------|--------|--------|--------|--------|--------|--------|--------|--------|
D|--------|--------|--------|--------|--------|--------|--------|--------|--------|
A|--------|--------|--------|--------|--------|--------|--------|--------|--------|
E|--------|--------|--------|--------|--------|--------|--------|--------|--------|


E|--------|--------|--------|--------|--------|--------|--------|--------|--------|
B|--------|--------|--------|--------|--------|--------|--------|--------|--------|
G|--------|--------|--------|--------|--------|--------|--------|--------|--------|
D|--------|--------|--------|--------|--------|--------|--------|--------|--------|
A|--------|--------|--------|--------|--------|--------|--------|--------|--------|
E|--------|--------|--------|--------|--------|--------|--------|--------|--------|


E|--------|--------|--------|--------|--------|--------|--------|--------|--------|
B|--------|--------|--------|--------|--------|--------|--------|--------|--------|
G|--------|--------|--------|--------|--------|--------|--------|--------|--------|
D|--------|--------|--------|--------|--------|--------|--------|--------|--------|
A|--------|--------|--------|--------|--------|--------|--------|--------|--------|
E|--------|--------|--------|--------|--------|--------|--------|--------|--------|


E|--------|--------|--------|--------|--------|--------|--------|--------|--------|
B|--------|--------|--------|--------|--------|--------|--------|--------|--------|
G|--------|--------|--------|--------|--------|--------|--------|--------|--------|
D|--------|--------|--------|--------|--------|--------|--------|--------|--------|
A|--------|--------|--------|--------|--------|--------|--------|--------|--------|
E|--------|--------|--------|--------|--------|--------|--------|--------|--------|


E|--------|--------|--------|--------|--------|--------|--------|--------|--------|
B|--------|--------|--------|--------|--------|--------|--------|--------|--------|
G|--------|--------|--------|--------|--------|--------|--------|--------|--------|
D|--------|--------|--------|--------|--------|--------|--------|--------|--------|
A|--------|--------|--------|--------|--------|--------|--------|--------|--------|
E|--------|--------|--------|--------|--------|--------|--------|--------|--------|


E|--------|--------|--------|--------|--------|--------|--------|--------|--------|
B|--------|--------|--------|--------|--------|--------|--------|--------|--------|
G|--------|--------|--------|--------|--------|--------|--------|--------|--------|
D|--------|--------|--------|--------|--------|--------|--------|--------|--------|
A|--------|--------|--------|--------|--------|--------|--------|--------|--------|
E|--------|--------|--------|--------|--------|--------|--------|--------|--------|


E|--------|--------|--------|--------|--------|--------|--------|--------|--------|
B|--------|--------|--------|--------|--------|--------|--------|--------|--------|
G|--------|--------|--------|--------|--------|--------|--------|--------|--------|
D|--------|--------|--------|--------|--------|--------|--------|--------|--------|
A|--------|--------|--------|--------|--------|--------|--------|--------|--------|
E|--------|--------|--------|--------|--------|--------|--------|--------|--------|


E|--------|--------|--------|--------|--------|--------|--------|--------|--------|
B|--------|--------|--------|--------|--------|--------|--------|--------|--------|
G|--------|--------|--------|--------|--------|--------|--------|--------|--------|
D|--------|--------|--------|--------|--------|--------|--------|--------|--------|
A|--------|--------|--------|--------|--------|--------|--------|--------|--------|
E|--------|--------|--------|--------|--------|--------|--------|--------|--------|


E|--------|--------|--------|--------|--------|--------|--------|--------|--------|
B|--------|--------|--------|--------|--------|--------|--------|--------|--------|
G|--------|--------|--------|--------|--------|--------|--------|--------|--------|
D|--------|--------|--------|--------|--------|--------|--------|--------|--------|
A|--------|--------|--------|--------|--------|--------|--------|--------|--------|
E|--------|--------|--------|--------|--------|--------|--------|--------|--------|


E|--------|--------|--------|--------|-----------------|------------------------|---------------------------|
B|--------|--------|--------|--------|-----------------|------------------------|-----------------------1---|
G|--------|--------|--------|--------|------------7----|-----8---5----5----7----|-7---8---8---------3-------|
D|--------|--------|--------|--------|-----------------|------------------------|---------------------------|
A|--------|--------|--------|--------|-----------------|------------------------|---------------------------|
E|--------|--------|--------|--------|-----------------|------------------------|---------------------------|


E|-----1---------------------|-----3------------------|------------------------|-----6---6-----------------|
B|---------1-------------3---|---------3--------------|------------------------|--------------9---8--------|
G|-3-------------------------|-------------------7----|-----8---8----8----7----|-8---8---8------------8----|
D|-------------------5-------|-5----------------------|------------------------|---------------------------|
A|---------------------------|------------------------|------------------------|---------------------------|
E|---------------------------|------------------------|------------------------|---------------------------|


E|-----------------|------------------------|-------------------6----|-----8---8--------------|
B|-----------------|-----11--11-------------|-------------------8----|-----8---8--------------|
G|-----------10----|-10----------------7----|-----8---8----8---------|-------------------5----|
D|-----------------|-------------------8----|-----10--10---10--------|-------------------5----|
A|-----------------|------------------------|------------------------|------------------------|
E|-----------------|------------------------|------------------------|------------------------|


E|--------------------|------------------------|-------------------6----|-----8---8----------|
B|------------6-------|-8---9---6--------------|-------------------8----|-----8---8----8-----|
G|----------------7---|-------------------7----|-----8---8----8---------|--------------8-----|
D|--------------------|-------------------8----|-----10--10---10--------|--------------------|
A|--------------------|------------------------|------------------------|--------------------|
E|--------------------|------------------------|------------------------|--------------------|


E|-----------------|------------------------|-------------------6----|-----8---8----------|
B|------------8----|-8---6---6--------------|-------------------8----|-----8---8----6-----|
G|-------7----8----|-8---7---7---------7----|-----8---8----8---------|--------------7-----|
D|-------8---------|-------------------8----|-----10--10---10--------|--------------------|
A|-----------------|------------------------|------------------------|--------------------|
E|-----------------|------------------------|------------------------|--------------------|


E|--------------------|-----------------|-------------------6----|-----8---8----------|
B|------------6-------|-8---------------|-------------------8----|-----8---8----8-----|
G|--------------------|------------7----|-----8---8----8---------|--------------8-----|
D|--------------------|------------8----|-----10--10---10--------|--------------------|
A|--------------------|-----------------|------------------------|--------------------|
E|--------------------|-----------------|------------------------|--------------------|


E|-------------|--------|--------|--------|--------|--------|--------|--------|--------|
B|-------------|--------|--------|--------|--------|--------|--------|--------|--------|
G|-------7-----|--------|--------|--------|--------|--------|--------|--------|--------|
D|-------8-----|--------|--------|--------|--------|--------|--------|--------|--------|
A|-------------|--------|--------|--------|--------|--------|--------|--------|--------|
E|-------------|--------|--------|--------|--------|--------|--------|--------|--------|


E|--------|--------|--------|--------|--------|--------|--------|--------|--------|
B|--------|--------|--------|--------|--------|--------|--------|--------|--------|
G|--------|--------|--------|--------|--------|--------|--------|--------|--------|
D|--------|--------|--------|--------|--------|--------|--------|--------|--------|
A|--------|--------|--------|--------|--------|--------|--------|--------|--------|
E|--------|--------|--------|--------|--------|--------|--------|--------|--------|


E|--------|--------|--------|--------|--------|--------|--------|--------|--------|
B|--------|--------|--------|--------|--------|--------|--------|--------|--------|
G|--------|--------|--------|--------|--------|--------|--------|--------|--------|
D|--------|--------|--------|--------|--------|--------|--------|--------|--------|
A|--------|--------|--------|--------|--------|--------|--------|--------|--------|
E|--------|--------|--------|--------|--------|--------|--------|--------|--------|


E|--------|--------|--------|--------|--------|--------|--------|--------|--------|
B|--------|--------|--------|--------|--------|--------|--------|--------|--------|
G|--------|--------|--------|--------|--------|--------|--------|--------|--------|
D|--------|--------|--------|--------|--------|--------|--------|--------|--------|
A|--------|--------|--------|--------|--------|--------|--------|--------|--------|
E|--------|--------|--------|--------|--------|--------|--------|--------|--------|


E|--------|--------|--------|--------|--------|--------|--------|--------|--------|
B|--------|--------|--------|--------|--------|--------|--------|--------|--------|
G|--------|--------|--------|--------|--------|--------|--------|--------|--------|
D|--------|--------|--------|--------|--------|--------|--------|--------|--------|
A|--------|--------|--------|--------|--------|--------|--------|--------|--------|
E|--------|--------|--------|--------|--------|--------|--------|--------|--------|


E|--------|--------|--------|--------|--------|
B|--------|--------|--------|--------|--------|
G|--------|--------|--------|--------|--------|
D|--------|--------|--------|--------|--------|
A|--------|--------|--------|--------|--------|
E|--------|--------|--------|--------|--------|





Track 3: Distortion 1

E|--------|--------|--------|--------|--------|--------|--------|--------|--------|
B|--------|--------|--------|--------|--------|--------|--------|--------|--------|
G|--------|--------|--------|--------|--------|--------|--------|--------|--------|
D|--------|--------|--------|--------|--------|--------|--------|--------|--------|
A|--------|--------|--------|--------|--------|--------|--------|--------|--------|
E|--------|--------|--------|--------|--------|--------|--------|--------|--------|


E|--------|--------|--------|--------|--------|--------|--------|--------|----------------|
B|--------|--------|--------|--------|--------|--------|--------|--------|----------------|
G|--------|--------|--------|--------|--------|--------|--------|--------|----------------|
D|--------|--------|--------|--------|--------|--------|--------|--------|--------5---5---|
A|--------|--------|--------|--------|--------|--------|--------|--------|--------5---5---|
E|--------|--------|--------|--------|--------|--------|--------|--------|--------3---3---|


E|---------3---3------------------|-----------------------|---------3---3-------------1-------|
B|-3-----------3---------4---4----|-------4---------------|-3-----------3-----------------1---|
G|-5---------------------3---3----|-------3---------------|-5---------------------3-----------|
D|-5---------------------1---1----|-------1---------------|-5---------------------1-----------|
A|--------------------------------|-----------12----------|-----------------------------------|
E|-----3-----------3--3-----------|-----------12--3---3---|-----3-----------3--3--------------|


E|-----------------------|---------3---3------------------|-----------------------|
B|-----------------------|-3-----------3---------4---4----|-------4---------------|
G|-----------------------|-5---------------------3---3----|-------3---------------|
D|-----------------------|-5---------------------1---1----|-------1---------------|
A|-----------12----------|--------------------------------|-----------12----------|
E|-----------12--3---3---|-----3-----------3--3-----------|-----------12--3---3---|


E|---------3---3-------------1-------|-----------------------|---------3---3------------------|
B|-3-----------3-----------------1---|-----------------------|-3-----------3---------4---4----|
G|-5---------------------3-----------|-----------------------|-5---------------------3---3----|
D|-5---------------------1-----------|-----------------------|-5---------------------1---1----|
A|-----------------------------------|-----------12----------|--------------------------------|
E|-----3-----------3--3--------------|-----------12--3---3---|-----3-----------3--3-----------|


E|-----------------------|---------3---3-------------1-------|-----------------------|
B|-------4---------------|-3-----------3-----------------1---|-----------------------|
G|-------3---------------|-5---------------------3-----------|-----------------------|
D|-------1---------------|-5---------------------1-----------|-----------------------|
A|-----------12----------|-----------------------------------|-----------12----------|
E|-----------12--3---3---|-----3-----------3--3--------------|-----------12--3---3---|


E|---------3---3------------------|-----------------------|---------3---3-------------1-------|
B|-3-----------3---------4---4----|-------4---------------|-3-----------3-----------------1---|
G|-5---------------------3---3----|-------3---------------|-5---------------------3-----------|
D|-5---------------------1---1----|-------1---------------|-5---------------------1-----------|
A|--------------------------------|-----------12----------|-----------------------------------|
E|-----3-----------3--3-----------|-----------12--3---3---|-----3-----------3--3--------------|


E|-----------------------|---------3---3------------------|-------------------------------------|
B|-----------------------|-3-----------3---------4---4----|-4---------4---------4---6-----------|
G|-----------------------|-5---------------------3---3----|-3---------3---------3---5-----------|
D|-----------------------|-5---------------------1---1----|-1---------1---------1---3-----------|
A|-----------12----------|--------------------------------|-------------------------------------|
E|-----------12--3---3---|-----3-----------3--3-----------|-----3--3------3--3----------3---3---|


E|---------3---3-------------1---1---|-----3---3---3-------------------|---------3---3------------------|
B|-3-----------3-----------------1---|-------------3-------------------|-3-----------3---------4---4----|
G|-5---------------------------------|-----------------7---5-----------|-5---------------------3---3----|
D|-5---------------------3---3---3---|-5---5---5---5---7---7-----------|-5---------------------1---1----|
A|-----------------------1---1---1---|-3---3---3---3---5---5-----------|--------------------------------|
E|-----3-----------3--3--------------|-------------------------3---3---|-----3-----------3--3-----------|


E|-------------------------------------|---------3---3-------------1-------|----------------|
B|-4---------4---------4---6-----------|-3-----------3-----------------1---|-1--------------|
G|-3---------3---------3---5-----------|-5---------------------------------|----------------|
D|-1---------1---------1---3-----------|-5---------------------3---3-------|------------5---|
A|-------------------------------------|-----------------------1---1-------|--------3-------|
E|-----3--3------3--3----------3---3---|-----3-----------3--3--------------|----------------|


E|-----------------------|-------------|-------------|-------------|-------17----|
B|-----------------------|-------------|-------------|-------------|-------------|
G|-7-----------5---------|-------------|-------------|-------------|-------------|
D|---------3-------5-----|-------5-----|-------5-----|-------5-----|-------------|
A|-----1-----------5-----|-------5-----|-------5-----|-------5-----|-------------|
E|-----------------3-----|-------3-----|-------3-----|-------3-----|-------------|


E|-17----17----|-------17----|-------17----|--------|--------|--------|--------|--------|
B|-------------|-------------|-------------|--------|--------|--------|--------|--------|
G|-------------|-------------|-------------|--------|--------|--------|--------|--------|
D|-------------|-------------|-------------|--------|--------|--------|--------|--------|
A|-------------|-------------|-------------|--------|--------|--------|--------|--------|
E|-------------|-------------|-------------|--------|--------|--------|--------|--------|


E|--------|--------|--------|--------|--------|--------|--------|--------|--------|
B|--------|--------|--------|--------|--------|--------|--------|--------|--------|
G|--------|--------|--------|--------|--------|--------|--------|--------|--------|
D|--------|--------|--------|--------|--------|--------|--------|--------|--------|
A|--------|--------|--------|--------|--------|--------|--------|--------|--------|
E|--------|--------|--------|--------|--------|--------|--------|--------|--------|


E|--------|--------|--------|--------|--------|--------|--------|--------|--------|
B|--------|--------|--------|--------|--------|--------|--------|--------|--------|
G|--------|--------|--------|--------|--------|--------|--------|--------|--------|
D|--------|--------|--------|--------|--------|--------|--------|--------|--------|
A|--------|--------|--------|--------|--------|--------|--------|--------|--------|
E|--------|--------|--------|--------|--------|--------|--------|--------|--------|


E|--------|-------------------------------|-------------------------------------------------|
B|--------|-------------------------------|-------------------------------------------------|
G|--------|-------------------------------|-5--5--------7--7--------------------------------|
D|--------|-------5--5--8--8--7--7--8--8--|-------8--8--------------5--5--8--8--7--7--8--8--|
A|--------|-------------------------------|-------------------8--8--------------------------|
E|--------|-------------------------------|-------------------------------------------------|


E|-------------------------------------------------|-------------------------------------------------|
B|-------------------------------------------------|-------------------------------------------------|
G|-5--5--------7--7--------------------------------|-5--5--------7--7--------------------------------|
D|-------8--8--------------5--5--8--8--7--7--8--8--|-------8--8--------------5--5--8--8--7--7--8--8--|
A|-------------------8--8--------------------------|-------------------8--8--------------------------|
E|-------------------------------------------------|-------------------------------------------------|


E|-------------------------------------------------|-------------------------------------------------|
B|-------------------------------------------------|-------------------------------------------------|
G|-5--5--------7--7--------------------------------|-5--5--------7--7--------------------------------|
D|-------8--8--------------5--5--8--8--7--7--8--8--|-------8--8--------------5--5--8--8--7--7--8--8--|
A|-------------------8--8--------------------------|-------------------8--8--------------------------|
E|-------------------------------------------------|-------------------------------------------------|


E|-------------------------------------------------|-------------------------------------------------|
B|-------------------------------------------------|-------------------------------------------------|
G|-5--5--------7--7--------------------------------|-5--5--------7--7--------------------------------|
D|-------8--8--------------5--5--8--8--7--7--8--8--|-------8--8--------------5--5--8--8--7--7--8--8--|
A|-------------------8--8--------------------------|-------------------8--8--------------------------|
E|-------------------------------------------------|-------------------------------------------------|


E|-----------------------------------------|-------------------------3---3---|------------------------------------|
B|-----------------------------------------|-----------------3-----------3---|-------4---4----4---------4---------|
G|-5--5--------7--7------------------------|-----------------5---------------|-------3---3----3---------3---------|
D|-------8--8----------------------12------|-----10----------5---------------|-------1---1----1---------1---------|
A|-------------------8--8------10----------|-8-------------------------------|------------------------------------|
E|-------------------------8-----------6---|---------3---3-------3-----------|-3--3---------------3--3------3--3--|


E|-------------------------3---3---|-----------1---1-------3---3---3---|-------------------------3---3---|
B|-4---6-----------3-----------3---|---------------1---------------3---|-----------------3-----------3---|
G|-3---5-----------5---------------|-----------------------------------|-7---5-----------5---------------|
D|-1---3-----------5---------------|-------3---3---3---5---5---5---5---|-7---7-----------5---------------|
A|---------------------------------|-------1---1---1---3---3---3---3---|-5---5---------------------------|
E|---------3---3-------3-----------|-3--3------------------------------|---------3---3-------3-----------|


E|------------------------------------|-------------------------3---3---|-----------1-------------|
B|-------4---4----4---------4---------|-4---6-----------3-----------3---|---------------1---1-----|
G|-------3---3----3---------3---------|-3---5-----------5---------------|-------------------------|
D|-------1---1----1---------1---------|-1---3-----------5---------------|-------3---3-------------|
A|------------------------------------|---------------------------------|-------1---1-------------|
E|-3--3---------------3--3------3--3--|---------3---3-------3-----------|-3--3--------------------|


E|------------------------------|--------|--------|--------|-------------|--------|
B|------------------------------|-8------|-6------|-8------|-4-----6-----|-8------|
G|------------------------------|-7------|-5------|-7------|-3-----5-----|-7------|
D|--------------8-----------10--|-5------|-3------|-5------|-1-----3-----|-5------|
A|----------6-----------8-------|--------|--------|--------|-------------|-5------|
E|------4-----------6-----------|--------|--------|--------|-------------|--------|


E|--------|--------|-------------|---------------------------------------------|---------------------------------------------|
B|-6------|-8------|-4-----6-----|---------------------------------------------|---------------------------------------------|
G|-5------|-7------|-3-----5-----|---------------------------------------------|---------------------------------------------|
D|-3------|-5------|-1-----3-----|--------------5--5--5------------------------|--------------5--5--5------------------------|
A|-3------|-5------|-------------|------------------------------------5--5--5--|------------------------------------5--5--5--|
E|--------|--------|-------------|-3---3--3--3-----------3---3--3--3-----------|-3---3--3--3-----------3---3--3--3-----------|


E|-------------------------------|----------------------------------|---------------------------------------------|
B|-------------------------------|----------------------------------|---------------------------------------------|
G|-------------------------3-----|-------8--7--5--------------------|---------------------------------------------|
D|----------------6----6------6--|-5--------------8--7--5-----------|--------------5--5--5------------------------|
A|-3----3---3--5-----------------|-------------------------8--6--5--|------------------------------------5--5--5--|
E|-------------------------------|----------------------------------|-3---3--3--3-----------3---3--3--3-----------|


E|-------------------------------------------|------------------------|---------------------------|
B|-------------------------------------------|------------------------|---------------------------|
G|-------------------------------------------|------------------------|---------------------------|
D|--------------5--5--5----------------------|------------------------|-------8--8----------------|
A|-------------------------------------------|-------5----5--3--5--3--|-------------5-------------|
E|-3---3--3--3-----------3---3--3--3--3--5---|-6----------------------|-5---------------6--3--5---|


E|---------------------------------------------|---------------------------------------------|
B|---------------------------------------------|---------------------------------------------|
G|---------------------------------------------|---------------------------------------------|
D|--------------5--5--5------------------------|--------------5--5--5------------------------|
A|------------------------------------5--5--5--|------------------------------------5--5--5--|
E|-3---3--3--3-----------3---3--3--3-----------|-3---3--3--3-----------3---3--3--3-----------|


E|-------------------------------|----------------------------------|---------------------------------------------|
B|-------------------------------|----------------------------------|---------------------------------------------|
G|-------------------------3-----|-------8--7--5--------------------|---------------------------------------------|
D|----------------6----6------6--|-5--------------8--7--5-----------|--------------5--5--5------------------------|
A|-3----3---3--5-----------------|-------------------------8--6--5--|------------------------------------5--5--5--|
E|-------------------------------|----------------------------------|-3---3--3--3-----------3---3--3--3-----------|


E|-------------------------------------------|------------------------|---------------------------|
B|-------------------------------------------|------------------------|---------------------------|
G|-------------------------------------------|------------------------|---------------------------|
D|--------------5--5--5----------------------|------------------------|-------8--8----------------|
A|-------------------------------------------|-------5----5--3--5--3--|-------------5-------------|
E|-3---3--3--3-----------3---3--3--3--3--5---|-6----------------------|-5---------------6--3--5---|


E|--------|--------|-----------------------------------------------------------------|
B|-4------|-3------|-----------------------------------------------------------------|
G|-3------|-2------|-----------------------------------------------------------------|
D|-1------|-0------|-------------3-5-------------5-7-------------7-8-------------8-10|
A|--------|--------|-------3-5-6-----------5-6-8-----------6-8-10----------8-1011----|
E|--------|--------|-3-5-6-----------5-6-8-----------6-8-10----------8-1011----------|


E|---------------------------------15---15---|-15-----|-15-----|---------------------------------------------|
B|---------------------------131516----------|--------|--------|---------------------------------------------|
G|-----------121415----121415----------------|--------|--------|---------------------------------------------|
D|---12131515------1315----------------------|--------|--------|--------------5--5--5------------------------|
A|-15----------------------------------------|--------|--------|------------------------------------5--5--5--|
E|-------------------------------------------|--------|--------|-3---3--3--3-----------3---3--3--3-----------|


E|---------------------------------------------|---------------------------------------------|
B|---------------------------------------------|---------------------------------------------|
G|---------------------------------------------|---------------------------------------------|
D|--------------5--5--5------------------------|--------------5--5--5------------------------|
A|------------------------------------5--5--5--|------------------------------------5--5--5--|
E|-3---3--3--3-----------3---3--3--3-----------|-3---3--3--3-----------3---3--3--3-----------|


E|---------------------------------------------|-------------------------------|----------------------------------|
B|---------------------------------------------|-------------------------------|----------------------------------|
G|---------------------------------------------|-------------------------3-----|-------12-10-8--------------------|
D|--------------5--5--5------------------------|----------------6----6------6--|-5--------------12-10-8-----------|
A|------------------------------------5--5--5--|-3----3---3--5-----------------|-------------------------12-10-8--|
E|-3---3--3--3-----------3---3--3--3-----------|-------------------------------|----------------------------------|


E|---------------------------------------------|-------------------------------------------|
B|---------------------------------------------|-------------------------------------------|
G|---------------------------------------------|-------------------------------------------|
D|--------------5--5--5------------------------|--------------5--5--5----------------------|
A|------------------------------------5--5--5--|-------------------------------------------|
E|-3---3--3--3-----------3---3--3--3-----------|-3---3--3--3-----------3---3--3--3--3--5---|


E|------------------------|-----------------------------|--------|--------|---------------------------------------------|
B|------------------------|-----------------------------|-4------|-3------|---------------------------------------------|
G|------------------------|-----------------------------|-3------|-2------|---------------------------------------------|
D|------------------------|-------8--8------------------|-1------|-0------|--------------5--5--5------------------------|
A|-------5----5--3--5--3--|-------------5---------------|--------|--------|------------------------------------5--5--5--|
E|-6----------------------|-5---------------6---3---5---|--------|--------|-3---3--3--3-----------3---3--3--3-----------|


E|---------------------------------------------|--------|--------|-----------------------------------------|
B|---------------------------------------------|-4------|-6------|-----------------------------------------|
G|---------------------------------------------|-3------|-5------|-----------5---------------5---------5---|
D|--------------5--5--5------------------------|-1------|-3------|-----------5---------------6---------6---|
A|------------------------------------5--5--5--|--------|--------|-3---3--3--3---3--3--3--3--3---3--3--3---|
E|-3---3--3--3-----------3---3--3--3-----------|--------|--------|-----------------------------------------|


E|-----------------------------------------|-------------------------------|------------------------|
B|-----------------------------------------|-------------------------------|-4----4---3---3----6----|
G|-5---------5---------------5---------5---|-------------5----5---5---5----|-3----3---3---3----5----|
D|-5---------5---------------6---------6---|-------------5----5---3---3----|-1----1---0---0----3----|
A|-3---3--3--3---3--3--3--3--3---3--3--3---|-3--3--3--3--3----3---1---1----|------------------------|
E|-----------------------------------------|-------------------------------|------------------------|


E|------------------|-----------------------------------------|-------------------------------------------|
B|-4----------------|-----------------------------------------|-------------------------------------------|
G|-3----------------|-5---------------5---------5---3---------|-5---------------5---------5---------------|
D|-1----------------|-5---------------6---------6---3---------|-5---------------6---------6---------------|
A|--------3---3--3--|-3---3--3--3--3--3---3--3--3---3---3--3--|-3---3--3--3--3--3---3--3--3---3--3--3--3--|
E|------------------|-----------------------------------------|-------------------------------------------|


E|-------------------------------------------|-------------------------------------------|
B|---------------------------------4---------|-------3---------------6---------4---------|
G|-5---------------5---------------3---------|-------3---------------5---------3---------|
D|-5---------------3---------------1---1--1--|-1--1--0---0--0--0--0--3---3--3--1---1--1--|
A|-3---3--3--3--3--1---1--1--1--1------------|-------------------------------------------|
E|-------------------------------------------|-------------------------------------------|


E|---------------------------------------------|-----------------------------------------|
B|---------------------------------------------|-----------------------------------------|
G|-----------------------------------5---------|-------5---------5---3---------5---------|
D|-1--1--1--1--1--1--1--1------------5---------|-------6---------6---3---------5---------|
A|-------------------------3---3--3--3---3--3--|-3--3--3---3--3--3---3---3--3--3---3--3--|
E|---------------------------------------------|-----------------------------------------|


E|--------------------------------------|---------------------------|-----------------|
B|--------------------------------------|--------------4----4---3---|-3----6----4-----|
G|-------5---------5---------------5----|-5---5---5----3----3---3---|-3----5----3-----|
D|-------6---------6---------------5----|-5---3---3----1----1---0---|-0----3----1-----|
A|-3--3--3---3--3--3---3--3--3--3--3----|-3---1---1-----------------|-----------------|
E|--------------------------------------|---------------------------|-----------------|


E|------------------------------------|-----------------------------------------|-------------------------------------------|
B|------------------------------------|-----------------------------------------|-------------------------------------------|
G|----------------5---------------5---|-------5---5---------5---------------5---|-------5---------------5---------------5---|
D|----------------5---------------6---|-------6---5---------5---------------6---|-------6---------------5---------------3---|
A|------3---3--3--3---3--3--3--3--3---|-3--3--3---3---3--3--3---3--3--3--3--3---|-3--3--3---3--3--3--3--3---3--3--3--3--1---|
E|------------------------------------|-----------------------------------------|-------------------------------------------|


E|---------------------------------------------|---------------------------------------------|
B|-------------4---------------3---------------|-6---------4---------------------------------|
G|-------------3---------------3---------------|-5---------3---------------------------------|
D|-------------1---1--1--1--1--0---0--0--0--0--|-3---3--3--1---1--1--1--1--1--1--1--1--1--1--|
A|-1--1--1--1----------------------------------|---------------------------------------------|
E|---------------------------------------------|---------------------------------------------|


E|---------------------------------|-----------------------------------------|----------------|
B|---------------------------------|-----------------------------------------|----------------|
G|---------------------------------|-----------------8---7---5-------5---7---|-7--------------|
D|-------------5---3-------8---6---|-5-------5---6---------------8-----------|----------------|
A|-3---5---6-----------6-----------|-----8-----------------------------------|----------------|
E|---------------------------------|-----------------------------------------|----------------|


E|-----------------------------------------|-----------------------------------------|
B|-----------------------------------------|-----------------------------------------|
G|-----------5---------------5---------5---|-3---------5---------------5---------5---|
D|-----------5---------------6---------6---|-3---------5---------------6---------6---|
A|-3---3--3--3---3--3--3--3--3---3--3--3---|-3---3--3--3---3--3--3--3--3---3--3--3---|
E|-----------------------------------------|-----------------------------------------|


E|-------------------------------|------------------------|------------------|-----------------------------------------|
B|-------------------------------|-4----4---3---3----6----|-4----------------|-----------------------------------------|
G|-------------5----5---5---5----|-3----3---3---3----5----|-3----------------|-5---------------5---------5---5---------|
D|-------------5----5---3---3----|-1----1---0---0----3----|-1----------------|-5---------------6---------6---5---------|
A|-3--3--3--3--3----3---1---1----|------------------------|--------3---3--3--|-3---3--3--3--3--3---3--3--3---3---3--3--|
E|-------------------------------|------------------------|------------------|-----------------------------------------|


E|-------------------------------------------|-------------------------------------------|
B|-------------------------------------------|---------------------------------4---------|
G|-5---------------5---------5---------------|-5---------------5---------------3---------|
D|-5---------------6---------6---------------|-5---------------3---------------1---1--1--|
A|-3---3--3--3--3--3---3--3--3---3--3--3--3--|-3---3--3--3--3--1---1--1--1--1------------|
E|-------------------------------------------|-------------------------------------------|


E|-------------------------------------------|-------------------------------------------------|
B|-------3---------------6---------4---------|-------------------------------------------------|
G|-------3---------------5---------3---------|-------------------------------------------------|
D|-1--1--0---0--0--0--0--3---3--3--1---1--1--|-1--1--1--1--1--1--1--1--10----------12----------|
A|-------------------------------------------|----------------------------10-10-10----10-10-10-|
E|-------------------------------------------|-------------------------------------------------|


E|-------------------------------------------------|-------------------------------------------------|
B|-------------------------------------------------|-------------------------------------------------|
G|-------------------------------------------------|-------------------------------------------------|
D|-13----------12----------10----------12----------|-13----------12----------10----------12----------|
A|----10-10-10----10-10-10----11-11-11----11-11-11-|----11-11-11----11-11-11----12-12-12----12-12-12-|
E|-------------------------------------------------|-------------------------------------------------|


E|-------------------------------------------------|-------------------------------------------------|
B|-------------------------------------------------|-------------------------------------------------|
G|-------------------------------------------------|-------------------------12----------12----------|
D|-13----------12----------15----------15----------|-13----------15-------------13----13----13----13-|
A|----12-12-12----12-12-12----13-13-13----13-13-13-|----14-14-14----14-14-14-------15----------15----|
E|-------------------------------------------------|-------------------------------------------------|


E|-------------------------------------------------|-------------------------------------------------|
B|-------------------------------------------------|-------------------------------------------------|
G|-12----------12----------13----------13----------|-13----------13----------14----------14----------|
D|----13----13----13----13----13----13----13----13-|----13----13----13----13----13----13----13----13-|
A|-------15----------15----------15----------15----|-------15----------15----------15----------15----|
E|-------------------------------------------------|-------------------------------------------------|


E|-------------------------------------------------|-------------------------------------------------|
B|-------------------------11----------11----------|-12----------12----------------------------------|
G|-14----------14-------------10----10----10----10-|----10----10----10----10-------------------------|
D|----13----13----13----13-------12----------12----|-------12----------12----------------------------|
A|-------15----------15----------------------------|-------------------------6--5-----------------8--|
E|-------------------------------------------------|-------------------------------8--6--8--10-11----|


E|-------------------------------------------------|-------------------------------------------------|
B|-------------------------------------------------|-------------------------------------------------|
G|-------------------------------------------------|-------------------------------------12----------|
D|----------------------------------------------10-|-12-10----------10-12-13-15-13-12-------15-13-12-|
A|-10----------------10-11-13-11-10----10-11-13----|-------13-11-13-------------------15-------------|
E|----13-11-10-11-13----------------13-------------|-------------------------------------------------|


E|-------------------------------------------------|-11----------13-11-------15-15-15-15-15-15-15-15-15-15-|
B|-------------------------13----------15-13-------|----15-13-11-------15-13-------------------------------|
G|-13-12-------15-13-12-------15-13-12-------15-13-|-------------------------------------------------------|
D|-------15-13----------15-------------------------|-------------------------------------------------------|
A|-------------------------------------------------|-------------------------------------------------------|
E|-------------------------------------------------|-------------------------------------------------------|


E|-15-15-15-15-15-15-15-15-15-15-16-16-16-16-16-16-16-16-16-16-|-16-16-16-16-16-16-16-16-16-16-17-17-17-17-17-17-17-17-17-17-|
B|-------------------------------------------------------------|-------------------------------------------------------------|
G|-------------------------------------------------------------|-------------------------------------------------------------|
D|-------------------------------------------------------------|-------------------------------------------------------------|
A|-------------------------------------------------------------|-------------------------------------------------------------|
E|-------------------------------------------------------------|-------------------------------------------------------------|


E|-17-17-17-17-17-17-17-17-17-17-18-18-18-18-18-18-18-18-18-18-|-19-19-19-19-19-19-19-19-19-19-22----|
B|-------------------------------------------------------------|-------------------------------------|
G|-------------------------------------------------------------|-------------------------------------|
D|-------------------------------------------------------------|-------------------------------------|
A|-------------------------------------------------------------|-------------------------------------|
E|-------------------------------------------------------------|-------------------------------------|


E|-------23---23--23--|-23----23----|--------------------|-----------------|-------------|
B|--------------------|-------------|-------4----4---3---|-3----6----4-----|-------------|
G|--------------------|-------------|-------3----3---3---|-3----5----3-----|-------------|
D|--------------------|-------------|-------1----1---0---|-0----3----1-----|------3------|
A|--------------------|-------------|--------------------|-----------------|------1------|
E|--------------------|-------------|--------------------|-----------------|------1------|


E|-------------|-----------------|--------|--------|--------|--------|--------|--------|
B|-------------|-----------------|--------|--------|--------|--------|--------|--------|
G|-------------|-----------------|--------|--------|--------|--------|--------|--------|
D|------3------|------3----------|--------|--------|--------|--------|--------|--------|
A|------1------|------1----------|--------|--------|--------|--------|--------|--------|
E|------1------|------1----------|--------|--------|--------|--------|--------|--------|


E|--------|--------|--------|--------|--------|--------|--------|--------|--------|
B|--------|--------|--------|--------|--------|--------|--------|--------|--------|
G|--------|--------|--------|--------|--------|--------|--------|--------|--------|
D|--------|--------|--------|--------|--------|--------|--------|--------|--------|
A|--------|--------|--------|--------|--------|--------|--------|--------|--------|
E|--------|--------|--------|--------|--------|--------|--------|--------|--------|


E|--------|--------|--------|--------|--------|--------|--------|--------|--------|
B|--------|--------|--------|--------|--------|--------|--------|--------|--------|
G|--------|--------|--------|--------|--------|--------|--------|--------|--------|
D|--------|--------|--------|--------|--------|--------|--------|--------|--------|
A|--------|--------|--------|--------|--------|--------|--------|--------|--------|
E|--------|--------|--------|--------|--------|--------|--------|--------|--------|


E|--------|--------|-----------------------|-----------------------------------|--------------------|
B|--------|--------|---------------3-------|-----4---------3-----------3-------|-----4---4----------|
G|--------|--------|-------5---5---5-------|-----5---------5-----------5-------|-----5---5----3-----|
D|--------|--------|-------5---5---5-------|-----5---------5-----------5-------|-----5---5----3-----|
A|--------|--------|-------3---3-------3---|-3-------3--3------3---3-------3---|-3------------1-----|
E|--------|--------|-----------------------|-----------------------------------|--------------------|


E|-------------|-----------------------|-----------------------------------|--------------------|
B|-------------|---------------3-------|-----4---------3-----------3-------|-----4---4----------|
G|-------------|-------5---5---5-------|-----5---------5-----------5-------|-----5---5----------|
D|-------5-----|-------5---5---5-------|-----5---------5-----------5-------|-----5---5----6-----|
A|-------5-----|-------3---3-------3---|-3-------3--3------3---3-------3---|-3------------6-----|
E|-------3-----|-----------------------|-----------------------------------|--------------4-----|


E|-------------|---------------------------|----------------------------------|--------------------|
B|-------------|---------------------------|----------------------------------|-4---3---3----------|
G|-------3-----|-------5---------3---------|-3---5---5----5---------3---------|-5---5---5----3-----|
D|-------3-----|-------5---------3---------|-3---5---5----5---------3---------|-5---5---5----3-----|
A|-------1-----|-------3---3--3--1---1--1--|-1---3---3----3---3--3--1---1--1--|--------------1-----|
E|-------------|---------------------------|----------------------------------|--------------------|


E|-------------|---------------------------|-------------------------------|-------------------------------|
B|-------------|---------------------------|-------------------4--4--4--4--|-4--4--4--4--4--4--4--4--------|
G|-------------|-------5---------3---------|-3---5---5---------------------|-------------------------------|
D|-------5-----|-------5---------3---------|-3---5---5---------------------|-------------------------6-----|
A|-------5-----|-------3---3--3--1---1--1--|-1---3---3---------------------|-------------------------6-----|
E|-------3-----|---------------------------|-------------------------------|-------------------------4-----|


E|-------------|-------------|-------------|-------------|-------------|-------------|
B|-------------|-------------|-------------|-------------|-------------|-------------|
G|-------3-----|-------2-----|-------2-----|-------------|-------2-----|-------2-----|
D|-------3-----|-------0-----|-------0-----|-------5-----|-------2-----|-------0-----|
A|-------1-----|-------0-----|-------0-----|-------3-----|-------0-----|-------0-----|
E|-------------|-------------|-------------|-------3-----|-------------|-------------|


E|-------------|-------------|-------------|-----------------|-----------------|-----------------|
B|-------------|-------------|-------------|-----------------|-----------------|-----------------|
G|-------2-----|-------3-----|-------5-----|-------5---2-----|-----------2-----|-----------------|
D|-------0-----|-------3-----|-------5-----|-------5---0-----|-----------0-----|-----------5-----|
A|-------0-----|-------1-----|-------3-----|-------3---0-----|-----------0-----|-----------3-----|
E|-------------|-------------|-------------|-----------------|-----------------|-----------3-----|


E|-----------------|-----------------|-----------------|-----------------|-----------------|
B|-----------------|-----------------|-----------------|-----------------|-----------------|
G|-----------2-----|-----------2-----|-----------2-----|-----------3-----|-----------5-----|
D|-----------2-----|-----------0-----|-----------0-----|-----------3-----|-----------5-----|
A|-----------0-----|-----------0-----|-----------0-----|-----------1-----|-----------3-----|
E|-----------------|-----------------|-----------------|-----------------|-----------------|


E|-----------------------|---------------------------------------------|-----------------------------------------|
B|-----------------------|---------------------------------------------|-----------------------------------------|
G|-----------5-----------|--------5-------5-------5-------5----5---5---|-----------------------------------------|
D|-----------3-----------|--------3-------3-------3-------3----3---3---|-----8----------------8-------8-------8--|
A|-----------1----1---1--|----1---1-------1-------1-------1----1---1---|-----6----------------6-------6-------6--|
E|-----------------------|---------------------------------------------|-----4----4---4---4---4-------4-------4--|


E|----------------------------------|---------------------------------------------|
B|----------------------4-----------|--------4-------4-------4-------4----4---4---|
G|----------------------3-----------|--------3-------3-------3-------3----3---3---|
D|--------8----8---8----5-----------|--------5-------5-------5-------5----5---5---|
A|--------6----6---6----3----3---3--|----3---3-------3-------3-------3----3---3---|
E|--------4----4---4----------------|---------------------------------------------|


E|-----------------------------------------|----------------------------------|---------------------------------------------|
B|-----3----------------3-------3-------3--|--------3----3---3----6-----------|--------6-------6-------6-------6----6---6---|
G|-----3----------------3-------3-------3--|--------3----3---3----5-----------|--------5-------5-------5-------5----5---5---|
D|-----5----------------5-------5-------5--|--------5----5---5----3-----------|--------3-------3-------3-------3----3---3---|
A|-----3----3---3---3---3-------3-------3--|--------3----3---3----3----3---3--|----3---3-------3-------3-------3----3---3---|
E|-----------------------------------------|----------------------------------|---------------------------------------------|


E|-----------------------------------------|----------------------3-----------|--------3-------3-------3-------3----3---3---|
B|-----4----------------4-------4-------4--|--------4----4---4----3-----------|--------3-------3-------3-------3----3---3---|
G|-----5----------------5-------5-------5--|--------5----5---5----5-----------|--------5-------5-------5-------5----5---5---|
D|-----5----------------5-------5-------5--|--------5----5---5----5-----------|--------5-------5-------5-------5----5---5---|
A|-----3----3---3---3---3-------3-------3--|--------3----3---3----3-----------|--------3-------3-------3-------3----3---3---|
E|-----------------------------------------|----------------------3----3---3--|----3---3-------3-------3-------3----3---3---|


E|-----1----------------1-------1-------1--|--------1----1---1----------------|------------------------------------------------|
B|-----1----------------1-------1-------1--|--------1----1---1----------------|------------------------------------------------|
G|-----3----------------3-------3-------3--|--------3----3---3----3-----------|--------3-------3-------3-------3-------3---3---|
D|-----3----------------3-------3-------3--|--------3----3---3----3-----------|--------3-------3-------3-------3-------3---3---|
A|-----1----------------1-------1-------1--|--------1----1---1----1----1---1--|----1---1-------1-------1-------1-------1---1---|
E|-----1----1---1---1---1-------1-------1--|--------1----1---1----------------|------------------------------------------------|





Track 4: Acoustic 1

E|--------|--------|--------|--------|--------|--------|--------|--------|--------|
B|--------|--------|--------|--------|--------|--------|--------|--------|--------|
G|--------|--------|--------|--------|--------|--------|--------|--------|--------|
D|--------|--------|--------|--------|--------|--------|--------|--------|--------|
A|--------|--------|--------|--------|--------|--------|--------|--------|--------|
E|--------|--------|--------|--------|--------|--------|--------|--------|--------|


E|--------|--------|--------|--------|--------|--------|--------|--------|-------------|
B|--------|--------|--------|--------|--------|--------|--------|--------|-------------|
G|--------|--------|--------|--------|--------|--------|--------|--------|-------------|
D|--------|--------|--------|--------|--------|--------|--------|--------|-------------|
A|--------|--------|--------|--------|--------|--------|--------|--------|-------------|
E|--------|--------|--------|--------|--------|--------|--------|--------|-------------|


E|-------------|--------|--------|--------|--------|--------|--------|--------|--------|
B|-------------|--------|--------|--------|--------|--------|--------|--------|--------|
G|-------------|--------|--------|--------|--------|--------|--------|--------|--------|
D|-------------|--------|--------|--------|--------|--------|--------|--------|--------|
A|-------------|--------|--------|--------|--------|--------|--------|--------|--------|
E|-------------|--------|--------|--------|--------|--------|--------|--------|--------|


E|--------|--------|--------|--------|--------|--------|--------|--------|--------|
B|--------|--------|--------|--------|--------|--------|--------|--------|--------|
G|--------|--------|--------|--------|--------|--------|--------|--------|--------|
D|--------|--------|--------|--------|--------|--------|--------|--------|--------|
A|--------|--------|--------|--------|--------|--------|--------|--------|--------|
E|--------|--------|--------|--------|--------|--------|--------|--------|--------|


E|--------|--------|--------|--------|--------|--------|--------|--------|--------|
B|--------|--------|--------|--------|--------|--------|--------|--------|--------|
G|--------|--------|--------|--------|--------|--------|--------|--------|--------|
D|--------|--------|--------|--------|--------|--------|--------|--------|--------|
A|--------|--------|--------|--------|--------|--------|--------|--------|--------|
E|--------|--------|--------|--------|--------|--------|--------|--------|--------|


E|--------|--------|--------|--------|--------|--------|--------|--------|--------|
B|--------|--------|--------|--------|--------|--------|--------|--------|--------|
G|--------|--------|--------|--------|--------|--------|--------|--------|--------|
D|--------|--------|--------|--------|--------|--------|--------|--------|--------|
A|--------|--------|--------|--------|--------|--------|--------|--------|--------|
E|--------|--------|--------|--------|--------|--------|--------|--------|--------|


E|--------|--------|--------|--------|--------|--------|--------|--------|--------|
B|--------|--------|--------|--------|--------|--------|--------|--------|--------|
G|--------|--------|--------|--------|--------|--------|--------|--------|--------|
D|--------|--------|--------|--------|--------|--------|--------|--------|--------|
A|--------|--------|--------|--------|--------|--------|--------|--------|--------|
E|--------|--------|--------|--------|--------|--------|--------|--------|--------|


E|--------|--------|--------|--------|--------|--------|--------|--------|--------|
B|--------|--------|--------|--------|--------|--------|--------|--------|--------|
G|--------|--------|--------|--------|--------|--------|--------|--------|--------|
D|--------|--------|--------|--------|--------|--------|--------|--------|--------|
A|--------|--------|--------|--------|--------|--------|--------|--------|--------|
E|--------|--------|--------|--------|--------|--------|--------|--------|--------|


E|--------|--------|--------|--------|--------|--------|--------|--------|--------|
B|--------|--------|--------|--------|--------|--------|--------|--------|--------|
G|--------|--------|--------|--------|--------|--------|--------|--------|--------|
D|--------|--------|--------|--------|--------|--------|--------|--------|--------|
A|--------|--------|--------|--------|--------|--------|--------|--------|--------|
E|--------|--------|--------|--------|--------|--------|--------|--------|--------|


E|--------|--------|--------|--------|--------|--------|--------|--------|--------|
B|--------|--------|--------|--------|--------|--------|--------|--------|--------|
G|--------|--------|--------|--------|--------|--------|--------|--------|--------|
D|--------|--------|--------|--------|--------|--------|--------|--------|--------|
A|--------|--------|--------|--------|--------|--------|--------|--------|--------|
E|--------|--------|--------|--------|--------|--------|--------|--------|--------|


E|--------|--------|--------|--------|--------|--------|--------|--------|--------|
B|--------|--------|--------|--------|--------|--------|--------|--------|--------|
G|--------|--------|--------|--------|--------|--------|--------|--------|--------|
D|--------|--------|--------|--------|--------|--------|--------|--------|--------|
A|--------|--------|--------|--------|--------|--------|--------|--------|--------|
E|--------|--------|--------|--------|--------|--------|--------|--------|--------|


E|--------|--------|--------|--------|--------|--------|--------|--------|--------|
B|--------|--------|--------|--------|--------|--------|--------|--------|--------|
G|--------|--------|--------|--------|--------|--------|--------|--------|--------|
D|--------|--------|--------|--------|--------|--------|--------|--------|--------|
A|--------|--------|--------|--------|--------|--------|--------|--------|--------|
E|--------|--------|--------|--------|--------|--------|--------|--------|--------|


E|--------|--------|--------|--------|--------|--------|--------|--------|--------|
B|--------|--------|--------|--------|--------|--------|--------|--------|--------|
G|--------|--------|--------|--------|--------|--------|--------|--------|--------|
D|--------|--------|--------|--------|--------|--------|--------|--------|--------|
A|--------|--------|--------|--------|--------|--------|--------|--------|--------|
E|--------|--------|--------|--------|--------|--------|--------|--------|--------|


E|--------|--------|--------|--------|--------|--------|--------|--------|--------|
B|--------|--------|--------|--------|--------|--------|--------|--------|--------|
G|--------|--------|--------|--------|--------|--------|--------|--------|--------|
D|--------|--------|--------|--------|--------|--------|--------|--------|--------|
A|--------|--------|--------|--------|--------|--------|--------|--------|--------|
E|--------|--------|--------|--------|--------|--------|--------|--------|--------|


E|--------|--------|--------|--------|--------|--------|--------|--------|--------|
B|--------|--------|--------|--------|--------|--------|--------|--------|--------|
G|--------|--------|--------|--------|--------|--------|--------|--------|--------|
D|--------|--------|--------|--------|--------|--------|--------|--------|--------|
A|--------|--------|--------|--------|--------|--------|--------|--------|--------|
E|--------|--------|--------|--------|--------|--------|--------|--------|--------|


E|--------|--------|--------|--------|--------|--------|--------|--------|--------|
B|--------|--------|--------|--------|--------|--------|--------|--------|--------|
G|--------|--------|--------|--------|--------|--------|--------|--------|--------|
D|--------|--------|--------|--------|--------|--------|--------|--------|--------|
A|--------|--------|--------|--------|--------|--------|--------|--------|--------|
E|--------|--------|--------|--------|--------|--------|--------|--------|--------|


E|--------|--------|--------|--------|--------|--------|--------|--------|--------|
B|--------|--------|--------|--------|--------|--------|--------|--------|--------|
G|--------|--------|--------|--------|--------|--------|--------|--------|--------|
D|--------|--------|--------|--------|--------|--------|--------|--------|--------|
A|--------|--------|--------|--------|--------|--------|--------|--------|--------|
E|--------|--------|--------|--------|--------|--------|--------|--------|--------|


E|--------|--------|--------|--------|--------|--------|--------|--------|--------|
B|--------|--------|--------|--------|--------|--------|--------|--------|--------|
G|--------|--------|--------|--------|--------|--------|--------|--------|--------|
D|--------|--------|--------|--------|--------|--------|--------|--------|--------|
A|--------|--------|--------|--------|--------|--------|--------|--------|--------|
E|--------|--------|--------|--------|--------|--------|--------|--------|--------|


E|--------|--------|--------|--------|--------|--------|--------|--------|--------|
B|--------|--------|--------|--------|--------|--------|--------|--------|--------|
G|--------|--------|--------|--------|--------|--------|--------|--------|--------|
D|--------|--------|--------|--------|--------|--------|--------|--------|--------|
A|--------|--------|--------|--------|--------|--------|--------|--------|--------|
E|--------|--------|--------|--------|--------|--------|--------|--------|--------|


E|--------|--------|--------|--------|--------|--------|--------|--------|--------|
B|--------|--------|--------|--------|--------|--------|--------|--------|--------|
G|--------|--------|--------|--------|--------|--------|--------|--------|--------|
D|--------|--------|--------|--------|--------|--------|--------|--------|--------|
A|--------|--------|--------|--------|--------|--------|--------|--------|--------|
E|--------|--------|--------|--------|--------|--------|--------|--------|--------|


E|--------|--------|--------|--------|--------|--------|--------|--------|--------|
B|--------|--------|--------|--------|--------|--------|--------|--------|--------|
G|--------|--------|--------|--------|--------|--------|--------|--------|--------|
D|--------|--------|--------|--------|--------|--------|--------|--------|--------|
A|--------|--------|--------|--------|--------|--------|--------|--------|--------|
E|--------|--------|--------|--------|--------|--------|--------|--------|--------|


E|--------|--------|--------|--------|--------|--------|--------|--------|--------|
B|--------|--------|--------|--------|--------|--------|--------|--------|--------|
G|--------|--------|--------|--------|--------|--------|--------|--------|--------|
D|--------|--------|--------|--------|--------|--------|--------|--------|--------|
A|--------|--------|--------|--------|--------|--------|--------|--------|--------|
E|--------|--------|--------|--------|--------|--------|--------|--------|--------|


E|--------|--------|--------|--------|--------|--------|--------|--------|--------|
B|--------|--------|--------|--------|--------|--------|--------|--------|--------|
G|--------|--------|--------|--------|--------|--------|--------|--------|--------|
D|--------|--------|--------|--------|--------|--------|--------|--------|--------|
A|--------|--------|--------|--------|--------|--------|--------|--------|--------|
E|--------|--------|--------|--------|--------|--------|--------|--------|--------|


E|--------|--------|--------|--------|--------|--------|--------|--------|--------|
B|--------|--------|--------|--------|--------|--------|--------|--------|--------|
G|--------|--------|--------|--------|--------|--------|--------|--------|--------|
D|--------|--------|--------|--------|--------|--------|--------|--------|--------|
A|--------|--------|--------|--------|--------|--------|--------|--------|--------|
E|--------|--------|--------|--------|--------|--------|--------|--------|--------|


E|--------|--------|--------|--------|--------|--------|--------|--------|--------|
B|--------|--------|--------|--------|--------|--------|--------|--------|--------|
G|--------|--------|--------|--------|--------|--------|--------|--------|--------|
D|--------|--------|--------|--------|--------|--------|--------|--------|--------|
A|--------|--------|--------|--------|--------|--------|--------|--------|--------|
E|--------|--------|--------|--------|--------|--------|--------|--------|--------|


E|--------|--------|--------|--------|--------|--------|--------|--------|--------|
B|--------|--------|--------|--------|--------|--------|--------|--------|--------|
G|--------|--------|--------|--------|--------|--------|--------|--------|--------|
D|--------|--------|--------|--------|--------|--------|--------|--------|--------|
A|--------|--------|--------|--------|--------|--------|--------|--------|--------|
E|--------|--------|--------|--------|--------|--------|--------|--------|--------|


E|--------|--------|--------|--------|--------|--------|--------|--------|--------|
B|--------|--------|--------|--------|--------|--------|--------|--------|--------|
G|--------|--------|--------|--------|--------|--------|--------|--------|--------|
D|--------|--------|--------|--------|--------|--------|--------|--------|--------|
A|--------|--------|--------|--------|--------|--------|--------|--------|--------|
E|--------|--------|--------|--------|--------|--------|--------|--------|--------|


E|--------|--------|--------|--------|--------|--------|--------|--------|--------|
B|--------|--------|--------|--------|--------|--------|--------|--------|--------|
G|--------|--------|--------|--------|--------|--------|--------|--------|--------|
D|--------|--------|--------|--------|--------|--------|--------|--------|--------|
A|--------|--------|--------|--------|--------|--------|--------|--------|--------|
E|--------|--------|--------|--------|--------|--------|--------|--------|--------|


E|--------|--------|--------|--------|--------|--------|--------|--------|--------|
B|--------|--------|--------|--------|--------|--------|--------|--------|--------|
G|--------|--------|--------|--------|--------|--------|--------|--------|--------|
D|--------|--------|--------|--------|--------|--------|--------|--------|--------|
A|--------|--------|--------|--------|--------|--------|--------|--------|--------|
E|--------|--------|--------|--------|--------|--------|--------|--------|--------|


E|--------|--------|--------|--------|
B|--------|--------|--------|--------|
G|--------|--------|--------|--------|
D|--------|--------|--------|--------|
A|--------|--------|--------|--------|
E|--------|--------|--------|--------|





Track 5: String

E|--------|--------|--------|--------|--------|--------|--------|--------|--------|
B|--------|--------|--------|--------|--------|--------|--------|--------|--------|
G|--------|--------|--------|--------|--------|--------|--------|--------|--------|
D|--------|--------|--------|--------|--------|--------|--------|--------|--------|
A|--------|--------|--------|--------|--------|--------|--------|--------|--------|
E|--------|--------|--------|--------|--------|--------|--------|--------|--------|


E|--------|--------|--------|--------|--------|--------|--------|--------|--------|
B|--------|--------|--------|--------|--------|--------|--------|--------|--------|
G|--------|--------|--------|--------|--------|--------|--------|--------|--------|
D|--------|--------|--------|--------|--------|--------|--------|--------|--------|
A|--------|--------|--------|--------|--------|--------|--------|--------|--------|
E|--------|--------|--------|--------|--------|--------|--------|--------|--------|


E|--------|--------|--------|--------|--------|-------------|-------------|-------------|
B|--------|--------|--------|--------|--------|-------------|-------------|-------------|
G|--------|--------|--------|--------|--------|-------------|-------------|-------------|
D|--------|--------|--------|--------|--------|-------------|-------------|--------5----|
A|--------|--------|--------|--------|--------|-------------|-------------|-------------|
E|--------|--------|--------|--------|--------|-------------|-------------|--------3----|


E|-27------27--27------------|-------------|-27------27--27------------|-29-------25--25--25-------|
B|---------------------------|-------------|---------------------------|---------------------------|
G|---------------------------|-------------|---------------------------|---------------------------|
D|-5---5---5---5---5----5----|--------5----|-5---5---5---5---5----5----|-5----5---5---5---5---5----|
A|---------------------------|-------------|---------------------------|---------------------------|
E|-3---3---3---3---3----3----|--------3----|-3---3---3---3---3----3----|-3----3---3---3---3---3----|


E|-27------27--27------------|-------------|-27------27--27-----------23--|-----22------18------15--27--27--|
B|---------------------------|-------------|------------------------------|---------------------------------|
G|---------------------------|-------------|------------------------------|---------------------------------|
D|-5---5---5---5---5----5----|--------5----|-5---5---5---5---5----5---5---|-5---5---5---5---5---5---5---5---|
A|---------------------------|-------------|------------------------------|---------------------------------|
E|-3---3---3---3---3----3----|--------3----|-3---3---3---3---3----3---3---|-3---3---3---3---3---3---3---3---|


E|-22--27--25--22--27--27--22--27--|-22--18--29--29--29--27--27--27--|-22--27--25--22--27--25------23--|
B|---------------------------------|---------------------------------|---------------------------------|
G|---------------------------------|---------------------------------|---------------------------------|
D|-5---5---5---5---5---5---5---5---|-5---5---5---5---5---5---5---5---|-5---5---5---5---5---5---5---5---|
A|---------------------------------|---------------------------------|---------------------------------|
E|-3---3---3---3---3---3---3---3---|-3---3---3---3---3---3---3---3---|-3---3---3---3---3---3---3---3---|


E|-----22------18------15--27--27--|-22--27--25--22--27--27--22--27--|-22--18--29--29--29--27--27--27--|
B|---------------------------------|---------------------------------|---------------------------------|
G|---------------------------------|---------------------------------|---------------------------------|
D|-5---5---5---5---5---5---5---5---|-5---5---5---5---5---5---5---5---|-5---5---5---5---5---5---5---5---|
A|---------------------------------|---------------------------------|---------------------------------|
E|-3---3---3---3---3---3---3---3---|-3---3---3---3---3---3---3---3---|-3---3---3---3---3---3---3---3---|


E|-22--27--25--22--27--25--22--20--|-20-------------|-22----------20--3-----|-------3-----|
B|-------------------------23--23--|-23---------20--|---------18------3-----|-------3-----|
G|-----------------------------22--|-22-----17------|-----15----------0-----|-------0-----|
D|-5---5---5---5---5---5-----------|----------------|-----------------------|-------------|
A|---------------------------------|----------------|-----------------------|-------------|
E|-3---3---3---3---3---3-----------|----------------|-----------------------|-------------|


E|-------1-----|-------1-----|-------3-----|-------3-----|-------1-----|-------1-----|
B|-------1-----|-------1-----|-------3-----|-------3-----|-------3-----|-------3-----|
G|-------2-----|-------2-----|-------0-----|-------0-----|-------2-----|-------2-----|
D|-------------|-------------|-------------|-------------|-------------|-------------|
A|-------------|-------------|-------------|-------------|-------------|-------------|
E|-------------|-------------|-------------|-------------|-------------|-------------|


E|--------|--------|--------|--------|--------|--------|--------|--------|--------|
B|--------|--------|--------|--------|--------|--------|--------|--------|--------|
G|--------|--------|--------|--------|--------|--------|--------|--------|--------|
D|--------|--------|--------|--------|--------|--------|--------|--------|--------|
A|--------|--------|--------|--------|--------|--------|--------|--------|--------|
E|--------|--------|--------|--------|--------|--------|--------|--------|--------|


E|--------|--------|--------|--------|--------|--------|--------|-------22----|-------22----|
B|--------|--------|--------|--------|--------|--------|--------|-------20----|-------20----|
G|--------|--------|--------|--------|--------|--------|--------|-------------|-------------|
D|--------|--------|--------|--------|--------|--------|--------|-------------|-------------|
A|--------|--------|--------|--------|--------|--------|--------|-------------|-------------|
E|--------|--------|--------|--------|--------|--------|--------|-------------|-------------|


E|-------20----|-------20----|-------22----|-------22----|-------23----|-------25----|
B|-------18----|-------18----|-------20----|-------20----|-------20----|-------22----|
G|-------------|-------------|-------------|-------------|-------------|-------------|
D|-------------|-------------|-------------|-------------|-------------|-------------|
A|-------------|-------------|-------------|-------------|-------------|-------------|
E|-------------|-------------|-------------|-------------|-------------|-------------|


E|-------22----|-------22----|-------20----|-------20----|-------22----|-------22----|
B|-------20----|-------20----|-------18----|-------18----|-------20----|-------20----|
G|-------------|-------------|-------------|-------------|-------------|-------------|
D|-------------|-------------|-------------|-------------|-------------|-------------|
A|-------------|-------------|-------------|-------------|-------------|-------------|
E|-------------|-------------|-------------|-------------|-------------|-------------|


E|-------23----|-------25----|---------------22------|-----20--27--27--22--27--25--22--|
B|-------20----|-------22----|-----------20----------|-18------------------------------|
G|-------------|-------------|-------17----------15--|---------------------------------|
D|-------------|-------------|-----------------------|---------5---5---5---5---5---5---|
A|-------------|-------------|-----------------------|---------------------------------|
E|-------------|-------------|-----------------------|---------3---3---3---3---3---3---|


E|-27--27--22--27--22--18--29--29--|-29--27--27--27--22--27--25--22--|-27--25------23------22------18--|
B|---------------------------------|---------------------------------|---------------------------------|
G|---------------------------------|---------------------------------|---------------------------------|
D|-5---5---5---5---5---5---5---5---|-5---5---5---5---5---5---5---5---|-5---5---5---5---5---5---5---5---|
A|---------------------------------|---------------------------------|---------------------------------|
E|-3---3---3---3---3---3---3---3---|-3---3---3---3---3---3---3---3---|-3---3---3---3---3---3---3---3---|


E|-----15---------|--------|--------|------22--20--20----|--------------18----------20--|
B|----------------|--------|--------|------23--23--23----|----------16----------18------|
G|----------------|--------|--------|----------22--22----|------13----------15----------|
D|-5---5----------|--------|--------|--------------------|------------------------------|
A|----------------|--------|--------|--------------------|------------------------------|
E|-3---3----------|--------|--------|--------------------|------------------------------|


E|-10-----|-8------|-10-----|-11----8-----|-10-----|-8------|-10-----|-15----13----|
B|-8------|-6------|-8------|-11----6-----|-8------|-6------|-8------|-16----13----|
G|--------|--------|--------|-------------|--------|--------|--------|-------------|
D|--------|--------|--------|-------------|--------|--------|--------|-------------|
A|--------|--------|--------|-------------|--------|--------|--------|-------------|
E|--------|--------|--------|-------------|--------|--------|--------|-------------|


E|---------27-27-27---------22-22-22-|---------27-27-27---------22-22-22-|-------------|
B|-----------------------------------|-----------------------------------|-13----12----|
G|-----------------------------------|-----------------------------------|-12----12----|
D|-----------------------------------|-----------------------------------|-------------|
A|-----------------------------------|-----------------------------------|-------------|
E|-----------------------------------|-----------------------------------|-------------|


E|--------|---------27-27-27---------22-22-22-|---------27-27-27--------------|--------|
B|-13-----|-----------------------------------|---------------------------13--|-15-----|
G|-12-----|-----------------------------------|---------------------------14--|-15-----|
D|--------|-----------------------------------|-------------------------------|--------|
A|--------|-----------------------------------|-------------------------------|--------|
E|--------|-----------------------------------|-------------------------------|--------|


E|-------------|---------27-27-27---------22-22-22-|---------27-27-27---------22-22-22-|
B|-13----15----|-----------------------------------|-----------------------------------|
G|-14----15----|-----------------------------------|-----------------------------------|
D|-------------|-----------------------------------|-----------------------------------|
A|-------------|-----------------------------------|-----------------------------------|
E|-------------|-----------------------------------|-----------------------------------|


E|-------------|--------|---------27-27-27---------22-22-22-|---------27-27-27--------------|
B|-13----12----|-13-----|-----------------------------------|---------------------------13--|
G|-12----12----|-12-----|-----------------------------------|---------------------------14--|
D|-------------|--------|-----------------------------------|-------------------------------|
A|-------------|--------|-----------------------------------|-------------------------------|
E|-------------|--------|-----------------------------------|-------------------------------|


E|--------|-------------|--------|--------|---------27-27-27---------22-22-22-|---------27-27-27-------|
B|-15-----|-13----15----|-16-----|-18-----|-----------------------------------|------------------------|
G|-15-----|-14----15----|-15-----|-17-----|-----------------------------------|------------------------|
D|--------|-------------|-17-----|-19-----|-----------------------------------|------------------------|
A|--------|-------------|--------|--------|-----------------------------------|------------------------|
E|--------|-------------|--------|--------|-----------------------------------|------------------------|


E|--------|--------|---------27-27-27---------22-22-22-|---------27-27-27---------22-22-22-|
B|-16-----|-18-----|-----------------------------------|-----------------------------------|
G|-15-----|-17-----|-----------------------------------|-----------------------------------|
D|-17-----|-19-----|-----------------------------------|-----------------------------------|
A|--------|--------|-----------------------------------|-----------------------------------|
E|--------|--------|-----------------------------------|-----------------------------------|


E|---------27-27-27---------22-22-22-|---------27-27-27---------22-22-22-|-------------|
B|-15---15-15-15-15-15---15-15-15-15-|-13---13-13-13-13-13---13-13-13-13-|-13----12----|
G|-15---15-15-15-15-15---15-15-15-15-|-14---14-14-14-14-14---14-14-14-14-|-12----12----|
D|-17---17-17-17-17-17---17-17-17-17-|-15---15-15-15-15-15---15-15-15-15-|-------------|
A|-----------------------------------|-----------------------------------|-------------|
E|-----------------------------------|-----------------------------------|-------------|


E|--------|---------27-27-27---------22-22-22-|---------27-27-27--------------|--------|
B|-13-----|-----------------------------------|---------------------------13--|-15-----|
G|-12-----|-----------------------------------|---------------------------14--|-15-----|
D|--------|-----------------------------------|-------------------------------|--------|
A|--------|-----------------------------------|-------------------------------|--------|
E|--------|-----------------------------------|-------------------------------|--------|


E|-------------|--------|--------|--------|--------|--------|--------|------------------------------|
B|-13----15----|-16-----|-18-----|--------|--------|-16-----|-18-----|------20----------21------21--|
G|-14----15----|-15-----|-17-----|--------|--------|-15-----|-17-----|------------------------------|
D|-------------|-17-----|-19-----|-5------|-5------|-17-----|-19-----|----------22--22------22------|
A|-------------|--------|--------|--------|--------|--------|--------|------------------------------|
E|-------------|--------|--------|-3------|-3------|--------|--------|------------------------------|


E|---------------------------------|------------------------|-------------------18---|
B|-20------20----------21------21--|------20---20--18--18---|-16---16--15--15--------|
G|---------------------------------|------20---20--20--20---|-15---15--15--15--------|
D|-------------22--22------22------|------22---22--20--20---|-17---17--17--17--------|
A|---------------------------------|------------------------|------------------------|
E|---------------------------------|------------------------|------------------------|


E|-----------------|---------------------------------|------------------------------|
B|-16----15--------|-20----------21------21--18------|-20----------21------21-------|
G|-----------------|---------------------------------|------------------------------|
D|-----------------|-----22--22------22--------------|-----22--22------22-----------|
A|-----------------|---------------------------------|------------------------------|
E|-----------------|---------------------------------|------------------------------|


E|------------------------|--------------18--------|------------------------|---------------------------------|
B|-20---20--18--18---16---|-16--15--15--------16---|------15--------20------|-----21------21--18------20------|
G|-20---20--20--20---15---|-15--15--15-------------|------------------------|---------------------------------|
D|-22---22--20--20---17---|-17--17--17-------------|--------------------22--|-22------22------------------22--|
A|------------------------|------------------------|------------------------|---------------------------------|
E|------------------------|------------------------|------------------------|---------------------------------|


E|---------------------------|---------------------------|------18---------|---------------------------|
B|-----21------21-------20---|-20--18--18---16---16--15--|-15--------16----|-15--------20----------21--|
G|----------------------20---|-20--20--20---15---15--15--|-15--------------|---------------------------|
D|-22------22-----------22---|-22--20--20---17---17--17--|-17--------------|---------------22--22------|
A|---------------------------|---------------------------|-----------------|---------------------------|
E|---------------------------|---------------------------|-----------------|---------------------------|


E|---------------------------------|---------------------------|------------------------|
B|-----21--20------20----------21--|-----21-------20---20--18--|-18---16---16--15--15---|
G|---------------------------------|--------------20---20--20--|-20---15---15--15--15---|
D|-22------------------22--22------|-22-----------22---22--20--|-20---17---17--17--17---|
A|---------------------------------|---------------------------|------------------------|
E|---------------------------------|---------------------------|------------------------|


E|-18--------------|--------|--------|--------|------------------------------|---------------------------------|
B|------16----15---|--------|--------|--------|------20----------21------21--|-18------20----------21------21--|
G|-----------------|--------|--------|--------|------------------------------|---------------------------------|
D|-----------------|--------|--------|--------|----------22--22------22------|-------------22--22------22------|
A|-----------------|--------|--------|--------|------------------------------|---------------------------------|
E|-----------------|--------|--------|--------|------------------------------|---------------------------------|


E|------------------------|-------------------18---|-----------------|---------------------------------|
B|------20---20--18--18---|-16---16--15--15--------|-16----15--------|-20----------21------21--20------|
G|------20---20--20--20---|-15---15--15--15--------|-----------------|---------------------------------|
D|------22---22--20--20---|-17---17--17--17--------|-----------------|-----22--22------22--------------|
A|------------------------|------------------------|-----------------|---------------------------------|
E|------------------------|------------------------|-----------------|---------------------------------|


E|------------------------------|------------------------|--------------18--------|
B|-20----------21------21-------|-20---20--18--18---16---|-16--15--15--------16---|
G|------------------------------|-20---20--20--20---15---|-15--15--15-------------|
D|-----22--22------22-----------|-22---22--20--20---17---|-17--17--17-------------|
A|------------------------------|------------------------|------------------------|
E|------------------------------|------------------------|------------------------|


E|-----------15--------|-------16----|------16--16--17--------|-------18----|-19----20--20--20--20--|
B|------15---16--------|-------16----|------16--16--16--------|-------18----|-18----20--20--20--20--|
G|---------------------|-------------|------------------------|-------------|-----------------------|
D|---------------------|-------------|------------------------|-------------|-----------------------|
A|---------------------|-------------|------------------------|-------------|-----------------------|
E|---------------------|-------------|------------------------|-------------|-----------------------|


E|-20--20--18--18--23--23--22--22--|-20--20--18--18--20--20--20--20--|-20--20--18--18--22--22--22--22--|
B|-20--20--20--20--21--21--21--21--|-21--21--21--21--22--22--22--22--|-22--22--22--22--23--23--23--23--|
G|---------------------------------|---------------------------------|---------------------------------|
D|---------------------------------|---------------------------------|---------------------------------|
A|---------------------------------|---------------------------------|---------------------------------|
E|---------------------------------|---------------------------------|---------------------------------|


E|-22--22--22--22--------|--------|--------|--------|--------|--------|--------|--------|
B|-24--24--24--24--------|--------|--------|--------|--------|--------|--------|--------|
G|-----------------------|--------|--------|--------|--------|--------|--------|--------|
D|-----------------------|--------|--------|--------|--------|--------|--------|--------|
A|-----------------------|--------|--------|--------|--------|--------|--------|--------|
E|-----------------------|--------|--------|--------|--------|--------|--------|--------|


E|--------|--------|--------|--------------------|------18---------|------18-----|
B|--------|--------|--------|-------16---16--15--|-15--------16----|-15----------|
G|--------|--------|--------|-------15---15--15--|-15--------------|-------------|
D|--------|--------|--------|-------17---17--17--|-17--------------|-------------|
A|--------|--------|--------|--------------------|-----------------|-------------|
E|--------|--------|--------|--------------------|-----------------|-------------|


E|------18-----|------18---------|--------|--------|--------|-------------|-------------|
B|-------------|-----------------|--------|--------|--------|-------------|-------------|
G|-------------|-----------------|--------|--------|--------|-------------|-------------|
D|-------------|-----------------|--------|--------|--------|-------------|-------------|
A|-------------|-----------------|--------|--------|--------|-------------|-------------|
E|-------------|-----------------|--------|--------|--------|-------------|-------------|


E|-------------|-------------|-29---29---29----|-------29----|-------29----|-------27----|
B|-------------|-------------|-----------------|-------------|-------------|-------------|
G|-------------|-------------|-----------------|-------------|-------------|-------------|
D|-------------|-------------|-----------------|-------------|-------------|-------------|
A|-------------|-------------|-----------------|-------------|-------------|-------------|
E|-------------|-------------|-----------------|-------------|-------------|-------------|


E|-------29----|-------29----|-------28----|-------29----|-------29----|-------29----|
B|-------------|-------------|-------------|-------------|-------------|-------------|
G|-------------|-------------|-------------|-------------|-------------|-------------|
D|-------------|-------------|-------------|-------------|-------------|-------------|
A|-------------|-------------|-------------|-------------|-------------|-------------|
E|-------------|-------------|-------------|-------------|-------------|-------------|


E|-------29----|-------27----|-------29----|-------29----|-------28----|-------29----|
B|-------------|-------------|-------------|-------------|-------------|-------------|
G|-------------|-------------|-------------|-------------|-------------|-------------|
D|-------------|-------------|-------------|-------------|-------------|-------------|
A|-------------|-------------|-------------|-------------|-------------|-------------|
E|-------------|-------------|-------------|-------------|-------------|-------------|


E|-------29----|-------29----|-------29----|--------|--------|--------|--------|--------|
B|-------------|-------------|-------------|--------|--------|--------|--------|--------|
G|-------------|-------------|-------------|--------|--------|--------|--------|--------|
D|-------------|-------------|-------------|--------|--------|--------|--------|--------|
A|-------------|-------------|-------------|--------|--------|--------|--------|--------|
E|-------------|-------------|-------------|--------|--------|--------|--------|--------|


E|--------|--------|--------|--------|--------|--------|--------|--------|--------|
B|--------|--------|--------|--------|--------|--------|--------|--------|--------|
G|--------|--------|--------|--------|--------|--------|--------|--------|--------|
D|--------|--------|--------|--------|--------|--------|--------|--------|--------|
A|--------|--------|--------|--------|--------|--------|--------|--------|--------|
E|--------|--------|--------|--------|--------|--------|--------|--------|--------|


E|--------|--------|--------|--------|--------|--------|--------|--------|--------|
B|--------|--------|--------|--------|--------|--------|--------|--------|--------|
G|--------|--------|--------|--------|--------|--------|--------|--------|--------|
D|--------|--------|--------|--------|--------|--------|--------|--------|--------|
A|--------|--------|--------|--------|--------|--------|--------|--------|--------|
E|--------|--------|--------|--------|--------|--------|--------|--------|--------|


E|--------|--------|--------|--------|--------|--------|--------|--------|--------|
B|--------|--------|--------|--------|--------|--------|--------|--------|--------|
G|--------|--------|--------|--------|--------|--------|--------|--------|--------|
D|--------|--------|--------|--------|--------|--------|--------|--------|--------|
A|--------|--------|--------|--------|--------|--------|--------|--------|--------|
E|--------|--------|--------|--------|--------|--------|--------|--------|--------|


E|--------|--------|--------|--------|--------|--------|--------|--------|--------|
B|--------|--------|--------|--------|--------|--------|--------|--------|--------|
G|--------|--------|--------|--------|--------|--------|--------|--------|--------|
D|--------|--------|--------|--------|--------|--------|--------|--------|--------|
A|--------|--------|--------|--------|--------|--------|--------|--------|--------|
E|--------|--------|--------|--------|--------|--------|--------|--------|--------|


E|--------|--------|--------|--------|--------|
B|--------|--------|--------|--------|--------|
G|--------|--------|--------|--------|--------|
D|--------|--------|--------|--------|--------|
A|--------|--------|--------|--------|--------|
E|--------|--------|--------|--------|--------|





Track 6: Distortion 2

E|--------|--------|--------|--------|--------|--------|--------|--------|--------|
B|--------|--------|--------|--------|--------|--------|--------|--------|--------|
G|--------|--------|--------|--------|--------|--------|--------|--------|--------|
D|--------|--------|--------|--------|--------|--------|--------|--------|--------|
A|--------|--------|--------|--------|--------|--------|--------|--------|--------|
E|--------|--------|--------|--------|--------|--------|--------|--------|--------|


E|--------|--------|--------|--------|--------|--------|--------|--------|--------|
B|--------|--------|--------|--------|--------|--------|--------|--------|--------|
G|--------|--------|--------|--------|--------|--------|--------|--------|--------|
D|--------|--------|--------|--------|--------|--------|--------|--------|--------|
A|--------|--------|--------|--------|--------|--------|--------|--------|--------|
E|--------|--------|--------|--------|--------|--------|--------|--------|--------|


E|--------|--------|--------|--------|--------|--------|--------|--------|--------|
B|--------|--------|--------|--------|--------|--------|--------|--------|--------|
G|--------|--------|--------|--------|--------|--------|--------|--------|--------|
D|--------|--------|--------|--------|--------|--------|--------|--------|--------|
A|--------|--------|--------|--------|--------|--------|--------|--------|--------|
E|--------|--------|--------|--------|--------|--------|--------|--------|--------|


E|--------|--------|--------|--------|--------|--------|--------|--------|--------|
B|--------|--------|--------|--------|--------|--------|--------|--------|--------|
G|--------|--------|--------|--------|--------|--------|--------|--------|--------|
D|--------|--------|--------|--------|--------|--------|--------|--------|--------|
A|--------|--------|--------|--------|--------|--------|--------|--------|--------|
E|--------|--------|--------|--------|--------|--------|--------|--------|--------|


E|--------|--------|--------|--------|--------|--------|--------|--------|--------|
B|--------|--------|--------|--------|--------|--------|--------|--------|--------|
G|--------|--------|--------|--------|--------|--------|--------|--------|--------|
D|--------|--------|--------|--------|--------|--------|--------|--------|--------|
A|--------|--------|--------|--------|--------|--------|--------|--------|--------|
E|--------|--------|--------|--------|--------|--------|--------|--------|--------|


E|--------|-------------|-------------|-------------|-------------|--------|--------|
B|--------|-------18----|-18----18----|-------18----|-------18----|--------|--------|
G|--------|-------------|-------------|-------------|-------------|--------|--------|
D|--------|-------------|-------------|-------------|-------------|--------|--------|
A|--------|-------------|-------------|-------------|-------------|--------|--------|
E|--------|-------------|-------------|-------------|-------------|--------|--------|


E|--------|--------|--------|--------|--------|--------|--------|--------|--------|
B|--------|--------|--------|--------|--------|--------|--------|--------|--------|
G|--------|--------|--------|--------|--------|--------|--------|--------|--------|
D|--------|--------|--------|--------|--------|--------|--------|--------|--------|
A|--------|--------|--------|--------|--------|--------|--------|--------|--------|
E|--------|--------|--------|--------|--------|--------|--------|--------|--------|


E|--------|--------|--------|--------|--------|--------|--------|--------|--------|
B|--------|--------|--------|--------|--------|--------|--------|--------|--------|
G|--------|--------|--------|--------|--------|--------|--------|--------|--------|
D|--------|--------|--------|--------|--------|--------|--------|--------|--------|
A|--------|--------|--------|--------|--------|--------|--------|--------|--------|
E|--------|--------|--------|--------|--------|--------|--------|--------|--------|


E|--------|--------|--------|--------|--------|--------|--------|--------|--------|
B|--------|--------|--------|--------|--------|--------|--------|--------|--------|
G|--------|--------|--------|--------|--------|--------|--------|--------|--------|
D|--------|--------|--------|--------|--------|--------|--------|--------|--------|
A|--------|--------|--------|--------|--------|--------|--------|--------|--------|
E|--------|--------|--------|--------|--------|--------|--------|--------|--------|


E|--------|--------|--------|--------|--------|--------|--------|-------------|------27--27--22--27--25--22--|
B|--------|--------|--------|--------|--------|--------|--------|-------------|------------------------------|
G|--------|--------|--------|--------|--------|--------|--------|-------------|------------------------------|
D|--------|--------|--------|--------|--------|--------|--------|-------------|------5---5---5---5---5---5---|
A|--------|--------|--------|--------|--------|--------|--------|-------------|------------------------------|
E|--------|--------|--------|--------|--------|--------|--------|-------------|------3---3---3---3---3---3---|


E|-27--27--22--27--22--18--29--29--|-29--27--27--27--22--27--25--22--|-27--25---------|
B|---------------------------------|---------------------------------|----------------|
G|---------------------------------|---------------------------------|----------------|
D|-5---5---5---5---5---5---5---5---|-5---5---5---5---5---5---5---5---|-5---5----------|
A|---------------------------------|---------------------------------|----------------|
E|-3---3---3---3---3---3---3---3---|-3---3---3---3---3---3---3---3---|-3---3----------|


E|-------------|--------|--------|--------|-------------|--------|--------|--------|
B|-------------|-15-----|-13-----|-15-----|-8-----6-----|--------|--------|--------|
G|-------------|-15-----|-14-----|-15-----|-8-----7-----|--------|--------|--------|
D|-------------|--------|--------|--------|-------------|--------|--------|--------|
A|-------------|--------|--------|--------|-------------|--------|--------|--------|
E|-------------|--------|--------|--------|-------------|--------|--------|--------|


E|--------|--------|--------|--------|--------|--------|--------|--------|--------|
B|--------|--------|--------|--------|--------|--------|--------|--------|--------|
G|--------|--------|--------|--------|--------|--------|--------|--------|--------|
D|--------|--------|--------|--------|--------|--------|--------|--------|--------|
A|--------|--------|--------|--------|--------|--------|--------|--------|--------|
E|--------|--------|--------|--------|--------|--------|--------|--------|--------|


E|--------|--------|--------|--------|--------|--------|--------|--------|--------|
B|--------|--------|--------|--------|--------|--------|--------|--------|--------|
G|--------|--------|--------|--------|--------|--------|--------|--------|--------|
D|--------|--------|--------|--------|--------|--------|--------|--------|--------|
A|--------|--------|--------|--------|--------|--------|--------|--------|--------|
E|--------|--------|--------|--------|--------|--------|--------|--------|--------|


E|--------|-----------------------------------------------------------------|---------------------------15171822---22---|
B|--------|-----------------------------------------------------------------|-------13--151618----151618----------------|
G|--------|-----------------------------------------------------------------|-121415--17------1517----------------------|
D|--------|-------------1012------------1214------------1415------------1517|-------------------------------------------|
A|--------|-------101213----------121315----------131517----------151718----|-------------------------------------------|
E|--------|-101213----------121315----------131517----------151718----------|-------------------------------------------|


E|-22-----|-22-----|--------|-----------------------------------------------------------------|
B|--------|--------|--------|-----------------------------------------------------------------|
G|--------|--------|--------|-150-150-150-150-140-140-140-140-120-120-120-120-100-100-100-100-|
D|--------|--------|--------|-----------------------------------------------------------------|
A|--------|--------|--------|-----------------------------------------------------------------|
E|--------|--------|--------|-----------------------------------------------------------------|


E|--------|--------|--------|--------|--------|--------|--------|--------|--------|
B|--------|--------|--------|--------|--------|--------|--------|--------|--------|
G|--------|--------|--------|--------|--------|--------|--------|--------|--------|
D|--------|--------|--------|--------|--------|--------|--------|--------|--------|
A|--------|--------|--------|--------|--------|--------|--------|--------|--------|
E|--------|--------|--------|--------|--------|--------|--------|--------|--------|


E|--------|-20----20---20--18-17-|-18--18--18-17-18--18---17-18-17-15--|-----------------|
B|--------|----------------------|-------------------------------------|-18----15---15---|
G|--------|----------------------|-------------------------------------|-----------------|
D|--------|----------------------|-------------------------------------|-----------------|
A|--------|----------------------|-------------------------------------|-----------------|
E|--------|----------------------|-------------------------------------|-----------------|


E|---------------------------|--------|--------|--------|--------|--------|--------|
B|---------------------------|--------|--------|--------|--------|--------|--------|
G|-17---17--15--14---14--14--|--------|--------|--------|--------|--------|--------|
D|---------------------------|--------|--------|--------|--------|--------|--------|
A|---------------------------|--------|--------|--------|--------|--------|--------|
E|---------------------------|--------|--------|--------|--------|--------|--------|


E|--------|--------|--------|--------|--------|--------|--------|--------|--------|
B|--------|--------|--------|--------|--------|--------|--------|--------|--------|
G|--------|--------|--------|--------|--------|--------|--------|--------|--------|
D|--------|--------|--------|--------|--------|--------|--------|--------|--------|
A|--------|--------|--------|--------|--------|--------|--------|--------|--------|
E|--------|--------|--------|--------|--------|--------|--------|--------|--------|


E|--------|--------|--------|--------|--------|--------|--------|--------|--------|
B|--------|--------|--------|--------|--------|--------|--------|--------|--------|
G|--------|--------|--------|--------|--------|--------|--------|--------|--------|
D|--------|--------|--------|--------|--------|--------|--------|--------|--------|
A|--------|--------|--------|--------|--------|--------|--------|--------|--------|
E|--------|--------|--------|--------|--------|--------|--------|--------|--------|


E|--------|--------|--------|--------|--------|--------|--------|-----------------|
B|--------|--------|--------|--------|--------|--------|--------|-----------------|
G|--------|--------|--------|--------|--------|--------|--------|-----------------|
D|--------|--------|--------|--------|--------|--------|--------|-----------------|
A|--------|--------|--------|--------|--------|--------|--------|-------3---------|
E|--------|--------|--------|--------|--------|--------|--------|-----------------|


E|-------------|------------------------|-------------|-----------------|---------------------|
B|-------------|------------------------|-------------|-----------------|---------------------|
G|-------------|------------------------|-------------|-----------------|---------------------|
D|-------------|------------------------|-------------|-----------------|---------------------|
A|-------------|------------------------|-------------|-------3---------|---------------------|
E|-------4-----|------4---4---5---------|-------6-----|-7---------------|------3----4---------|


E|---------------------|-----------------|-------------|--------|--------|--------|
B|---------------------|-----------------|-------------|--------|--------|--------|
G|---------------------|-----------------|-------------|--------|--------|--------|
D|---------------------|-----------------|-------------|--------|--------|--------|
A|---------------------|-----------------|-------------|--------|--------|--------|
E|------4----5---------|------5----6-----|-7-----------|--------|--------|--------|


E|--------|--------|--------|--------|--------|--------|--------|--------|--------|
B|--------|--------|--------|--------|--------|--------|--------|--------|--------|
G|--------|--------|--------|--------|--------|--------|--------|--------|--------|
D|--------|--------|--------|--------|--------|--------|--------|--------|--------|
A|--------|--------|--------|--------|--------|--------|--------|--------|--------|
E|--------|--------|--------|--------|--------|--------|--------|--------|--------|


E|--------|--------|--------|--------|--------|--------|--------|--------|--------|
B|--------|--------|--------|--------|--------|--------|--------|--------|--------|
G|--------|--------|--------|--------|--------|--------|--------|--------|--------|
D|--------|--------|--------|--------|--------|--------|--------|--------|--------|
A|--------|--------|--------|--------|--------|--------|--------|--------|--------|
E|--------|--------|--------|--------|--------|--------|--------|--------|--------|


E|--------|--------|--------|--------|--------|--------|--------|--------|--------|
B|--------|--------|--------|--------|--------|--------|--------|--------|--------|
G|--------|--------|--------|--------|--------|--------|--------|--------|--------|
D|--------|--------|--------|--------|--------|--------|--------|--------|--------|
A|--------|--------|--------|--------|--------|--------|--------|--------|--------|
E|--------|--------|--------|--------|--------|--------|--------|--------|--------|


E|--------|--------|--------|--------|--------|--------|--------|--------|--------|
B|--------|--------|--------|--------|--------|--------|--------|--------|--------|
G|--------|--------|--------|--------|--------|--------|--------|--------|--------|
D|--------|--------|--------|--------|--------|--------|--------|--------|--------|
A|--------|--------|--------|--------|--------|--------|--------|--------|--------|
E|--------|--------|--------|--------|--------|--------|--------|--------|--------|


E|--------|--------|--------|--------|--------|--------|--------|--------|--------|
B|--------|--------|--------|--------|--------|--------|--------|--------|--------|
G|--------|--------|--------|--------|--------|--------|--------|--------|--------|
D|--------|--------|--------|--------|--------|--------|--------|--------|--------|
A|--------|--------|--------|--------|--------|--------|--------|--------|--------|
E|--------|--------|--------|--------|--------|--------|--------|--------|--------|


E|--------|--------|--------|--------|--------|--------|--------|--------|--------|
B|--------|--------|--------|--------|--------|--------|--------|--------|--------|
G|--------|--------|--------|--------|--------|--------|--------|--------|--------|
D|--------|--------|--------|--------|--------|--------|--------|--------|--------|
A|--------|--------|--------|--------|--------|--------|--------|--------|--------|
E|--------|--------|--------|--------|--------|--------|--------|--------|--------|


E|--------|--------|--------|--------|--------|--------|--------|--------|--------|
B|--------|--------|--------|--------|--------|--------|--------|--------|--------|
G|--------|--------|--------|--------|--------|--------|--------|--------|--------|
D|--------|--------|--------|--------|--------|--------|--------|--------|--------|
A|--------|--------|--------|--------|--------|--------|--------|--------|--------|
E|--------|--------|--------|--------|--------|--------|--------|--------|--------|


E|--------|--------|--------|--------|--------|--------|--------|--------|--------|
B|--------|--------|--------|--------|--------|--------|--------|--------|--------|
G|--------|--------|--------|--------|--------|--------|--------|--------|--------|
D|--------|--------|--------|--------|--------|--------|--------|--------|--------|
A|--------|--------|--------|--------|--------|--------|--------|--------|--------|
E|--------|--------|--------|--------|--------|--------|--------|--------|--------|


E|--------|--------|--------|--------|--------|--------|--------|--------|--------|
B|--------|--------|--------|--------|--------|--------|--------|--------|--------|
G|--------|--------|--------|--------|--------|--------|--------|--------|--------|
D|--------|--------|--------|--------|--------|--------|--------|--------|--------|
A|--------|--------|--------|--------|--------|--------|--------|--------|--------|
E|--------|--------|--------|--------|--------|--------|--------|--------|--------|


E|--------|--------|--------|
B|--------|--------|--------|
G|--------|--------|--------|
D|--------|--------|--------|
A|--------|--------|--------|
E|--------|--------|--------|





Track 7: Sawtooth

E|--------|--------|--------|--------|--------|--------|--------|--------|--------|
B|--------|--------|--------|--------|--------|--------|--------|--------|--------|
G|--------|--------|--------|--------|--------|--------|--------|--------|--------|
D|--------|--------|--------|--------|--------|--------|--------|--------|--------|
A|--------|--------|--------|--------|--------|--------|--------|--------|--------|
E|--------|--------|--------|--------|--------|--------|--------|--------|--------|


E|--------|--------|--------|--------|--------|--------|--------|--------|--------|
B|--------|--------|--------|--------|--------|--------|--------|--------|--------|
G|--------|--------|--------|--------|--------|--------|--------|--------|--------|
D|--------|--------|--------|--------|--------|--------|--------|--------|--------|
A|--------|--------|--------|--------|--------|--------|--------|--------|--------|
E|--------|--------|--------|--------|--------|--------|--------|--------|--------|


E|--------|--------|--------|--------|--------|--------|--------|--------|--------|
B|--------|--------|--------|--------|--------|--------|--------|--------|--------|
G|--------|--------|--------|--------|--------|--------|--------|--------|--------|
D|--------|--------|--------|--------|--------|--------|--------|--------|--------|
A|--------|--------|--------|--------|--------|--------|--------|--------|--------|
E|--------|--------|--------|--------|--------|--------|--------|--------|--------|


E|--------|--------|--------|--------|--------|--------|--------|--------|--------|
B|--------|--------|--------|--------|--------|--------|--------|--------|--------|
G|--------|--------|--------|--------|--------|--------|--------|--------|--------|
D|--------|--------|--------|--------|--------|--------|--------|--------|--------|
A|--------|--------|--------|--------|--------|--------|--------|--------|--------|
E|--------|--------|--------|--------|--------|--------|--------|--------|--------|


E|--------|--------|--------|--------|--------|--------|--------|--------|--------|
B|--------|--------|--------|--------|--------|--------|--------|--------|--------|
G|--------|--------|--------|--------|--------|--------|--------|--------|--------|
D|--------|--------|--------|--------|--------|--------|--------|--------|--------|
A|--------|--------|--------|--------|--------|--------|--------|--------|--------|
E|--------|--------|--------|--------|--------|--------|--------|--------|--------|


E|--------|--------|--------|--------|--------|-------18--17--15------|-18--17--15------18--17--15------|
B|--------|--------|--------|--------|--------|-------------------18--|-------------18--------------18--|
G|--------|--------|--------|--------|--------|-----------------------|---------------------------------|
D|--------|--------|--------|--------|--------|-----------------------|---------------------------------|
A|--------|--------|--------|--------|--------|-----------------------|---------------------------------|
E|--------|--------|--------|--------|--------|-----------------------|---------------------------------|


E|-18--17--15------18------15--17--|-18------15--17--18------15--17--|-18------15--17--17------13--15--|
B|-------------18------18----------|-----18--------------18----------|-----18--------------16----------|
G|---------------------------------|---------------------------------|---------------------------------|
D|---------------------------------|---------------------------------|---------------------------------|
A|---------------------------------|---------------------------------|---------------------------------|
E|---------------------------------|---------------------------------|---------------------------------|


E|-17------13--15--17------13--15--|-17------13--15--15------11--13--|-15------11--13--15------17------|
B|-----16--------------16----------|-----16--------------13----------|-----13--------------13------13--|
G|---------------------------------|---------------------------------|---------------------------------|
D|---------------------------------|---------------------------------|---------------------------------|
A|---------------------------------|---------------------------------|---------------------------------|
E|---------------------------------|---------------------------------|---------------------------------|


E|-18------17------18--17--15------|-18--17--15------18--17--15------|-18--17--15------17--15--13------|
B|-----16------18--------------18--|-------------18--------------18--|-------------18--------------13--|
G|---------------------------------|---------------------------------|---------------------------------|
D|---------------------------------|---------------------------------|---------------------------------|
A|---------------------------------|---------------------------------|---------------------------------|
E|---------------------------------|---------------------------------|---------------------------------|


E|-17--15--13------17--15--13------|-17--15--13------17------13--15--|-17------13--15--17------13--15--|
B|-------------13--------------13--|-------------13------16----------|-----16--------------16----------|
G|---------------------------------|---------------------------------|---------------------------------|
D|---------------------------------|---------------------------------|---------------------------------|
A|---------------------------------|---------------------------------|---------------------------------|
E|---------------------------------|---------------------------------|---------------------------------|


E|-17------13--15--17--15--13------|-17--15--13------15------17------|-18------17------------|
B|-----16----------------------13--|-------------13------13------13--|-----16------18--------|
G|---------------------------------|---------------------------------|-----------------------|
D|---------------------------------|---------------------------------|-----------------------|
A|---------------------------------|---------------------------------|-----------------------|
E|---------------------------------|---------------------------------|-----------------------|


E|--------|--------|--------|--------|--------|--------|--------|--------|--------|
B|--------|--------|--------|--------|--------|--------|--------|--------|--------|
G|--------|--------|--------|--------|--------|--------|--------|--------|--------|
D|--------|--------|--------|--------|--------|--------|--------|--------|--------|
A|--------|--------|--------|--------|--------|--------|--------|--------|--------|
E|--------|--------|--------|--------|--------|--------|--------|--------|--------|


E|--------|--------|--------|--------|--------|--------|--------|--------|--------|
B|--------|--------|--------|--------|--------|--------|--------|--------|--------|
G|--------|--------|--------|--------|--------|--------|--------|--------|--------|
D|--------|--------|--------|--------|--------|--------|--------|--------|--------|
A|--------|--------|--------|--------|--------|--------|--------|--------|--------|
E|--------|--------|--------|--------|--------|--------|--------|--------|--------|


E|--------|--------|--------|--------|--------|--------|--------|--------|--------|
B|--------|--------|--------|--------|--------|--------|--------|--------|--------|
G|--------|--------|--------|--------|--------|--------|--------|--------|--------|
D|--------|--------|--------|--------|--------|--------|--------|--------|--------|
A|--------|--------|--------|--------|--------|--------|--------|--------|--------|
E|--------|--------|--------|--------|--------|--------|--------|--------|--------|


E|--------|--------|--------|--------|--------|--------|--------|--------|--------|
B|--------|--------|--------|--------|--------|--------|--------|--------|--------|
G|--------|--------|--------|--------|--------|--------|--------|--------|--------|
D|--------|--------|--------|--------|--------|--------|--------|--------|--------|
A|--------|--------|--------|--------|--------|--------|--------|--------|--------|
E|--------|--------|--------|--------|--------|--------|--------|--------|--------|


E|--------|--------|--------|--------|--------|--------|--------|--------|--------|
B|--------|--------|--------|--------|--------|--------|--------|--------|--------|
G|--------|--------|--------|--------|--------|--------|--------|--------|--------|
D|--------|--------|--------|--------|--------|--------|--------|--------|--------|
A|--------|--------|--------|--------|--------|--------|--------|--------|--------|
E|--------|--------|--------|--------|--------|--------|--------|--------|--------|


E|--------|--------|--------|--------|--------|--------|--------|--------|--------|
B|--------|--------|--------|--------|--------|--------|--------|--------|--------|
G|--------|--------|--------|--------|--------|--------|--------|--------|--------|
D|--------|--------|--------|--------|--------|--------|--------|--------|--------|
A|--------|--------|--------|--------|--------|--------|--------|--------|--------|
E|--------|--------|--------|--------|--------|--------|--------|--------|--------|


E|--------|--------|--------|--------|--------|--------|--------|--------|--------|
B|--------|--------|--------|--------|--------|--------|--------|--------|--------|
G|--------|--------|--------|--------|--------|--------|--------|--------|--------|
D|--------|--------|--------|--------|--------|--------|--------|--------|--------|
A|--------|--------|--------|--------|--------|--------|--------|--------|--------|
E|--------|--------|--------|--------|--------|--------|--------|--------|--------|


E|--------|--------|--------|--------|--------|--------|--------|--------|--------|
B|--------|--------|--------|--------|--------|--------|--------|--------|--------|
G|--------|--------|--------|--------|--------|--------|--------|--------|--------|
D|--------|--------|--------|--------|--------|--------|--------|--------|--------|
A|--------|--------|--------|--------|--------|--------|--------|--------|--------|
E|--------|--------|--------|--------|--------|--------|--------|--------|--------|


E|--------|--------|--------|--------|--------|--------|--------|--------|--------|
B|--------|--------|--------|--------|--------|--------|--------|--------|--------|
G|--------|--------|--------|--------|--------|--------|--------|--------|--------|
D|--------|--------|--------|--------|--------|--------|--------|--------|--------|
A|--------|--------|--------|--------|--------|--------|--------|--------|--------|
E|--------|--------|--------|--------|--------|--------|--------|--------|--------|


E|--------|--------|--------|--------|--------|--------|--------|--------|--------|
B|--------|--------|--------|--------|--------|--------|--------|--------|--------|
G|--------|--------|--------|--------|--------|--------|--------|--------|--------|
D|--------|--------|--------|--------|--------|--------|--------|--------|--------|
A|--------|--------|--------|--------|--------|--------|--------|--------|--------|
E|--------|--------|--------|--------|--------|--------|--------|--------|--------|


E|--------|--------|--------|--------|--------|--------|--------|--------|--------|
B|--------|--------|--------|--------|--------|--------|--------|--------|--------|
G|--------|--------|--------|--------|--------|--------|--------|--------|--------|
D|--------|--------|--------|--------|--------|--------|--------|--------|--------|
A|--------|--------|--------|--------|--------|--------|--------|--------|--------|
E|--------|--------|--------|--------|--------|--------|--------|--------|--------|


E|--------|--------|--------|--------|--------|--------|--------|--------|--------|
B|--------|--------|--------|--------|--------|--------|--------|--------|--------|
G|--------|--------|--------|--------|--------|--------|--------|--------|--------|
D|--------|--------|--------|--------|--------|--------|--------|--------|--------|
A|--------|--------|--------|--------|--------|--------|--------|--------|--------|
E|--------|--------|--------|--------|--------|--------|--------|--------|--------|


E|--------|--------|--------|--------|--------|--------|-------------------------------|
B|--------|--------|--------|--------|--------|--------|-------------------------------|
G|--------|--------|--------|--------|--------|--------|-------------------------------|
D|--------|--------|--------|--------|--------|--------|-------------------------------|
A|--------|--------|--------|--------|--------|--------|-------3--3--3--3--3--3--3--3--|
E|--------|--------|--------|--------|--------|--------|-------------------------------|


E|-------------------------------------------------|-------------------------------------------------|
B|-------------------------------------------------|-------------------------------------------------|
G|-------------------------------------------------|-------------------------------------------------|
D|-------------------------6--6--6--6--6--6--6--6--|-6--6--6--6--6--6--6--6--7--7--7--7--7--7--7--7--|
A|-3--3--3--3--3--3--3--3--------------------------|-------------------------------------------------|
E|-------------------------------------------------|-------------------------------------------------|


E|-------------------------------------------------|---------------------------------------------|
B|-------------------------------------------------|---------------------------------------------|
G|-------------------------------------------------|-----------------------------------5---------|
D|-7--7--7--7--7--7--7--7--8--8--8--8--8--8--8--8--|-9--9--9--9--9--9--9--9------------5---------|
A|-------------------------------------------------|-------------------------3---3--3--3---3--3--|
E|-------------------------------------------------|---------------------------------------------|


E|-----------------------------------------|--------------------------------------|
B|-----------------------------------------|--------------------------------------|
G|-------5---------5---5---------5---------|-------5---------5---------------5----|
D|-------6---------6---5---------5---------|-------6---------6---------------5----|
A|-3--3--3---3--3--3---3---3--3--3---3--3--|-3--3--3---3--3--3---3--3--3--3--3----|
E|-----------------------------------------|--------------------------------------|


E|--------------------|--------|--------|--------|--------|--------|--------|--------|
B|--------------------|--------|--------|--------|--------|--------|--------|--------|
G|-5---5---5----------|--------|--------|--------|--------|--------|--------|--------|
D|-5---3---3----------|--------|--------|--------|--------|--------|--------|--------|
A|-3---1---1----------|--------|--------|--------|--------|--------|--------|--------|
E|--------------------|--------|--------|--------|--------|--------|--------|--------|


E|--------|--------|--------|--------|--------|--------|--------|--------|--------|
B|--------|--------|--------|--------|--------|--------|--------|--------|--------|
G|--------|--------|--------|--------|--------|--------|--------|--------|--------|
D|--------|--------|--------|--------|--------|--------|--------|--------|--------|
A|--------|--------|--------|--------|--------|--------|--------|--------|--------|
E|--------|--------|--------|--------|--------|--------|--------|--------|--------|


E|--------|--------|--------|--------|--------|--------|--------|--------|--------|
B|--------|--------|--------|--------|--------|--------|--------|--------|--------|
G|--------|--------|--------|--------|--------|--------|--------|--------|--------|
D|--------|--------|--------|--------|--------|--------|--------|--------|--------|
A|--------|--------|--------|--------|--------|--------|--------|--------|--------|
E|--------|--------|--------|--------|--------|--------|--------|--------|--------|


E|--------|--------|--------|--------|--------|--------|--------|--------|--------|
B|--------|--------|--------|--------|--------|--------|--------|--------|--------|
G|--------|--------|--------|--------|--------|--------|--------|--------|--------|
D|--------|--------|--------|--------|--------|--------|--------|--------|--------|
A|--------|--------|--------|--------|--------|--------|--------|--------|--------|
E|--------|--------|--------|--------|--------|--------|--------|--------|--------|


E|--------|--------|--------|--------|--------|--------|--------|--------|--------|
B|--------|--------|--------|--------|--------|--------|--------|--------|--------|
G|--------|--------|--------|--------|--------|--------|--------|--------|--------|
D|--------|--------|--------|--------|--------|--------|--------|--------|--------|
A|--------|--------|--------|--------|--------|--------|--------|--------|--------|
E|--------|--------|--------|--------|--------|--------|--------|--------|--------|


E|--------|--------|--------|--------|--------|--------|--------|--------|--------|
B|--------|--------|--------|--------|--------|--------|--------|--------|--------|
G|--------|--------|--------|--------|--------|--------|--------|--------|--------|
D|--------|--------|--------|--------|--------|--------|--------|--------|--------|
A|--------|--------|--------|--------|--------|--------|--------|--------|--------|
E|--------|--------|--------|--------|--------|--------|--------|--------|--------|


E|--------|--------|--------|--------|--------|--------|--------|--------|--------|
B|--------|--------|--------|--------|--------|--------|--------|--------|--------|
G|--------|--------|--------|--------|--------|--------|--------|--------|--------|
D|--------|--------|--------|--------|--------|--------|--------|--------|--------|
A|--------|--------|--------|--------|--------|--------|--------|--------|--------|
E|--------|--------|--------|--------|--------|--------|--------|--------|--------|


E|--------|--------|--------|--------|--------|--------|--------|--------|--------|
B|--------|--------|--------|--------|--------|--------|--------|--------|--------|
G|--------|--------|--------|--------|--------|--------|--------|--------|--------|
D|--------|--------|--------|--------|--------|--------|--------|--------|--------|
A|--------|--------|--------|--------|--------|--------|--------|--------|--------|
E|--------|--------|--------|--------|--------|--------|--------|--------|--------|


E|--------|--------|--------|--------|--------|--------|
B|--------|--------|--------|--------|--------|--------|
G|--------|--------|--------|--------|--------|--------|
D|--------|--------|--------|--------|--------|--------|
A|--------|--------|--------|--------|--------|--------|
E|--------|--------|--------|--------|--------|--------|





Track 8: Acoustic 1

E|--------|--------|--------|--------|--------|--------|--------|--------|--------|
B|--------|--------|--------|--------|--------|--------|--------|--------|--------|
G|--------|--------|--------|--------|--------|--------|--------|--------|--------|
D|--------|--------|--------|--------|--------|--------|--------|--------|--------|
A|--------|--------|--------|--------|--------|--------|--------|--------|--------|
E|--------|--------|--------|--------|--------|--------|--------|--------|--------|


E|--------|--------|--------|--------|--------|--------|--------|--------|--------|
B|--------|--------|--------|--------|--------|--------|--------|--------|--------|
G|--------|--------|--------|--------|--------|--------|--------|--------|--------|
D|--------|--------|--------|--------|--------|--------|--------|--------|--------|
A|--------|--------|--------|--------|--------|--------|--------|--------|--------|
E|--------|--------|--------|--------|--------|--------|--------|--------|--------|


E|--------|--------|--------|--------|--------|--------|--------|--------|--------|
B|--------|--------|--------|--------|--------|--------|--------|--------|--------|
G|--------|--------|--------|--------|--------|--------|--------|--------|--------|
D|--------|--------|--------|--------|--------|--------|--------|--------|--------|
A|--------|--------|--------|--------|--------|--------|--------|--------|--------|
E|--------|--------|--------|--------|--------|--------|--------|--------|--------|


E|--------|--------|--------|--------|--------|--------|--------|--------|--------|
B|--------|--------|--------|--------|--------|--------|--------|--------|--------|
G|--------|--------|--------|--------|--------|--------|--------|--------|--------|
D|--------|--------|--------|--------|--------|--------|--------|--------|--------|
A|--------|--------|--------|--------|--------|--------|--------|--------|--------|
E|--------|--------|--------|--------|--------|--------|--------|--------|--------|


E|--------|--------|--------|--------|--------|--------|--------|--------|--------|
B|--------|--------|--------|--------|--------|--------|--------|--------|--------|
G|--------|--------|--------|--------|--------|--------|--------|--------|--------|
D|--------|--------|--------|--------|--------|--------|--------|--------|--------|
A|--------|--------|--------|--------|--------|--------|--------|--------|--------|
E|--------|--------|--------|--------|--------|--------|--------|--------|--------|


E|--------|--------|--------|--------|--------|--------|--------|--------|--------|
B|--------|--------|--------|--------|--------|--------|--------|--------|--------|
G|--------|--------|--------|--------|--------|--------|--------|--------|--------|
D|--------|--------|--------|--------|--------|--------|--------|--------|--------|
A|--------|--------|--------|--------|--------|--------|--------|--------|--------|
E|--------|--------|--------|--------|--------|--------|--------|--------|--------|


E|--------|--------|--------|--------|--------|--------|--------|--------|--------|
B|--------|--------|--------|--------|--------|--------|--------|--------|--------|
G|--------|--------|--------|--------|--------|--------|--------|--------|--------|
D|--------|--------|--------|--------|--------|--------|--------|--------|--------|
A|--------|--------|--------|--------|--------|--------|--------|--------|--------|
E|--------|--------|--------|--------|--------|--------|--------|--------|--------|


E|--------|--------|--------|--------|--------|--------|--------|--------|--------|
B|--------|--------|--------|--------|--------|--------|--------|--------|--------|
G|--------|--------|--------|--------|--------|--------|--------|--------|--------|
D|--------|--------|--------|--------|--------|--------|--------|--------|--------|
A|--------|--------|--------|--------|--------|--------|--------|--------|--------|
E|--------|--------|--------|--------|--------|--------|--------|--------|--------|


E|--------|--------|--------|--------|--------|--------|--------|--------|--------|
B|--------|--------|--------|--------|--------|--------|--------|--------|--------|
G|--------|--------|--------|--------|--------|--------|--------|--------|--------|
D|--------|--------|--------|--------|--------|--------|--------|--------|--------|
A|--------|--------|--------|--------|--------|--------|--------|--------|--------|
E|--------|--------|--------|--------|--------|--------|--------|--------|--------|


E|--------|--------|--------|--------|--------|--------|--------|--------|--------|
B|--------|--------|--------|--------|--------|--------|--------|--------|--------|
G|--------|--------|--------|--------|--------|--------|--------|--------|--------|
D|--------|--------|--------|--------|--------|--------|--------|--------|--------|
A|--------|--------|--------|--------|--------|--------|--------|--------|--------|
E|--------|--------|--------|--------|--------|--------|--------|--------|--------|


E|--------|--------|--------|--------|--------|--------|--------|--------|--------|
B|--------|--------|--------|--------|--------|--------|--------|--------|--------|
G|--------|--------|--------|--------|--------|--------|--------|--------|--------|
D|--------|--------|--------|--------|--------|--------|--------|--------|--------|
A|--------|--------|--------|--------|--------|--------|--------|--------|--------|
E|--------|--------|--------|--------|--------|--------|--------|--------|--------|


E|--------|--------|--------|--------|--------|--------|--------|--------|--------|
B|--------|--------|--------|--------|--------|--------|--------|--------|--------|
G|--------|--------|--------|--------|--------|--------|--------|--------|--------|
D|--------|--------|--------|--------|--------|--------|--------|--------|--------|
A|--------|--------|--------|--------|--------|--------|--------|--------|--------|
E|--------|--------|--------|--------|--------|--------|--------|--------|--------|


E|--------|--------|--------|--------|--------|--------|--------|--------|--------|
B|--------|--------|--------|--------|--------|--------|--------|--------|--------|
G|--------|--------|--------|--------|--------|--------|--------|--------|--------|
D|--------|--------|--------|--------|--------|--------|--------|--------|--------|
A|--------|--------|--------|--------|--------|--------|--------|--------|--------|
E|--------|--------|--------|--------|--------|--------|--------|--------|--------|


E|--------|--------|--------|--------|--------|--------|--------|--------|--------|
B|--------|--------|--------|--------|--------|--------|--------|--------|--------|
G|--------|--------|--------|--------|--------|--------|--------|--------|--------|
D|--------|--------|--------|--------|--------|--------|--------|--------|--------|
A|--------|--------|--------|--------|--------|--------|--------|--------|--------|
E|--------|--------|--------|--------|--------|--------|--------|--------|--------|


E|--------|--------|--------|--------|--------|--------|--------|--------|--------|
B|--------|--------|--------|--------|--------|--------|--------|--------|--------|
G|--------|--------|--------|--------|--------|--------|--------|--------|--------|
D|--------|--------|--------|--------|--------|--------|--------|--------|--------|
A|--------|--------|--------|--------|--------|--------|--------|--------|--------|
E|--------|--------|--------|--------|--------|--------|--------|--------|--------|


E|--------|--------|--------|--------|--------|--------|--------|--------|--------|
B|--------|--------|--------|--------|--------|--------|--------|--------|--------|
G|--------|--------|--------|--------|--------|--------|--------|--------|--------|
D|--------|--------|--------|--------|--------|--------|--------|--------|--------|
A|--------|--------|--------|--------|--------|--------|--------|--------|--------|
E|--------|--------|--------|--------|--------|--------|--------|--------|--------|


E|--------|--------|--------|--------|--------|--------|--------|--------|--------|
B|--------|--------|--------|--------|--------|--------|--------|--------|--------|
G|--------|--------|--------|--------|--------|--------|--------|--------|--------|
D|--------|--------|--------|--------|--------|--------|--------|--------|--------|
A|--------|--------|--------|--------|--------|--------|--------|--------|--------|
E|--------|--------|--------|--------|--------|--------|--------|--------|--------|


E|--------|--------|--------|--------|--------|--------|--------|--------|--------|
B|--------|--------|--------|--------|--------|--------|--------|--------|--------|
G|--------|--------|--------|--------|--------|--------|--------|--------|--------|
D|--------|--------|--------|--------|--------|--------|--------|--------|--------|
A|--------|--------|--------|--------|--------|--------|--------|--------|--------|
E|--------|--------|--------|--------|--------|--------|--------|--------|--------|


E|--------|--------|--------|--------|--------|--------|--------|--------|--------|
B|--------|--------|--------|--------|--------|--------|--------|--------|--------|
G|--------|--------|--------|--------|--------|--------|--------|--------|--------|
D|--------|--------|--------|--------|--------|--------|--------|--------|--------|
A|--------|--------|--------|--------|--------|--------|--------|--------|--------|
E|--------|--------|--------|--------|--------|--------|--------|--------|--------|


E|--------|--------|--------|--------|--------|--------|-------------------------------|
B|--------|--------|--------|--------|--------|--------|-------------------------------|
G|--------|--------|--------|--------|--------|--------|-------------------------------|
D|--------|--------|--------|--------|--------|--------|-------------------------------|
A|--------|--------|--------|--------|--------|--------|-------3--3--3--3--3--3--3--3--|
E|--------|--------|--------|--------|--------|--------|-------------------------------|


E|-------------------------------------------------|-------------------------------------------------|
B|-------------------------------------------------|-------------------------------------------------|
G|-------------------------------------------------|-------------------------------------------------|
D|-------------------------------------------------|-------------------------------------------------|
A|-3--3--3--3--3--3--3--3--------------------------|-------------------------------------------------|
E|-------------------------4--4--4--4--4--4--4--4--|-4--4--4--4--4--4--4--4--5--5--5--5--5--5--5--5--|


E|-------------------------------------------------|-------------------------------|
B|-------------------------------------------------|-------------------------------|
G|-------------------------------------------------|-------------------------------|
D|-------------------------------------------------|-------------------------------|
A|-------------------------------------------------|-------------------------------|
E|-5--5--5--5--5--5--5--5--6--6--6--6--6--6--6--6--|-7--7--7--7--7--7--7--7--------|


E|--------|--------|--------|--------|--------|--------|--------|--------|--------|
B|--------|--------|--------|--------|--------|--------|--------|--------|--------|
G|--------|--------|--------|--------|--------|--------|--------|--------|--------|
D|--------|--------|--------|--------|--------|--------|--------|--------|--------|
A|--------|--------|--------|--------|--------|--------|--------|--------|--------|
E|--------|--------|--------|--------|--------|--------|--------|--------|--------|


E|--------|--------|--------|--------|--------|--------|--------|--------|--------|
B|--------|--------|--------|--------|--------|--------|--------|--------|--------|
G|--------|--------|--------|--------|--------|--------|--------|--------|--------|
D|--------|--------|--------|--------|--------|--------|--------|--------|--------|
A|--------|--------|--------|--------|--------|--------|--------|--------|--------|
E|--------|--------|--------|--------|--------|--------|--------|--------|--------|


E|--------|--------|--------|--------|--------|--------|--------|--------|--------|
B|--------|--------|--------|--------|--------|--------|--------|--------|--------|
G|--------|--------|--------|--------|--------|--------|--------|--------|--------|
D|--------|--------|--------|--------|--------|--------|--------|--------|--------|
A|--------|--------|--------|--------|--------|--------|--------|--------|--------|
E|--------|--------|--------|--------|--------|--------|--------|--------|--------|


E|--------|--------|--------|--------|--------|--------|--------|--------|--------|
B|--------|--------|--------|--------|--------|--------|--------|--------|--------|
G|--------|--------|--------|--------|--------|--------|--------|--------|--------|
D|--------|--------|--------|--------|--------|--------|--------|--------|--------|
A|--------|--------|--------|--------|--------|--------|--------|--------|--------|
E|--------|--------|--------|--------|--------|--------|--------|--------|--------|


E|--------|--------|--------|--------|--------|--------|--------|--------|--------|
B|--------|--------|--------|--------|--------|--------|--------|--------|--------|
G|--------|--------|--------|--------|--------|--------|--------|--------|--------|
D|--------|--------|--------|--------|--------|--------|--------|--------|--------|
A|--------|--------|--------|--------|--------|--------|--------|--------|--------|
E|--------|--------|--------|--------|--------|--------|--------|--------|--------|


E|--------|--------|--------|--------|--------|--------|--------|--------|--------|
B|--------|--------|--------|--------|--------|--------|--------|--------|--------|
G|--------|--------|--------|--------|--------|--------|--------|--------|--------|
D|--------|--------|--------|--------|--------|--------|--------|--------|--------|
A|--------|--------|--------|--------|--------|--------|--------|--------|--------|
E|--------|--------|--------|--------|--------|--------|--------|--------|--------|


E|--------|--------|--------|--------|--------|--------|--------|--------|--------|
B|--------|--------|--------|--------|--------|--------|--------|--------|--------|
G|--------|--------|--------|--------|--------|--------|--------|--------|--------|
D|--------|--------|--------|--------|--------|--------|--------|--------|--------|
A|--------|--------|--------|--------|--------|--------|--------|--------|--------|
E|--------|--------|--------|--------|--------|--------|--------|--------|--------|


E|--------|--------|--------|--------|--------|--------|--------|--------|--------|
B|--------|--------|--------|--------|--------|--------|--------|--------|--------|
G|--------|--------|--------|--------|--------|--------|--------|--------|--------|
D|--------|--------|--------|--------|--------|--------|--------|--------|--------|
A|--------|--------|--------|--------|--------|--------|--------|--------|--------|
E|--------|--------|--------|--------|--------|--------|--------|--------|--------|


E|--------|--------|--------|--------|--------|--------|--------|--------|--------|
B|--------|--------|--------|--------|--------|--------|--------|--------|--------|
G|--------|--------|--------|--------|--------|--------|--------|--------|--------|
D|--------|--------|--------|--------|--------|--------|--------|--------|--------|
A|--------|--------|--------|--------|--------|--------|--------|--------|--------|
E|--------|--------|--------|--------|--------|--------|--------|--------|--------|


E|--------|--------|
B|--------|--------|
G|--------|--------|
D|--------|--------|
A|--------|--------|
E|--------|--------|





Track 9: Acoustic 1

E|--------|--------|--------|--------|--------|--------|--------|--------|--------|
B|--------|--------|--------|--------|--------|--------|--------|--------|--------|
G|--------|--------|--------|--------|--------|--------|--------|--------|--------|
D|--------|--------|--------|--------|--------|--------|--------|--------|--------|
A|--------|--------|--------|--------|--------|--------|--------|--------|--------|
E|--------|--------|--------|--------|--------|--------|--------|--------|--------|


E|--------|--------|--------|--------|--------|--------|--------|--------|--------|
B|--------|--------|--------|--------|--------|--------|--------|--------|--------|
G|--------|--------|--------|--------|--------|--------|--------|--------|--------|
D|--------|--------|--------|--------|--------|--------|--------|--------|--------|
A|--------|--------|--------|--------|--------|--------|--------|--------|--------|
E|--------|--------|--------|--------|--------|--------|--------|--------|--------|


E|--------|--------|--------|--------|--------|--------|--------|--------|--------|
B|--------|--------|--------|--------|--------|--------|--------|--------|--------|
G|--------|--------|--------|--------|--------|--------|--------|--------|--------|
D|--------|--------|--------|--------|--------|--------|--------|--------|--------|
A|--------|--------|--------|--------|--------|--------|--------|--------|--------|
E|--------|--------|--------|--------|--------|--------|--------|--------|--------|


E|--------|--------|--------|--------|--------|--------|--------|--------|--------|
B|--------|--------|--------|--------|--------|--------|--------|--------|--------|
G|--------|--------|--------|--------|--------|--------|--------|--------|--------|
D|--------|--------|--------|--------|--------|--------|--------|--------|--------|
A|--------|--------|--------|--------|--------|--------|--------|--------|--------|
E|--------|--------|--------|--------|--------|--------|--------|--------|--------|


E|--------|--------|--------|--------|--------|--------|--------|--------|--------|
B|--------|--------|--------|--------|--------|--------|--------|--------|--------|
G|--------|--------|--------|--------|--------|--------|--------|--------|--------|
D|--------|--------|--------|--------|--------|--------|--------|--------|--------|
A|--------|--------|--------|--------|--------|--------|--------|--------|--------|
E|--------|--------|--------|--------|--------|--------|--------|--------|--------|


E|--------|--------|--------|--------|--------|--------|--------|--------|--------|
B|--------|--------|--------|--------|--------|--------|--------|--------|--------|
G|--------|--------|--------|--------|--------|--------|--------|--------|--------|
D|--------|--------|--------|--------|--------|--------|--------|--------|--------|
A|--------|--------|--------|--------|--------|--------|--------|--------|--------|
E|--------|--------|--------|--------|--------|--------|--------|--------|--------|


E|--------|--------|--------|--------|--------|--------|--------|--------|--------|
B|--------|--------|--------|--------|--------|--------|--------|--------|--------|
G|--------|--------|--------|--------|--------|--------|--------|--------|--------|
D|--------|--------|--------|--------|--------|--------|--------|--------|--------|
A|--------|--------|--------|--------|--------|--------|--------|--------|--------|
E|--------|--------|--------|--------|--------|--------|--------|--------|--------|


E|--------|--------|--------|--------|--------|--------|--------|--------|--------|
B|--------|--------|--------|--------|--------|--------|--------|--------|--------|
G|--------|--------|--------|--------|--------|--------|--------|--------|--------|
D|--------|--------|--------|--------|--------|--------|--------|--------|--------|
A|--------|--------|--------|--------|--------|--------|--------|--------|--------|
E|--------|--------|--------|--------|--------|--------|--------|--------|--------|


E|--------|--------|--------|--------|--------|--------|--------|--------|--------|
B|--------|--------|--------|--------|--------|--------|--------|--------|--------|
G|--------|--------|--------|--------|--------|--------|--------|--------|--------|
D|--------|--------|--------|--------|--------|--------|--------|--------|--------|
A|--------|--------|--------|--------|--------|--------|--------|--------|--------|
E|--------|--------|--------|--------|--------|--------|--------|--------|--------|


E|--------|--------|--------|--------|--------|--------|--------|--------|--------|
B|--------|--------|--------|--------|--------|--------|--------|--------|--------|
G|--------|--------|--------|--------|--------|--------|--------|--------|--------|
D|--------|--------|--------|--------|--------|--------|--------|--------|--------|
A|--------|--------|--------|--------|--------|--------|--------|--------|--------|
E|--------|--------|--------|--------|--------|--------|--------|--------|--------|


E|--------|--------|--------|--------|--------|--------|--------|--------|--------|
B|--------|--------|--------|--------|--------|--------|--------|--------|--------|
G|--------|--------|--------|--------|--------|--------|--------|--------|--------|
D|--------|--------|--------|--------|--------|--------|--------|--------|--------|
A|--------|--------|--------|--------|--------|--------|--------|--------|--------|
E|--------|--------|--------|--------|--------|--------|--------|--------|--------|


E|--------|--------|--------|--------|--------|--------|--------|--------|--------|
B|--------|--------|--------|--------|--------|--------|--------|--------|--------|
G|--------|--------|--------|--------|--------|--------|--------|--------|--------|
D|--------|--------|--------|--------|--------|--------|--------|--------|--------|
A|--------|--------|--------|--------|--------|--------|--------|--------|--------|
E|--------|--------|--------|--------|--------|--------|--------|--------|--------|


E|--------|--------|--------|--------|--------|--------|--------|--------|--------|
B|--------|--------|--------|--------|--------|--------|--------|--------|--------|
G|--------|--------|--------|--------|--------|--------|--------|--------|--------|
D|--------|--------|--------|--------|--------|--------|--------|--------|--------|
A|--------|--------|--------|--------|--------|--------|--------|--------|--------|
E|--------|--------|--------|--------|--------|--------|--------|--------|--------|


E|--------|--------|--------|--------|--------|--------|--------|--------|--------|
B|--------|--------|--------|--------|--------|--------|--------|--------|--------|
G|--------|--------|--------|--------|--------|--------|--------|--------|--------|
D|--------|--------|--------|--------|--------|--------|--------|--------|--------|
A|--------|--------|--------|--------|--------|--------|--------|--------|--------|
E|--------|--------|--------|--------|--------|--------|--------|--------|--------|


E|--------|--------|--------|--------|--------|--------|--------|--------|--------|
B|--------|--------|--------|--------|--------|--------|--------|--------|--------|
G|--------|--------|--------|--------|--------|--------|--------|--------|--------|
D|--------|--------|--------|--------|--------|--------|--------|--------|--------|
A|--------|--------|--------|--------|--------|--------|--------|--------|--------|
E|--------|--------|--------|--------|--------|--------|--------|--------|--------|


E|--------|--------|--------|--------|--------|--------|--------|--------|--------|
B|--------|--------|--------|--------|--------|--------|--------|--------|--------|
G|--------|--------|--------|--------|--------|--------|--------|--------|--------|
D|--------|--------|--------|--------|--------|--------|--------|--------|--------|
A|--------|--------|--------|--------|--------|--------|--------|--------|--------|
E|--------|--------|--------|--------|--------|--------|--------|--------|--------|


E|--------|--------|--------|--------|--------|--------|--------|--------|--------|
B|--------|--------|--------|--------|--------|--------|--------|--------|--------|
G|--------|--------|--------|--------|--------|--------|--------|--------|--------|
D|--------|--------|--------|--------|--------|--------|--------|--------|--------|
A|--------|--------|--------|--------|--------|--------|--------|--------|--------|
E|--------|--------|--------|--------|--------|--------|--------|--------|--------|


E|--------|--------|--------|--------|--------|--------|--------|--------|--------|
B|--------|--------|--------|--------|--------|--------|--------|--------|--------|
G|--------|--------|--------|--------|--------|--------|--------|--------|--------|
D|--------|--------|--------|--------|--------|--------|--------|--------|--------|
A|--------|--------|--------|--------|--------|--------|--------|--------|--------|
E|--------|--------|--------|--------|--------|--------|--------|--------|--------|


E|--------|--------|--------|--------|--------|--------|--------|--------|--------|
B|--------|--------|--------|--------|--------|--------|--------|--------|--------|
G|--------|--------|--------|--------|--------|--------|--------|--------|--------|
D|--------|--------|--------|--------|--------|--------|--------|--------|--------|
A|--------|--------|--------|--------|--------|--------|--------|--------|--------|
E|--------|--------|--------|--------|--------|--------|--------|--------|--------|


E|--------|--------|--------|--------|--------|--------|--------|--------|--------|
B|--------|--------|--------|--------|--------|--------|--------|--------|--------|
G|--------|--------|--------|--------|--------|--------|--------|--------|--------|
D|--------|--------|--------|--------|--------|--------|--------|--------|--------|
A|--------|--------|--------|--------|--------|--------|--------|--------|--------|
E|--------|--------|--------|--------|--------|--------|--------|--------|--------|


E|--------|-------15----------15----------|-15----------15----------20-16----------16----------|
B|--------|----------16----16----16----16-|----16----16----16----16-------16----16----16----16-|
G|--------|-------------17----------17----|-------17----------17-------------17----------17----|
D|--------|-------------------------------|----------------------------------------------------|
A|--------|-------------------------------|----------------------------------------------------|
E|--------|-------------------------------|----------------------------------------------------|


E|-16----------16----------20-17----------17----------|-17----------17----------20-18----------18----------|
B|----16----16----16----16-------16----16----16----16-|----16----16----16----16-------18----18----18----18-|
G|-------17----------17-------------17----------17----|-------17----------17-------------19----------19----|
D|----------------------------------------------------|----------------------------------------------------|
A|----------------------------------------------------|----------------------------------------------------|
E|----------------------------------------------------|----------------------------------------------------|


E|-19----------19----------18----|-------20---20--20--|-20----20----|--------|--------|
B|----18----18----18----19-------|--------------------|-------------|--------|--------|
G|-------19----------19----------|--------------------|-------------|--------|--------|
D|-------------------------------|--------------------|-------------|--------|--------|
A|-------------------------------|--------------------|-------------|--------|--------|
E|-------------------------------|--------------------|-------------|--------|--------|


E|--------|--------|--------|--------|--------|--------|--------|--------|--------|
B|--------|--------|--------|--------|--------|--------|--------|--------|--------|
G|--------|--------|--------|--------|--------|--------|--------|--------|--------|
D|--------|--------|--------|--------|--------|--------|--------|--------|--------|
A|--------|--------|--------|--------|--------|--------|--------|--------|--------|
E|--------|--------|--------|--------|--------|--------|--------|--------|--------|


E|--------|--------|--------|--------|--------|--------|--------|--------|--------|
B|--------|--------|--------|--------|--------|--------|--------|--------|--------|
G|--------|--------|--------|--------|--------|--------|--------|--------|--------|
D|--------|--------|--------|--------|--------|--------|--------|--------|--------|
A|--------|--------|--------|--------|--------|--------|--------|--------|--------|
E|--------|--------|--------|--------|--------|--------|--------|--------|--------|


E|--------|--------|--------|--------|--------|--------|--------|--------|--------|
B|--------|--------|--------|--------|--------|--------|--------|--------|--------|
G|--------|--------|--------|--------|--------|--------|--------|--------|--------|
D|--------|--------|--------|--------|--------|--------|--------|--------|--------|
A|--------|--------|--------|--------|--------|--------|--------|--------|--------|
E|--------|--------|--------|--------|--------|--------|--------|--------|--------|


E|--------|--------|--------|--------|--------|--------|--------|--------|--------|
B|--------|--------|--------|--------|--------|--------|--------|--------|--------|
G|--------|--------|--------|--------|--------|--------|--------|--------|--------|
D|--------|--------|--------|--------|--------|--------|--------|--------|--------|
A|--------|--------|--------|--------|--------|--------|--------|--------|--------|
E|--------|--------|--------|--------|--------|--------|--------|--------|--------|


E|--------|--------|--------|--------|--------|--------|--------|--------|--------|
B|--------|--------|--------|--------|--------|--------|--------|--------|--------|
G|--------|--------|--------|--------|--------|--------|--------|--------|--------|
D|--------|--------|--------|--------|--------|--------|--------|--------|--------|
A|--------|--------|--------|--------|--------|--------|--------|--------|--------|
E|--------|--------|--------|--------|--------|--------|--------|--------|--------|


E|--------|--------|--------|--------|--------|--------|--------|--------|--------|
B|--------|--------|--------|--------|--------|--------|--------|--------|--------|
G|--------|--------|--------|--------|--------|--------|--------|--------|--------|
D|--------|--------|--------|--------|--------|--------|--------|--------|--------|
A|--------|--------|--------|--------|--------|--------|--------|--------|--------|
E|--------|--------|--------|--------|--------|--------|--------|--------|--------|


E|--------|--------|--------|--------|--------|--------|--------|--------|--------|
B|--------|--------|--------|--------|--------|--------|--------|--------|--------|
G|--------|--------|--------|--------|--------|--------|--------|--------|--------|
D|--------|--------|--------|--------|--------|--------|--------|--------|--------|
A|--------|--------|--------|--------|--------|--------|--------|--------|--------|
E|--------|--------|--------|--------|--------|--------|--------|--------|--------|


E|--------|--------|--------|--------|--------|--------|--------|--------|--------|
B|--------|--------|--------|--------|--------|--------|--------|--------|--------|
G|--------|--------|--------|--------|--------|--------|--------|--------|--------|
D|--------|--------|--------|--------|--------|--------|--------|--------|--------|
A|--------|--------|--------|--------|--------|--------|--------|--------|--------|
E|--------|--------|--------|--------|--------|--------|--------|--------|--------|


E|--------|--------|--------|
B|--------|--------|--------|
G|--------|--------|--------|
D|--------|--------|--------|
A|--------|--------|--------|
E|--------|--------|--------|





Track 10: Acoustic 1

E|--------|--------|--------|--------|--------|--------|--------|--------|--------|
B|--------|--------|--------|--------|--------|--------|--------|--------|--------|
G|--------|--------|--------|--------|--------|--------|--------|--------|--------|
D|--------|--------|--------|--------|--------|--------|--------|--------|--------|
A|--------|--------|--------|--------|--------|--------|--------|--------|--------|
E|--------|--------|--------|--------|--------|--------|--------|--------|--------|


E|--------|--------|--------|--------|--------|--------|--------|--------|--------|
B|--------|--------|--------|--------|--------|--------|--------|--------|--------|
G|--------|--------|--------|--------|--------|--------|--------|--------|--------|
D|--------|--------|--------|--------|--------|--------|--------|--------|--------|
A|--------|--------|--------|--------|--------|--------|--------|--------|--------|
E|--------|--------|--------|--------|--------|--------|--------|--------|--------|


E|--------|--------|--------|--------|--------|--------|--------|--------|--------|
B|--------|--------|--------|--------|--------|--------|--------|--------|--------|
G|--------|--------|--------|--------|--------|--------|--------|--------|--------|
D|--------|--------|--------|--------|--------|--------|--------|--------|--------|
A|--------|--------|--------|--------|--------|--------|--------|--------|--------|
E|--------|--------|--------|--------|--------|--------|--------|--------|--------|


E|--------|--------|--------|--------|--------|--------|--------|--------|--------|
B|--------|--------|--------|--------|--------|--------|--------|--------|--------|
G|--------|--------|--------|--------|--------|--------|--------|--------|--------|
D|--------|--------|--------|--------|--------|--------|--------|--------|--------|
A|--------|--------|--------|--------|--------|--------|--------|--------|--------|
E|--------|--------|--------|--------|--------|--------|--------|--------|--------|


E|--------|--------|--------|--------|--------|--------|--------|--------|--------|
B|--------|--------|--------|--------|--------|--------|--------|--------|--------|
G|--------|--------|--------|--------|--------|--------|--------|--------|--------|
D|--------|--------|--------|--------|--------|--------|--------|--------|--------|
A|--------|--------|--------|--------|--------|--------|--------|--------|--------|
E|--------|--------|--------|--------|--------|--------|--------|--------|--------|


E|--------|--------|--------|--------|--------|--------|--------|--------|--------|
B|--------|--------|--------|--------|--------|--------|--------|--------|--------|
G|--------|--------|--------|--------|--------|--------|--------|--------|--------|
D|--------|--------|--------|--------|--------|--------|--------|--------|--------|
A|--------|--------|--------|--------|--------|--------|--------|--------|--------|
E|--------|--------|--------|--------|--------|--------|--------|--------|--------|


E|--------|--------|--------|--------|--------|--------|--------|--------|--------|
B|--------|--------|--------|--------|--------|--------|--------|--------|--------|
G|--------|--------|--------|--------|--------|--------|--------|--------|--------|
D|--------|--------|--------|--------|--------|--------|--------|--------|--------|
A|--------|--------|--------|--------|--------|--------|--------|--------|--------|
E|--------|--------|--------|--------|--------|--------|--------|--------|--------|


E|--------|--------|--------|--------|--------|--------|--------|--------|--------|
B|--------|--------|--------|--------|--------|--------|--------|--------|--------|
G|--------|--------|--------|--------|--------|--------|--------|--------|--------|
D|--------|--------|--------|--------|--------|--------|--------|--------|--------|
A|--------|--------|--------|--------|--------|--------|--------|--------|--------|
E|--------|--------|--------|--------|--------|--------|--------|--------|--------|


E|--------|--------|--------|--------|--------|--------|--------|--------|--------|
B|--------|--------|--------|--------|--------|--------|--------|--------|--------|
G|--------|--------|--------|--------|--------|--------|--------|--------|--------|
D|--------|--------|--------|--------|--------|--------|--------|--------|--------|
A|--------|--------|--------|--------|--------|--------|--------|--------|--------|
E|--------|--------|--------|--------|--------|--------|--------|--------|--------|


E|--------|--------|--------|--------|--------|--------|--------|--------|--------|
B|--------|--------|--------|--------|--------|--------|--------|--------|--------|
G|--------|--------|--------|--------|--------|--------|--------|--------|--------|
D|--------|--------|--------|--------|--------|--------|--------|--------|--------|
A|--------|--------|--------|--------|--------|--------|--------|--------|--------|
E|--------|--------|--------|--------|--------|--------|--------|--------|--------|


E|--------|--------|--------|--------|--------|--------|--------|--------|--------|
B|--------|--------|--------|--------|--------|--------|--------|--------|--------|
G|--------|--------|--------|--------|--------|--------|--------|--------|--------|
D|--------|--------|--------|--------|--------|--------|--------|--------|--------|
A|--------|--------|--------|--------|--------|--------|--------|--------|--------|
E|--------|--------|--------|--------|--------|--------|--------|--------|--------|


E|--------|--------|--------|--------|--------|--------|--------|--------|--------|
B|--------|--------|--------|--------|--------|--------|--------|--------|--------|
G|--------|--------|--------|--------|--------|--------|--------|--------|--------|
D|--------|--------|--------|--------|--------|--------|--------|--------|--------|
A|--------|--------|--------|--------|--------|--------|--------|--------|--------|
E|--------|--------|--------|--------|--------|--------|--------|--------|--------|


E|--------|--------|--------|--------|--------|--------|--------|--------|--------|
B|--------|--------|--------|--------|--------|--------|--------|--------|--------|
G|--------|--------|--------|--------|--------|--------|--------|--------|--------|
D|--------|--------|--------|--------|--------|--------|--------|--------|--------|
A|--------|--------|--------|--------|--------|--------|--------|--------|--------|
E|--------|--------|--------|--------|--------|--------|--------|--------|--------|


E|--------|--------|--------|--------|--------|--------|--------|--------|--------|
B|--------|--------|--------|--------|--------|--------|--------|--------|--------|
G|--------|--------|--------|--------|--------|--------|--------|--------|--------|
D|--------|--------|--------|--------|--------|--------|--------|--------|--------|
A|--------|--------|--------|--------|--------|--------|--------|--------|--------|
E|--------|--------|--------|--------|--------|--------|--------|--------|--------|


E|--------|--------|--------|--------|--------|--------|--------|--------|--------|
B|--------|--------|--------|--------|--------|--------|--------|--------|--------|
G|--------|--------|--------|--------|--------|--------|--------|--------|--------|
D|--------|--------|--------|--------|--------|--------|--------|--------|--------|
A|--------|--------|--------|--------|--------|--------|--------|--------|--------|
E|--------|--------|--------|--------|--------|--------|--------|--------|--------|


E|--------|--------|--------|--------|--------|--------|--------|--------|--------|
B|--------|--------|--------|--------|--------|--------|--------|--------|--------|
G|--------|--------|--------|--------|--------|--------|--------|--------|--------|
D|--------|--------|--------|--------|--------|--------|--------|--------|--------|
A|--------|--------|--------|--------|--------|--------|--------|--------|--------|
E|--------|--------|--------|--------|--------|--------|--------|--------|--------|


E|--------|--------|--------|--------|--------|--------|--------|--------|--------|
B|--------|--------|--------|--------|--------|--------|--------|--------|--------|
G|--------|--------|--------|--------|--------|--------|--------|--------|--------|
D|--------|--------|--------|--------|--------|--------|--------|--------|--------|
A|--------|--------|--------|--------|--------|--------|--------|--------|--------|
E|--------|--------|--------|--------|--------|--------|--------|--------|--------|


E|--------|--------|--------|--------|--------|--------|--------|--------|--------|
B|--------|--------|--------|--------|--------|--------|--------|--------|--------|
G|--------|--------|--------|--------|--------|--------|--------|--------|--------|
D|--------|--------|--------|--------|--------|--------|--------|--------|--------|
A|--------|--------|--------|--------|--------|--------|--------|--------|--------|
E|--------|--------|--------|--------|--------|--------|--------|--------|--------|


E|--------|--------|--------|--------|--------|--------|--------|--------|--------|
B|--------|--------|--------|--------|--------|--------|--------|--------|--------|
G|--------|--------|--------|--------|--------|--------|--------|--------|--------|
D|--------|--------|--------|--------|--------|--------|--------|--------|--------|
A|--------|--------|--------|--------|--------|--------|--------|--------|--------|
E|--------|--------|--------|--------|--------|--------|--------|--------|--------|


E|--------|--------|--------|--------|--------|--------|--------|--------|--------|
B|--------|--------|--------|--------|--------|--------|--------|--------|--------|
G|--------|--------|--------|--------|--------|--------|--------|--------|--------|
D|--------|--------|--------|--------|--------|--------|--------|--------|--------|
A|--------|--------|--------|--------|--------|--------|--------|--------|--------|
E|--------|--------|--------|--------|--------|--------|--------|--------|--------|


E|--------|--------|--------|--------|--------|--------|--------|--------|--------|
B|--------|--------|--------|--------|--------|--------|--------|--------|--------|
G|--------|--------|--------|--------|--------|--------|--------|--------|--------|
D|--------|--------|--------|--------|--------|--------|--------|--------|--------|
A|--------|--------|--------|--------|--------|--------|--------|--------|--------|
E|--------|--------|--------|--------|--------|--------|--------|--------|--------|


E|--------|--------|--------|--------|--------|--------|--------|--------|--------|
B|--------|--------|--------|--------|--------|--------|--------|--------|--------|
G|--------|--------|--------|--------|--------|--------|--------|--------|--------|
D|--------|--------|--------|--------|--------|--------|--------|--------|--------|
A|--------|--------|--------|--------|--------|--------|--------|--------|--------|
E|--------|--------|--------|--------|--------|--------|--------|--------|--------|


E|--------|--------|--------|--------|--------|--------|--------|--------|--------|
B|--------|--------|--------|--------|--------|--------|--------|--------|--------|
G|--------|--------|--------|--------|--------|--------|--------|--------|--------|
D|--------|--------|--------|--------|--------|--------|--------|--------|--------|
A|--------|--------|--------|--------|--------|--------|--------|--------|--------|
E|--------|--------|--------|--------|--------|--------|--------|--------|--------|


E|--------|--------|--------|--------|--------|--------|--------|--------|--------|
B|--------|--------|--------|--------|--------|--------|--------|--------|--------|
G|--------|--------|--------|--------|--------|--------|--------|--------|--------|
D|--------|--------|--------|--------|--------|--------|--------|--------|--------|
A|--------|--------|--------|--------|--------|--------|--------|--------|--------|
E|--------|--------|--------|--------|--------|--------|--------|--------|--------|


E|--------|--------|--------|-------29--29-------|-------------|-------29----|-------29----|
B|--------|--------|--------|--------------------|-------------|-------------|-------------|
G|--------|--------|--------|--------------------|-------------|-------------|-------------|
D|--------|--------|--------|--------------------|-------------|-------------|-------------|
A|--------|--------|--------|--------------------|-------------|-------------|-------------|
E|--------|--------|--------|--------------------|-------------|-------------|-------------|


E|--------|--------|--------|--------|--------|--------|--------|--------|--------|
B|--------|--------|--------|--------|--------|--------|--------|--------|--------|
G|--------|--------|--------|--------|--------|--------|--------|--------|--------|
D|--------|--------|--------|--------|--------|--------|--------|--------|--------|
A|--------|--------|--------|--------|--------|--------|--------|--------|--------|
E|--------|--------|--------|--------|--------|--------|--------|--------|--------|


E|--------|--------|--------|--------|--------|--------|--------|--------|--------|
B|--------|--------|--------|--------|--------|--------|--------|--------|--------|
G|--------|--------|--------|--------|--------|--------|--------|--------|--------|
D|--------|--------|--------|--------|--------|--------|--------|--------|--------|
A|--------|--------|--------|--------|--------|--------|--------|--------|--------|
E|--------|--------|--------|--------|--------|--------|--------|--------|--------|


E|--------|--------|--------|--------|--------|--------|--------|--------|--------|
B|--------|--------|--------|--------|--------|--------|--------|--------|--------|
G|--------|--------|--------|--------|--------|--------|--------|--------|--------|
D|--------|--------|--------|--------|--------|--------|--------|--------|--------|
A|--------|--------|--------|--------|--------|--------|--------|--------|--------|
E|--------|--------|--------|--------|--------|--------|--------|--------|--------|


E|--------|--------|--------|--------|--------|--------|--------|--------|--------|
B|--------|--------|--------|--------|--------|--------|--------|--------|--------|
G|--------|--------|--------|--------|--------|--------|--------|--------|--------|
D|--------|--------|--------|--------|--------|--------|--------|--------|--------|
A|--------|--------|--------|--------|--------|--------|--------|--------|--------|
E|--------|--------|--------|--------|--------|--------|--------|--------|--------|


E|--------|--------|--------|--------|--------|--------|
B|--------|--------|--------|--------|--------|--------|
G|--------|--------|--------|--------|--------|--------|
D|--------|--------|--------|--------|--------|--------|
A|--------|--------|--------|--------|--------|--------|
E|--------|--------|--------|--------|--------|--------|





Track 11: Acoustic 1

E|--------|--------|--------|--------|--------|--------|--------|--------|--------|
B|--------|--------|--------|--------|--------|--------|--------|--------|--------|
G|--------|--------|--------|--------|--------|--------|--------|--------|--------|
D|--------|--------|--------|--------|--------|--------|--------|--------|--------|
A|--------|--------|--------|--------|--------|--------|--------|--------|--------|
E|--------|--------|--------|--------|--------|--------|--------|--------|--------|


E|--------|--------|--------|--------|--------|--------|--------|--------|--------|
B|--------|--------|--------|--------|--------|--------|--------|--------|--------|
G|--------|--------|--------|--------|--------|--------|--------|--------|--------|
D|--------|--------|--------|--------|--------|--------|--------|--------|--------|
A|--------|--------|--------|--------|--------|--------|--------|--------|--------|
E|--------|--------|--------|--------|--------|--------|--------|--------|--------|


E|--------|--------|--------|--------|--------|--------|--------|--------|--------|
B|--------|--------|--------|--------|--------|--------|--------|--------|--------|
G|--------|--------|--------|--------|--------|--------|--------|--------|--------|
D|--------|--------|--------|--------|--------|--------|--------|--------|--------|
A|--------|--------|--------|--------|--------|--------|--------|--------|--------|
E|--------|--------|--------|--------|--------|--------|--------|--------|--------|


E|--------|--------|--------|--------|--------|--------|--------|--------|--------|
B|--------|--------|--------|--------|--------|--------|--------|--------|--------|
G|--------|--------|--------|--------|--------|--------|--------|--------|--------|
D|--------|--------|--------|--------|--------|--------|--------|--------|--------|
A|--------|--------|--------|--------|--------|--------|--------|--------|--------|
E|--------|--------|--------|--------|--------|--------|--------|--------|--------|


E|--------|--------|--------|--------|--------|--------|--------|--------|--------|
B|--------|--------|--------|--------|--------|--------|--------|--------|--------|
G|--------|--------|--------|--------|--------|--------|--------|--------|--------|
D|--------|--------|--------|--------|--------|--------|--------|--------|--------|
A|--------|--------|--------|--------|--------|--------|--------|--------|--------|
E|--------|--------|--------|--------|--------|--------|--------|--------|--------|


E|--------|--------|--------|--------|--------|--------|--------|--------|--------|
B|--------|--------|--------|--------|--------|--------|--------|--------|--------|
G|--------|--------|--------|--------|--------|--------|--------|--------|--------|
D|--------|--------|--------|--------|--------|--------|--------|--------|--------|
A|--------|--------|--------|--------|--------|--------|--------|--------|--------|
E|--------|--------|--------|--------|--------|--------|--------|--------|--------|


E|--------|--------|--------|--------|--------|--------|--------|--------|--------|
B|--------|--------|--------|--------|--------|--------|--------|--------|--------|
G|--------|--------|--------|--------|--------|--------|--------|--------|--------|
D|--------|--------|--------|--------|--------|--------|--------|--------|--------|
A|--------|--------|--------|--------|--------|--------|--------|--------|--------|
E|--------|--------|--------|--------|--------|--------|--------|--------|--------|


E|--------|--------|--------|--------|--------|--------|--------|--------|--------|
B|--------|--------|--------|--------|--------|--------|--------|--------|--------|
G|--------|--------|--------|--------|--------|--------|--------|--------|--------|
D|--------|--------|--------|--------|--------|--------|--------|--------|--------|
A|--------|--------|--------|--------|--------|--------|--------|--------|--------|
E|--------|--------|--------|--------|--------|--------|--------|--------|--------|


E|--------|--------|--------|--------|--------|--------|--------|--------|--------|
B|--------|--------|--------|--------|--------|--------|--------|--------|--------|
G|--------|--------|--------|--------|--------|--------|--------|--------|--------|
D|--------|--------|--------|--------|--------|--------|--------|--------|--------|
A|--------|--------|--------|--------|--------|--------|--------|--------|--------|
E|--------|--------|--------|--------|--------|--------|--------|--------|--------|


E|--------|--------|--------|--------|--------|--------|--------|--------|--------|
B|--------|--------|--------|--------|--------|--------|--------|--------|--------|
G|--------|--------|--------|--------|--------|--------|--------|--------|--------|
D|--------|--------|--------|--------|--------|--------|--------|--------|--------|
A|--------|--------|--------|--------|--------|--------|--------|--------|--------|
E|--------|--------|--------|--------|--------|--------|--------|--------|--------|


E|--------|--------|--------|--------|--------|--------|--------|--------|--------|
B|--------|--------|--------|--------|--------|--------|--------|--------|--------|
G|--------|--------|--------|--------|--------|--------|--------|--------|--------|
D|--------|--------|--------|--------|--------|--------|--------|--------|--------|
A|--------|--------|--------|--------|--------|--------|--------|--------|--------|
E|--------|--------|--------|--------|--------|--------|--------|--------|--------|


E|--------|--------|--------|--------|--------|--------|--------|--------|--------|
B|--------|--------|--------|--------|--------|--------|--------|--------|--------|
G|--------|--------|--------|--------|--------|--------|--------|--------|--------|
D|--------|--------|--------|--------|--------|--------|--------|--------|--------|
A|--------|--------|--------|--------|--------|--------|--------|--------|--------|
E|--------|--------|--------|--------|--------|--------|--------|--------|--------|


E|--------|--------|--------|--------|--------|--------|--------|--------|--------|
B|--------|--------|--------|--------|--------|--------|--------|--------|--------|
G|--------|--------|--------|--------|--------|--------|--------|--------|--------|
D|--------|--------|--------|--------|--------|--------|--------|--------|--------|
A|--------|--------|--------|--------|--------|--------|--------|--------|--------|
E|--------|--------|--------|--------|--------|--------|--------|--------|--------|


E|--------|--------|--------|--------|--------|--------|--------|--------|--------|
B|--------|--------|--------|--------|--------|--------|--------|--------|--------|
G|--------|--------|--------|--------|--------|--------|--------|--------|--------|
D|--------|--------|--------|--------|--------|--------|--------|--------|--------|
A|--------|--------|--------|--------|--------|--------|--------|--------|--------|
E|--------|--------|--------|--------|--------|--------|--------|--------|--------|


E|--------|--------|--------|--------|--------|--------|--------|--------|--------|
B|--------|--------|--------|--------|--------|--------|--------|--------|--------|
G|--------|--------|--------|--------|--------|--------|--------|--------|--------|
D|--------|--------|--------|--------|--------|--------|--------|--------|--------|
A|--------|--------|--------|--------|--------|--------|--------|--------|--------|
E|--------|--------|--------|--------|--------|--------|--------|--------|--------|


E|--------|--------|--------|--------|--------|--------|--------|--------|--------|
B|--------|--------|--------|--------|--------|--------|--------|--------|--------|
G|--------|--------|--------|--------|--------|--------|--------|--------|--------|
D|--------|--------|--------|--------|--------|--------|--------|--------|--------|
A|--------|--------|--------|--------|--------|--------|--------|--------|--------|
E|--------|--------|--------|--------|--------|--------|--------|--------|--------|


E|--------|--------|--------|--------|--------|--------|--------|--------|--------|
B|--------|--------|--------|--------|--------|--------|--------|--------|--------|
G|--------|--------|--------|--------|--------|--------|--------|--------|--------|
D|--------|--------|--------|--------|--------|--------|--------|--------|--------|
A|--------|--------|--------|--------|--------|--------|--------|--------|--------|
E|--------|--------|--------|--------|--------|--------|--------|--------|--------|


E|--------|--------|--------|--------|--------|--------|--------|--------|--------|
B|--------|--------|--------|--------|--------|--------|--------|--------|--------|
G|--------|--------|--------|--------|--------|--------|--------|--------|--------|
D|--------|--------|--------|--------|--------|--------|--------|--------|--------|
A|--------|--------|--------|--------|--------|--------|--------|--------|--------|
E|--------|--------|--------|--------|--------|--------|--------|--------|--------|


E|--------|--------|--------|--------|--------|--------|--------|--------|--------|
B|--------|--------|--------|--------|--------|--------|--------|--------|--------|
G|--------|--------|--------|--------|--------|--------|--------|--------|--------|
D|--------|--------|--------|--------|--------|--------|--------|--------|--------|
A|--------|--------|--------|--------|--------|--------|--------|--------|--------|
E|--------|--------|--------|--------|--------|--------|--------|--------|--------|


E|--------|--------|--------|--------|--------|--------|--------|--------|--------|
B|--------|--------|--------|--------|--------|--------|--------|--------|--------|
G|--------|--------|--------|--------|--------|--------|--------|--------|--------|
D|--------|--------|--------|--------|--------|--------|--------|--------|--------|
A|--------|--------|--------|--------|--------|--------|--------|--------|--------|
E|--------|--------|--------|--------|--------|--------|--------|--------|--------|


E|--------|--------|--------|--------|--------|--------|--------|--------|--------|
B|--------|--------|--------|--------|--------|--------|--------|--------|--------|
G|--------|--------|--------|--------|--------|--------|--------|--------|--------|
D|--------|--------|--------|--------|--------|--------|--------|--------|--------|
A|--------|--------|--------|--------|--------|--------|--------|--------|--------|
E|--------|--------|--------|--------|--------|--------|--------|--------|--------|


E|--------|--------|--------|--------|--------|--------|--------|--------|--------|
B|--------|--------|--------|--------|--------|--------|--------|--------|--------|
G|--------|--------|--------|--------|--------|--------|--------|--------|--------|
D|--------|--------|--------|--------|--------|--------|--------|--------|--------|
A|--------|--------|--------|--------|--------|--------|--------|--------|--------|
E|--------|--------|--------|--------|--------|--------|--------|--------|--------|


E|--------|--------|--------|--------|--------|--------|--------|--------|--------|
B|--------|--------|--------|--------|--------|--------|--------|--------|--------|
G|--------|--------|--------|--------|--------|--------|--------|--------|--------|
D|--------|--------|--------|--------|--------|--------|--------|--------|--------|
A|--------|--------|--------|--------|--------|--------|--------|--------|--------|
E|--------|--------|--------|--------|--------|--------|--------|--------|--------|


E|--------|--------|--------|--------|--------|--------|--------|--------|--------|
B|--------|--------|--------|--------|--------|--------|--------|--------|--------|
G|--------|--------|--------|--------|--------|--------|--------|--------|--------|
D|--------|--------|--------|--------|--------|--------|--------|--------|--------|
A|--------|--------|--------|--------|--------|--------|--------|--------|--------|
E|--------|--------|--------|--------|--------|--------|--------|--------|--------|


E|--------|--------|--------|--------|--------|--------|--------|-------29--29-------|
B|--------|--------|--------|--------|--------|--------|--------|--------------------|
G|--------|--------|--------|--------|--------|--------|--------|--------------------|
D|--------|--------|--------|--------|--------|--------|--------|--------------------|
A|--------|--------|--------|--------|--------|--------|--------|--------------------|
E|--------|--------|--------|--------|--------|--------|--------|--------------------|


E|-------------|-------29----|-------29----|-------29--29-------|-------29--29-------|
B|-------------|-------------|-------------|--------------------|--------------------|
G|-------------|-------------|-------------|--------------------|--------------------|
D|-------------|-------------|-------------|--------------------|--------------------|
A|-------------|-------------|-------------|--------------------|--------------------|
E|-------------|-------------|-------------|--------------------|--------------------|


E|-------29----|-------29----|-------29--29-------|-------29--29-------|-------29----|
B|-------------|-------------|--------------------|--------------------|-------------|
G|-------------|-------------|--------------------|--------------------|-------------|
D|-------------|-------------|--------------------|--------------------|-------------|
A|-------------|-------------|--------------------|--------------------|-------------|
E|-------------|-------------|--------------------|--------------------|-------------|


E|-------29----|-------------|-------------|-------------|-------------|-------------|
B|-------------|-------------|-------------|-------------|-------------|-------------|
G|-------------|-------------|-------------|-------------|-------------|-------19----|
D|-------------|-------19----|-------19----|-------19----|-------19----|-------19----|
A|-------------|-------17----|-------17----|-------17----|-------17----|-------------|
E|-------------|-------------|-------------|-------------|-------------|-------------|


E|-----------------|-------------|-------------|-----------------|-----------------|
B|------17---18----|-------18----|-------17----|-------17--18----|-----------18----|
G|------19---19----|-------19----|-------19----|-------19--19----|-----------19----|
D|------19---19----|-------19----|-------19----|-------19--19----|-----------19----|
A|-----------------|-------------|-------------|-----------------|-----------------|
E|-----------------|-------------|-------------|-----------------|-----------------|


E|-----------------|-----------------|-----------------|-----------------|-----------------|
B|-----------------|-----------------|-----------18----|-----------18----|-----------18----|
G|-----------19----|-----------19----|-----------19----|-----------19----|-----------19----|
D|-----------20----|-----------19----|-----------19----|-----------19----|-----------19----|
A|-----------------|-----------------|-----------------|-----------------|-----------------|
E|-----------------|-----------------|-----------------|-----------------|-----------------|


E|-----------------|-----------18---18--18-|----18--18------18------18------18---18--18--|
B|-----------17----|-----------18---18--18-|----18--18------18------18------18---18--18--|
G|-----------19----|-----------19---19--19-|----19--19------19------19------19---19--19--|
D|-----------19----|-----------------------|---------------------------------------------|
A|-----------------|-----------------------|---------------------------------------------|
E|-----------------|-----------------------|---------------------------------------------|


E|-----16---16--16--16--16------16------16-|--------16---16--16---20---20--20-|----20--20------20------20------20---20--20--|
B|-----18---18--18--18--18------18------18-|--------18---18--18---20---20--20-|----20--20------20------20------20---20--20--|
G|-----17---17--17--17--17------17------17-|--------17---17--17---20---20--20-|----20--20------20------20------20---20--20--|
D|-----------------------------------------|----------------------------------|---------------------------------------------|
A|-----------------------------------------|----------------------------------|---------------------------------------------|
E|-----------------------------------------|----------------------------------|---------------------------------------------|


E|-----18---18--18--18--18------18------18-|--------18---18--18---17---17--17-|----17--17------17------17------17---17--17--|
B|-----18---18--18--18--18------18------18-|--------18---18--18---20---20--20-|----20--20------20------20------20---20--20--|
G|-----19---19--19--19--19------19------19-|--------19---19--19---20---20--20-|----20--20------20------20------20---20--20--|
D|-----------------------------------------|----------------------22---22--22-|----22--22------22------22------22---22--22--|
A|-----------------------------------------|----------------------------------|---------------------------------------------|
E|-----------------------------------------|----------------------------------|---------------------------------------------|


E|-----------------------------------------|----------------------20---20--20-|----20--20------20------20------20---20--20--|
B|-----20---20--20--20--20------20------20-|--------20---20--20---20---20--20-|----20--20------20------20------20---20--20--|
G|-----20---20--20--20--20------20------20-|--------20---20--20---20---20--20-|----20--20------20------20------20---20--20--|
D|-----22---22--22--22--22------22------22-|--------22---22--22---------------|---------------------------------------------|
A|-----------------------------------------|----------------------------------|---------------------------------------------|
E|-----------------------------------------|----------------------------------|---------------------------------------------|


E|-----18---18--18--18--18------18------18-|--------18---18--18---18---18--18-|----18--18------18------18------18------18--18--|
B|-----20---20--20--20--20------20------20-|--------20---20--20---18---18--18-|----18--18------18------18------18------18--18--|
G|-----19---19--19--19--19------19------19-|--------19---19--19---19---19--19-|----19--19------19------19------19------19--19--|
D|-----------------------------------------|----------------------------------|------------------------------------------------|
A|-----------------------------------------|----------------------------------|------------------------------------------------|
E|-----------------------------------------|----------------------------------|------------------------------------------------|





Track 12: Bass

G|--------|--------|--------|--------|--------|--------|--------|--------|--------|
D|--------|--------|--------|--------|--------|--------|--------|--------|--------|
A|--------|--------|--------|--------|--------|--------|--------|--------|--------|
E|--------|--------|--------|--------|--------|--------|--------|--------|--------|


G|--------|--------|--------|--------|--------|--------|----------------|--------|
D|--------|--------|--------|--------|--------|--------|----------------|--------|
A|--------|--------|--------|--------|--------|--------|----------------|--------|
E|--------|--------|--------|--------|--------|--------|----------------|--------|


G|-------------|------5----5------------|-------------|------5----5------------|-------------------------|
D|-------------|---------------5---5----|-------------|---------------5---5----|-------5-----------------|
A|-------------|------------------------|-------------|------------------------|-------------------------|
E|--------3----|------------------------|--------3----|------------------------|-----------3--3--3---3---|


G|-------------|-------------------------|-------------|-------------------------|
D|-------------|-------------------------|-------------|-------------------------|
A|-------------|-------------------------|-------------|-------------------------|
E|-------------|-----------3--3--3---3---|-------------|-----------3--3--3---3---|


G|-----------------------------|-------------------------|-----------------------------|
D|-----------------------------|-------------------------|-----------------------------|
A|-----------------------------|-------------------------|-----------------------------|
E|-----3--3--3---3-------------|-----------3--3--3---3---|-----3--3--3---3-------------|


G|-------------------------|-----------12----12---|------12------------------|-----------12------12-14-15-----------|
D|-------------------------|----------------------|--------------------------|----------------------------13-13-13--|
A|-------------------------|----------------------|--------------------------|--------------------------------------|
E|-----------3--3--3---3---|-----3--3-------------|------------3--3--3---3---|-----3--3-----------------------------|


G|---------------------------------------|---------------------------------|---------------------------------------|
D|-12-12-12--10-10-10--8--8--8-----------|---------------------------------|---------------------------------------|
A|---------------------------------------|---------------------------------|---------------------------------------|
E|-------------------------------3---3---|-3---3---3---3---3---3---3---3---|-3---3--3--3---3--3--3---3--3--3---3---|


G|---------------------------------|---------------------------------------|---------------------------------|
D|---------------------------------|---------------------------------------|---------------------------------|
A|---------------------------------|---------------------------------------|---------------------------------|
E|-3---3---3---3---3---3---3---3---|-3---3--3--3---3--3--3---3--3--3---3---|-3---3---3---3---3---3---3---3---|


G|---------------------------------------|---------------------------------|----------------|
D|---------------------------------------|---------------------------------|----------------|
A|---------------------------------------|-------------------------5-------|------------10--|
E|-3---3--3--3---3--3--3---3--3--3---3---|-3---3---3---3---3---3-------6---|-6------8-------|


G|-----------------------|--------5--5----5-----|-------------|----------------------|
D|-12----------10--5-----|-5---5----------------|-------5-----|-5---5--5--5----5-----|
A|---------8-------------|----------------------|-------------|----------------------|
E|-----6-----------------|----------------------|-------------|----------------------|


G|-------------|--------5--5----5-----|-------------|-------------|-----------------|
D|-------5-----|-5---5----------------|-------7-----|-------7-----|------12---5-----|
A|-------------|----------------------|-------------|-------------|-----------------|
E|-------------|----------------------|-------------|-------------|-----------------|


G|-------------|-----------------|-------------|-----------------|-------------|-----------------|
D|-------5-----|------8----7-----|-------7-----|-----------5-----|-------5-----|------8----10----|
A|-------------|-----------------|-------------|------5----------|-------------|-----------------|
E|-------------|-----------------|-------------|-----------------|-------------|-----------------|


G|-------------|-------------|-----15--14--12--12----|-----------------|-------------|
D|-------7-----|-------5-----|-5---------------------|------8----7-----|-------7-----|
A|-------------|-8-----------|-----------------------|-----------------|-------------|
E|-------------|-------------|-----------------------|-----------------|-------------|


G|-----------------|-12--12--14--15--15----|------10---12----|-------8-----|-7-----------|
D|-----------5-----|-----------------------|-----------------|-------------|-------------|
A|------5----------|-----------------------|-----------------|-------------|-------------|
E|-----------------|-----------------------|-----------------|-------------|-------------|


G|-12----12----|-------------|-------------|-------------|-12----12----|-------------|
D|-------------|-------------|-12----12----|-------------|-------------|-------------|
A|-------------|-------------|-------------|-------------|-------------|-------------|
E|-------------|-------------|-------------|-------------|-------------|-------------|


G|-------------|-------------|-------------|-------------|-------------|-------------|
D|-12----12----|-------------|-5-----5-----|-------------|-7-----7-----|-------------|
A|-------------|-------------|-------------|-------------|-------------|-------------|
E|-------------|-------------|-------------|-------------|-------------|-------------|


G|-------------|-------------|-----------20--20---|-----------------------|---------------------------------|
D|-8-----8-----|-------------|-13----13-----------|---------------12------|-----10--------------------------|
A|-------------|-------------|--------------------|-----------10----------|-8-------------------------------|
E|-------------|-------------|--------------------|-------8-----------6---|---------3---3---3---3---3---3---|


G|-------------------------------------|-----------------------------------|-------------------------------------|
D|-------------------------------------|-----------------------------------|-------------------------------------|
A|-------------------------------------|-----------------------------------|-------------------------------------|
E|-3---3---3---3---3---3--3--3---3--3--|-3---3--3--3---3---3---3---3---3---|-3---3---3---3---3---3--3--3---3--3--|


G|-----------------------------------|-------------------------------------|-----------------------------------|
D|-----------------------------------|-------------------------------------|-----------------------------------|
A|-----------------------------------|-------------------------------------|-----------------------------------|
E|-3---3--3--3---3---3---3---3---3---|-3---3---3---3---3---3--3--3---3--3--|-3---3--3--3---3---3---3---3---3---|


G|-----------------------|------------------------------|-----------------------------------------|
D|-----------------------|--------------8-----------10--|-----------5---5--5------------5---5--5--|
A|---------5-------------|----------6-----------8-------|-----------------------------------------|
E|-3---3-------6---6-----|------4-----------6-----------|-3---3--3------------3---3--3------------|


G|-----------------------------------------|-----------------------------------------|
D|-----------3---3--3------------3---3--3--|-----------5---5--5------------5---5--5--|
A|-----------------------------------------|-----------------------------------------|
E|-3---3--3------------3---3--3------------|-3---3--3------------3---3--3------------|


G|-------------------------------------------------|-----------------------------------------|
D|-------------------------------------------------|-----------5---5--5------------5---5--5--|
A|-3--3--3--3--3--3--3--3--------------------3-----|-----------------------------------------|
E|-------------------------5--5--5--5--5--5-----5--|-3---3--3------------3---3--3------------|


G|-----------------------------------------|-----------------------------------------|
D|-----------3---3--3------------3---3--3--|-----------5---5--5------------5---5--5--|
A|-----------------------------------------|-----------------------------------------|
E|-3---3--3------------3---3--3------------|-3---3--3------------3---3--3------------|


G|-------------------------------|-----------------------------------------|-----------------------------------------|
D|-------------------------------|--------------5--5-----------------------|--------------5--5-----------------------|
A|-3---3--3--3-------------------|----------------------------------5--5---|----------------------------------5--5---|
E|----------------5---5--5--5----|-3---3--3--3---------3---3--3--3---------|-3---3--3--3---------3---3--3--3---------|


G|-------------------------3-----|-------8--7--5--------------------|-----------------------------------------|
D|----------------6----6------6--|-5--------------8--7--5-----------|--------------5--5-----------------------|
A|-3----3---3--5-----------------|-------------------------8--6--5--|----------------------------------5--5---|
E|-------------------------------|----------------------------------|-3---3--3--3---------3---3--3--3---------|


G|-----------------------------------------|------------------------|---------------------------|
D|--------------5--5-----------------------|------------------------|-------8--8----------------|
A|-----------------------------------------|-------5----5--3--5--3--|-------------5-------------|
E|-3---3--3--3---------3---3--3--3--3--5---|-6----------------------|-5---------------6--3--5---|


G|-----------------------------------------|-----------------------------------------|
D|--------------5--5-----------------------|--------------5--5-----------------------|
A|----------------------------------5--5---|----------------------------------5--5---|
E|-3---3--3--3---------3---3--3--3---------|-3---3--3--3---------3---3--3--3---------|


G|-------------------------3-----|-------8--7--5--------------------|-----------------------------------------|
D|----------------6----6------6--|-5--------------8--7--5-----------|--------------5--5-----------------------|
A|-3----3---3--5-----------------|-------------------------8--6--5--|----------------------------------5--5---|
E|-------------------------------|----------------------------------|-3---3--3--3---------3---3--3--3---------|


G|-----------------------------------------|------------------------|---------------------------|
D|--------------5--5-----------------------|------------------------|-------8--8----------------|
A|-----------------------------------------|-------5----5--3--5--3--|-------------5-------------|
E|-3---3--3--3---------3---3--3--3--3--5---|-6----------------------|-5---------------6--3--5---|


G|--------|-------------------7--8--10----|-----------------------------------------|
D|--------|----------7--8--10-------------|--------------5--5-----------------------|
A|-6------|-6--8--10----------------------|----------------------------------5--5---|
E|--------|-------------------------------|-3---3--3--3---------3---3--3--3---------|


G|-----------------------------------------|--------|--------|-----------------------------------------|
D|--------------5--5-----------------------|--------|--------|--------------5--5-----------------------|
A|-------------------------------------5---|-6------|-8------|----------------------------------5--5---|
E|-3---3--3--3---------3---3--3--3--3------|--------|--------|-3---3--3--3---------3---3--3--3---------|


G|-157-157-157-157-147-147-147-147-127-127-127-127-107-107-107-107-|-----------------------------------------|
D|-----------------------------------------------------------------|--------------5--5-----------------------|
A|-----------------------------------------------------------------|----------------------------------5--5---|
E|-----------------------------------------------------------------|-3---3--3--3---------3---3--3--3---------|


G|-----------------------------------------|-------------------------3-----|-------12-10-8--------------------|
D|--------------5--5-----------------------|----------------6----6------6--|-5--------------12-10-8-----------|
A|----------------------------------5--5---|-3----3---3--5-----------------|-------------------------12-10-8--|
E|-3---3--3--3---------3---3--3--3---------|-------------------------------|----------------------------------|


G|-----------------------------------------|-----------------------------------------|
D|--------------5--5-----------------------|--------------5--5-----------------------|
A|----------------------------------5--5---|-----------------------------------------|
E|-3---3--3--3---------3---3--3--3---------|-3---3--3--3---------3---3--3--3--3--5---|


G|------------------------|-----------------------------|--------|-------------------7--8--10----|
D|------------------------|-------8--8------------------|--------|----------7--8--10-------------|
A|-------5----5--3--5--3--|-------------5---------------|-6------|-6--8--10----------------------|
E|-6----------------------|-5---------------6---3---5---|--------|-------------------------------|


G|-----------------------------------------|-----------------------------------------|
D|--------------5--5-----------------------|--------------5--5-----------------------|
A|----------------------------------5--5---|-------------------------------------5---|
E|-3---3--3--3---------3---3--3--3---------|-3---3--3--3---------3---3--3--3--3------|


G|--------|--------|-----------------------------------------|-----------------------------------------|
D|--------|--------|-----------------------------------------|-----------------------------------------|
A|-6------|-8------|-3---3--3--3---3--3--3---3--3--3---3--3--|-3---3--3--3---3--3--3---3--3--3---3--3--|
E|--------|--------|-----------------------------------------|-----------------------------------------|


G|-----------------------------------------|------------------------|------------17-17-------15-15-----------|
D|-----------------------------------------|-6----6---5---5----8----|-6----13-13-------13-13-----------------|
A|-3---3--3--3---3--3--3---3--3--3---3--3--|------------------------|------------------------------3---3--3--|
E|-----------------------------------------|------------------------|----------------------------------------|


G|-----------------------------------------|-----------------------------------------|
D|-----------------------------------------|-----------------------------------------|
A|-3---3--3--3---3--3--3---3--3--3---3--3--|-3---3--3--3---3--3--3---3--3--3---3--3--|
E|-----------------------------------------|-----------------------------------------|


G|------------------------------------|------------------------|-------17-17-------15-15---------------------|
D|-------------------------------6----|-6---5---5----8----6----|-13-13-------13-13---------------------------|
A|-3---3--3--3---3--3--3---3--3-------|------------------------|-------------------------3---3--3--3---3--3--|
E|------------------------------------|------------------------|---------------------------------------------|


G|-----------------------------------------|-----------------------------------------|
D|-----------------------------------------|-----------------------------------------|
A|-3---3--3--3---3--3--3---3--3--3---3--3--|-3---3--3--3---3--3--3---3--3--3---3--3--|
E|-----------------------------------------|-----------------------------------------|


G|----------------------------------|----------------------17-17-|-------15-15-------------------------------|
D|---------------------6----6---5---|-5----8----6----13-13-------|-13-13-------------------------------------|
A|-3---3--3--3---3--3---------------|----------------------------|-------------3---3--3--3---3--3--3---3--3--|
E|----------------------------------|----------------------------|-------------------------------------------|


G|-----------------------------------------|-----------------------------------------|
D|-----------------------------------------|-----------------------------------------|
A|-3---3--3--3---3--3--3---3--3--3---3--3--|-3---3--3--3---3--3--3---3--3--3---3--3--|
E|-----------------------------------------|-----------------------------------------|


G|-----------------------------|-----------------17-17-------15-15-|---------------------------------|
D|-----------6----6---5---5----|-8----6----13-13-------13-13-------|-------------5---3-------8---6---|
A|-3---3--3--------------------|-----------------------------------|-3---5---6-----------6-----------|
E|-----------------------------|-----------------------------------|---------------------------------|


G|-----------------8---7---5-------5---7---|-7--------------|-----------------------------------------|
D|-5-------5---6---------------8-----------|----------------|-----------------------------------------|
A|-----8-----------------------------------|----------------|-3---3--3--3---3--3--3---3--3--3---3--3--|
E|-----------------------------------------|----------------|-----------------------------------------|


G|-----------------------------------------|-----------------------------------------|
D|-----------------------------------------|-----------------------------------------|
A|-3---3--3--3---3--3--3---3--3--3---3--3--|-3---3--3--3---3--3--3---3--3--3---3--3--|
E|-----------------------------------------|-----------------------------------------|


G|------------------------|------------17-17-------15-15-----------|-----------------------------------------|
D|-6----6---5---5----8----|-6----13-13-------13-13-----------------|-----------------------------------------|
A|------------------------|------------------------------3---3--3--|-3---3--3--3---3--3--3---3--3--3---3--3--|
E|------------------------|----------------------------------------|-----------------------------------------|


G|-----------------------------------------|------------------------------------|------------------------|
D|-----------------------------------------|-------------------------------6----|-6---5---5----8----6----|
A|-3---3--3--3---3--3--3---3--3--3---3--3--|-3---3--3--3---3--3--3---3--3-------|------------------------|
E|-----------------------------------------|------------------------------------|------------------------|


G|-------17-17-------15-15-----------|-------------|------------------------|-------------|
D|-13-13-------13-13-----------------|-------------|------------------------|-------------|
A|-------------------------3---------|-------------|------------------------|-------------|
E|-----------------------------------|-------4-----|------4---4---5---------|-------6-----|


G|-----------------|---------------------|---------------------|-----------------|
D|-----------------|---------------------|---------------------|-----------------|
A|-------3---------|---------------------|---------------------|-----------------|
E|-7---------------|------3----4---------|------4----5---------|------5----6-----|


G|-------------------------------|-------------------------------------------------|
D|-------------------------------|-------------------------------------------------|
A|-------3--3--3--3--3--3--3--3--|-3--3--3--3--3--3--3--3--------------------------|
E|-7-----------------------------|-------------------------4--4--4--4--4--4--4--4--|


G|-------------------------------------------------|---------------------------------------------|
D|-------------------------------------------------|---------------------------------------------|
A|-------------------------------------------------|---------------------------------------------|
E|-4--4--4--4--4--4--4--4--5--5--5--5--5--5--5--5--|-5--5--5--5--5--5--5--5--6---6--6--6---6--6--|


G|---------------------------------------------|-------------------------------------------------|
D|---------------------------------------------|-------------------------------------------------|
A|---------------------3--3--3--3--3--3--3--3--|-3--3--3--3--3--3--3--3--------------------------|
E|-7---7--7--7---7--7--------------------------|-------------------------4--4--4--4--4--4--4--4--|


G|-------------------------------------------------|---------------------------------------------|
D|-------------------------------------------------|---------------------------------------------|
A|-------------------------------------------------|---------------------------------------------|
E|-4--4--4--4--4--4--4--4--5--5--5--5--5--5--5--5--|-5--5--5--5--5--5--5--5--6---6--6--6---6--6--|


G|-----------------------------------------|-----------------------------------------|
D|-----------------------------------------|-----------------------------------------|
A|---------------------3---3--3--3---3--3--|-3---3--3--3---3--3--3---3--3--3---3--3--|
E|-7---7--7--7---7--7----------------------|-----------------------------------------|


G|-----------------------------------------|----------------------------------|----------------------17-17-|
D|-----------------------------------------|---------------------6----6---5---|-5----8----6----13-13-------|
A|-3---3--3--3---3--3--3---3--3--3---3--3--|-3---3--3--3---3--3---------------|----------------------------|
E|-----------------------------------------|----------------------------------|----------------------------|


G|-------15-15--------|-------------|--------------------------|-------------|-------------|
D|-13-13-------8------|------8------|------8----10---10--10-10-|-10----10----|-------8-----|
A|-------------8------|------8------|------8-------------------|-------------|-------8-----|
E|--------------------|-------------|--------------------------|-------------|-------------|


G|-------------|-----------------|-------------|-------------|--------------------|
D|-------------|-------10---10---|-------10----|-------6-----|------6-------8-----|
A|-------10----|-----------------|-------------|-------------|----------6---------|
E|-------------|-----------------|-------------|-------------|--------------------|


G|-----------------|-------------|-------------|-------------|-----------------|-------------|
D|-------10---10---|-------10----|-------8-----|-------------|-------10---10---|-------10----|
A|-----------------|-------------|-------8-----|-------10----|-----------------|-------------|
E|-----------------|-------------|-------------|-------------|-----------------|-------------|


G|------------10--12--|-12----------|-----------------|-------------|-------------|
D|-------6------------|-------8-----|-------10---10---|-------10----|-------8-----|
A|--------------------|-------------|-----------------|-------------|-------8-----|
E|--------------------|-------------|-----------------|-------------|-------------|


G|-------------|-----------------|-------------|-------------|------------12--13--|
D|-------------|-------10---10---|-------10----|-------6-----|-------8------------|
A|-------10----|-----------------|-------------|-------------|--------------------|
E|-------------|-----------------|-------------|-------------|--------------------|


G|-13----------|-----------------|-------------|--------------------|-------------|
D|-------10----|-------10---8----|-------8-----|-------10--10-------|-------------|
A|-------------|------------8----|-------8-----|--------------------|-------------|
E|-------------|-----------------|-------------|--------------------|-------------|


G|-------------|-------------|--------------------|-------------|-------------|-------------|
D|-------8-----|-------5-----|-------10--10-------|-------------|-------6-----|-------8-----|
A|-------------|-------------|--------------------|-------------|-------------|-------------|
E|-------------|-------------|--------------------|-------------|-------------|-------------|


G|-----------------|--------------------|-------------|-------------|-----------------|
D|-------10--------|-------10--10-------|-------8-----|-------5-----|-------10--------|
A|-----------------|--------------------|-------------|-------------|-----------------|
E|-----------------|--------------------|-------------|-------------|-----------------|


G|--------------------|------------10--12--|-12---------12--13--|-13----------|-------------------------------|
D|-------10--10-------|-------6------------|-------8------------|-------------|-------------------------------|
A|--------------------|--------------------|--------------------|-------12----|-------12-13-12-10-10-12-13-10-|
E|--------------------|--------------------|--------------------|-------10----|-------------------------------|


G|----------------------|-14-------------------------|-------------------------------------------|
D|----------------10----|-------12-------------10-12-|-----10-12-10-12-10-12-----------------12--|
A|-10-12-13--13---10----|-----------12--12--12-------|-12--------------------12------13--12------|
E|----------------------|----------------------------|---------------------------10--------------|


G|-----10--9----------------------------------10-12-14-|----------15-17-19----19----19--10---12--14--|
D|-12----------12--------------------10-12-14----------|-15-17-19----------19----19------------------|
A|--------------------------10-12-13-------------------|---------------------------------------------|
E|-----------------10-12-13----------------------------|---------------------------------------------|


G|-14----12---14--15--|-15--15----------|-----------------------------|----------------------------|
D|--------------------|-----------------|-----------------------------|----------------------10----|
A|--------------------|-----------12----|-----------12-13-12-10-10-12-|-13-10-10-12-13--13---------|
E|--------------------|-----------10----|-----------------------------|----------------------------|


G|-----14------------------|----------------------------------------|---------10--9----------------------------14-15-|
D|-------------------------|-----10-12-10-12-10-12------------------|-12--12----------12--14-15-14----14-15-17-------|
A|-----------13--13-12-12--|-----------------------12-------13--12--|------------------------------17----------------|
E|-------------------------|----------------------------10----------|------------------------------------------------|


G|----------------------14--14---10---12--|-14--14----12---14--|-15--15-----------------------|
D|-17-15-14----14-15-17-------------------|--------------------|------------------------------|
A|----------17----------------------------|--------------------|------------------------------|
E|----------------------------------------|--------------------|-----------6---6---6---6---6--|


G|---------------------------------------------|------------------------------------------------|
D|---------------------------------------------|------------------------------------------------|
A|---------------------------------------------|------------------------------------------------|
E|----6---6-------6-------6-------6----6---6---|-----4---4---4---4---4---4---4-------4-------4--|


G|-----------------------------------------|---------------------------------------------|
D|-----------------------------------------|---------------------------------------------|
A|----------------------3---3---3---3---3--|----3---3-------3-------3-------3----3---3---|
E|--------4----4---4-----------------------|---------------------------------------------|


G|------------------------------------------------|-----------------------------------------|
D|------------------------------------------------|-----------------------------------------|
A|-----3---3---3---3---3---3---3-------3-------3--|--------3----3---3----3---3---3---3---3--|
E|------------------------------------------------|-----------------------------------------|


G|---------------------------------------------|------------------------------------------------|
D|---------------------------------------------|------------------------------------------------|
A|----3---3-------3-------3-------3----3---3---|-----3---3---3---3---3---3---3-------3-------3--|
E|---------------------------------------------|------------------------------------------------|


G|-----------------------------------------|---------------------------------------------|
D|-----------------------------------------|---------------------------------------------|
A|--------3----3---3-----------------------|---------------------------------------------|
E|----------------------3---3---3---3---3--|----3---3-------3-------3-------3----3---3---|


G|------------------------------------------------|-----------------------------------------|
D|------------------------------------------------|--------3----3---3-----------------------|
A|------------------------------------------------|-----------------------------------------|
E|-----1---1---1---1---1---1---1-------1-------1--|----------------------6---6---6---6---6--|


G|------------------------------------------------|
D|------------------------------------------------|
A|------------------------------------------------|
E|----6---6-------6-------6-------6-------6---6---|