Menu:

 

Search:

 

dream theater - the great debate:

 



Title: The Great Debate
Artist: 
Album: Six Degrees of Inner Turbulence
Author: John Myung, John Petrucci, Jordan Rudess, and Mike Portnoy


Track 1: Electric Guitar

E|--------|--------|--------|--------|--------|--------|--------|--------|--------|
B|--------|--------|--------|--------|--------|--------|--------|--------|--------|
G|--------|--------|--------|--------|--------|--------|--------|--------|--------|
D|--------|--------|--------|--------|--------|--------|--------|--------|--------|
A|--------|--------|--------|--------|--------|--------|--------|--------|--------|
E|--------|--------|--------|--------|--------|--------|--------|--------|--------|


E|--------|--------|--------|--------|--------|--------|--------|--------|-------------|
B|--------|--------|--------|--------|--------|--------|--------|--------|-------------|
G|--------|--------|--------|--------|--------|--------|--------|--------|-------9-----|
D|--------|--------|--------|--------|--------|--------|--------|--------|-------9-----|
A|--------|--------|--------|--------|--------|--------|--------|--------|-------------|
E|--------|--------|--------|--------|--------|--------|--------|--------|-------------|


E|-------------|-------------|-------------|--------|-------------|-------------|-------------|
B|-------------|-------------|-------------|--------|-------------|-------------|-------------|
G|-------9-----|------9------|------9------|-9------|-9------9----|--------9----|-------------|
D|-------9-----|------9------|------9------|-9------|-9------9----|--------9----|-------------|
A|-------------|-------------|-------------|--------|-------------|-------------|-------------|
E|-------------|-------------|-------------|--------|-------------|-------------|-------------|


E|--------|-------------|--------|-------------|-------------|-------------|-----------------|
B|--------|-------------|--------|-------------|-------------|-------------|-----------------|
G|--------|-------------|--------|-------------|-------------|-------------|-----------------|
D|--------|-------------|--------|-------------|-2------2----|--------2----|------3----3-----|
A|--------|-------------|--------|-------------|-------------|-------------|-----------------|
E|--------|-------------|--------|-------------|-------------|-------------|-----------------|


E|-------------|-------------|-------------|-------------|-------------|-------------|
B|-------------|-------------|-------------|-------------|-------------|-------------|
G|-------------|-------------|-------------|-------1-----|-1------1----|--------1----|
D|-------0-----|------0------|------0------|-------------|-------------|-------------|
A|-------------|-------------|-------------|-------------|-------------|-------------|
E|-------------|-------------|-------------|-------------|-------------|-------------|


E|-------------|--------|-------------|--------|-------------|-------------|-------------|
B|-------------|--------|-------------|--------|-------------|-------------|-------------|
G|-------------|--------|-------------|--------|------4------|-4------4----|--------4----|
D|-------------|--------|-------------|--------|-------------|-------------|-------------|
A|-------------|--------|-------------|--------|-------------|-------------|-------------|
E|-------------|--------|-------------|--------|-------------|-------------|-------------|


E|-------------|--------------------|-------------|-------------|-------------|-------------|
B|-------------|--------------------|-------------|------7------|-7----9------|-9------9----|
G|-------6-----|------6---7---7-----|------7------|-------------|-------------|-------------|
D|-------------|--------------------|-------------|-------------|-------------|-------------|
A|-------------|--------------------|-------------|-------------|-------------|-------------|
E|-------------|--------------------|-------------|-------------|-------------|-------------|


E|-------------|-------------|--------|-------------|--------|-------------|-------------|
B|--------9----|-------------|--------|-------------|--------|-------------|-------------|
G|-------------|-------------|--------|-------------|--------|------12-----|-12-----11---|
D|-------------|-------------|--------|-------------|--------|-------------|-------------|
A|-------------|-------------|--------|-------------|--------|-------------|-------------|
E|-------------|-------------|--------|-------------|--------|-------------|-------------|


E|-------------|-------------|-------------|-------------|-------------|--------|-------------|
B|-------------|-------------|-------------|-------------|-------------|--------|-------------|
G|--------11---|-------13----|-------13----|------7------|------6------|-5------|-5-----------|
D|-------------|-------------|-------------|-------------|-------------|--------|-------------|
A|-------------|-------------|-------------|-------------|-------------|--------|-------------|
E|-------------|-------------|-------------|-------------|-------------|--------|-------------|


E|-------------|-------------|-------------|-------------|-------------|--------|-------------|
B|-------------|-------------|-------------|-------------|-------------|--------|-------------|
G|-2------2----|-------4-----|-------4-----|------1------|------1------|-12-----|-12-----11---|
D|-------------|-------------|-------------|-------------|-------------|--------|-------------|
A|-------------|-------------|-------------|-------------|-------------|--------|-------------|
E|-------------|-------------|-------------|-------------|-------------|--------|-------------|


E|-------------|-------------|-------------|-------------|-------------|--------|-------------|
B|-------------|-------------|-------------|-------------|-------------|--------|-------------|
G|--------11---|-------13----|-------13----|------7------|------6------|-5------|-5------2----|
D|-------------|-------------|-------------|-------------|-------------|--------|-------------|
A|-------------|-------------|-------------|-------------|-------------|--------|-------------|
E|-------------|-------------|-------------|-------------|-------------|--------|-------------|


E|-------------|-------------|-------------|-------------|-------------|--------|-------------|
B|-------------|-------------|-------------|-------------|-------------|--------|-------------|
G|--------9----|-------4-----|-------4-----|------1------|------1------|--------|-------------|
D|-------------|-------------|-------------|-------------|-------------|--------|-------------|
A|-------------|-------------|-------------|-------------|-------------|--------|-------------|
E|-------------|-------------|-------------|-------------|-------------|--------|-------------|


E|--------|-------------|--------|-------------|--------|--------|-------------|--------|
B|--------|-------------|--------|-------------|--------|--------|-------------|--------|
G|--------|-------------|--------|-------------|--------|--------|-------------|--------|
D|--------|-------------|--------|-------------|--------|--------|-------------|--------|
A|--------|-------------|--------|-------------|--------|--------|-------------|--------|
E|--------|-------------|--------|-------------|--------|--------|-------------|--------|


E|-------------|--------|-------------|--------|---------------------|---------------------------|
B|-------------|--------|-------------|--------|---------------------|---------------------------|
G|-------------|--------|-------------|--------|---------------------|---------------------------|
D|-------------|--------|-------------|--------|---------------------|---------------------------|
A|-------------|--------|-------------|--------|-----------7---------|----------7-------7--------|
E|-------------|--------|-------------|--------|-0----0----------0---|-0---0--------0-------0----|


E|------------------------|---------------------------|------------------------|------------------------|
B|------------------------|---------------------------|------------------------|------------------------|
G|------------------------|---------------------------|------------------------|------------------------|
D|------------------------|---------------------------|------------------------|------------------------|
A|------7-----------------|-----7-------7-------------|-7------------------7---|-----7-------------7----|
E|-0----------0---0---0---|---------0-------0----0----|-------0---0---0--------|-0-------0----0---------|


E|------------------------------|---------------------|---------------------------|
B|------------------------------|---------------------|---------------------------|
G|------------------------------|---------------------|---------------------------|
D|------------------------------|---------------------|---------------------------|
A|------------------7-------7---|-----------7---------|----------7-------7--------|
E|-----0---0---0--------0-------|-0----0----------0---|-0---0--------0-------0----|


E|------------------------|---------------------------|------------------------|------------------------|
B|------------------------|---------------------------|------------------------|------------------------|
G|------------------------|---------------------------|------------------------|------------------------|
D|------------------------|---------------------------|------------------------|------------------------|
A|------7-----------------|-----7-------7-------------|-7------------------7---|-----7-------------7----|
E|-0----------0---0---0---|---------0-------0----0----|-------0---0---0--------|-0-------0----0---------|


E|------------------------------|-------------------------------------|-----------------------------------|
B|------------------------------|-------------------------------------|-----------------------------------|
G|------------------------------|-------------------------------------|-----------------------------------|
D|------------------------------|-------------------------------------|-----------------------------------|
A|------------------7-------7---|-7--7--5---7---5---8---7---5---7--7--|-5---8---7---5---7--7--5---7---5---|
E|-----0---0---0--------0-------|-------------------------------------|-----------------------------------|


E|-----------------------------------|-------------------------------------|-----------------------------------|
B|-----------------------------------|-------------------------------------|-----------------------------------|
G|-----------------------------------|-------------------------------------|-----------------------------------|
D|-----------------------------------|-------------------------------------|-----------------------------------|
A|-8---7---5---7--7--5---8---7---5---|-7--7--5---7---5---8---7---5---7--7--|-5---8---7---5---7--7--5---7---5---|
E|-----------------------------------|-------------------------------------|-----------------------------------|


E|-----------------------------------|-------------------------------------|-----------------------------------|
B|-----------------------------------|-------------------------------------|-----------------------------------|
G|-----------------------------------|-------------------------------------|-----------------------------------|
D|-----------------------------------|-------------------------------------|-----------------------------------|
A|-8---7---5---7--7--5---8---7---5---|-7--7--5---7---5---8---7---5---7--7--|-5---8---7---5---7---5---7--7--5---|
E|-----------------------------------|-------------------------------------|-----------------------------------|


E|-----------------------------------|-----------------------------------|-----------------------------------|
B|-----------------------------------|-----------------------------------|-----------------------------------|
G|-----------------------------------|-----------------------------------|-----------------------------------|
D|-----------------------------------|-----------------------------------|-----------------------------------|
A|-7---5---9---7---5---7--7--5---9---|-7---5---7---5---7--7--5---7---5---|-8---7---5---7--7--5---8---7---5---|
E|-----------------------------------|-----------------------------------|-----------------------------------|


E|-----------------------------------|-----------------------------------|-------------------------------------|
B|-----------------------------------|-----------------------------------|-------------------------------------|
G|-----------------------------------|-----------------------------------|-------------------------------------|
D|-----------------------------------|-----------------------------------|-------------------------------------|
A|-7---5---7--7--5---7---5---9---7---|-5---7--7--5---9---7---5---7---5---|-7--7--5---7---5---8---7---5---7--7--|
E|-----------------------------------|-----------------------------------|-------------------------------------|


E|-----------------------------------|-----------------------------------|-----------------------------------|
B|-----------------------------------|-----------------------------------|-----------------------------------|
G|-----------------------------------|-----------------------------------|-----------------------------------|
D|-----------------------------------|-----------------------------------|-----------------------------------|
A|-5---8---7---5---7---5---7--7--5---|-7---5---9---7---5---7--7--5---9---|-7---5---7---5---7--7--5---7---5---|
E|-----------------------------------|-----------------------------------|-----------------------------------|


E|-----------------------------------|-----------------------------------|-----------------------------------|
B|-----------------------------------|-----------------------------------|-----------------------------------|
G|-----------------------------------|-----------------------------------|-----------------------------------|
D|-----------------------------------|-----------------------------------|-----------------------------------|
A|-8---7---5---7--7--5---8---7---5---|-7---5---7--7--5---7---5---9---7---|-5---7--7--5---9---7---5---7---5---|
E|-----------------------------------|-----------------------------------|-----------------------------------|


E|-------------------------------------|-----------------------------------|-----------------------------------|
B|-------------------------------------|-----------------------------------|-----------------------------------|
G|-------------------------------------|-----------------------------------|-----------------------------------|
D|-------------------------------------|-----------------------------------|-----------------------------------|
A|-7--7--5---7---5---8---7---5---7--7--|-5---8---7---5---7---5---7--7--5---|-7---5---9---7---5---7--7--5---9---|
E|-------------------------------------|-----------------------------------|-----------------------------------|


E|-----------------------------------|-----------------------------------|-----------------------------------|
B|-----------------------------------|-----------------------------------|-----------------------------------|
G|-----------------------------------|-----------------------------------|-----------------------------------|
D|-----------------------------------|-----------------------------------|-----------------------------------|
A|-7---5---7---5---7--7--5---7---5---|-8---7---5---7--7--5---8---7---5---|-7---5---7--7--5---7---5---9---7---|
E|-----------------------------------|-----------------------------------|-----------------------------------|


E|-----------------------------------|-------------------------------------|-----------------------------------|
B|-----------------------------------|-------------------------------------|-----------------------------------|
G|-----------------------------------|-------------------------------------|-----------------------------------|
D|-----------------------------------|-------------------------------------|-----------------------------------|
A|-5---7--7--5---9---7---5---7---5---|-7--7--5---7---5---8---7---5---7--7--|-5---8---7---5---7---5---7--7--5---|
E|-----------------------------------|-------------------------------------|-----------------------------------|


E|-----------------------------------|-----------------------------------|-----------------------------------|
B|-----------------------------------|-----------------------------------|-----------------------------------|
G|-----------------------------------|-----------------------------------|-----------------------------------|
D|-----------------------------------|-----------------------------------|-----------------------------------|
A|-7---5---9---7---5---7--7--5---9---|-7---5---7---5---7--7--5---7---5---|-8---7---5---7--7--5---8---7---5---|
E|-----------------------------------|-----------------------------------|-----------------------------------|


E|-----------------------------------|-----------------------------------|---------------------|
B|-----------------------------------|-----------------------------------|-----------8---------|
G|-----------------------------------|-----------------------------------|-----------9---------|
D|-----------------------------------|-----------------------------------|-----------7---------|
A|-7---5---7--7--5---7---5---9---7---|-5---7--7--5---9---7---5---7---5---|-0----0----------0---|
E|-----------------------------------|-----------------------------------|---------------------|


E|------------------------|---------------------|--------------0----0----|-0------------------0---|
B|-----8--------8----8----|-----------7---------|-----7--------0----0----|-0------------------0---|
G|-----9--------9----9----|-----------9---------|-----9--------9----9----|-9------------------9---|
D|-----7--------7----7----|-----------7---------|-----7--------7----7----|-6------------------6---|
A|-0--------0-------------|-0----0----------0---|-0--------0-------------|------------------------|
E|------------------------|---------------------|------------------------|------0----0----0-------|


E|-0--------------------0----|---------------0---0-------|---------------------------|
B|-0--------------------0----|---------------0---0-------|---------------------------|
G|-9--------------------9----|---------------9---9-------|---------------------------|
D|-6--------------------6----|---------------6---6-------|---------------------------|
A|---------------------------|---------------------------|-----------------0----0----|
E|-----0----0---0---0--------|-0----0----0-----------0---|-----0---0---0-------------|


E|------------------------|---------------------|------------------------|-0----0----0---------|
B|-8-------------8--------|-8----8--------------|-7-------------7--------|-0----0----0---------|
G|-9-------------9--------|-9----9--------------|-9-------------9--------|-9----9----9---------|
D|-7-------------7--------|-7----7--------------|-7-------------7--------|-7----7----6---------|
A|-------0---0--------0---|-----------0----0----|-------0---0--------0---|---------------------|
E|------------------------|---------------------|------------------------|----------------0----|


E|----------0---0------------|---------0--------------|-----0---0--------------------|
B|----------0---0------------|---------0--------------|-----0---0--------------------|
G|----------9---9------------|---------9--------------|-----9---9--------------------|
D|----------6---6------------|---------6--------------|-----6---6--------------------|
A|---------------------------|------------------------|------------------------------|
E|-0----0-----------0----0---|-0---0--------0----0----|-0-----------0----0---0---0---|


E|--------2----|-0---------------|----------------|-----------------|------0-----0-------|
B|-3------3----|-------3---------|----------------|-----------------|------0-----0-------|
G|-2------2----|-------------0---|-2------2-------|-4---------5-----|------0-----0-------|
D|-0-----------|-------------0---|-2------2-------|-2---------2-----|--------------------|
A|-------------|-----------------|-0------0---0---|-------0---------|--------------------|
E|-------------|-----------------|----------------|-----------------|-0--------------0---|


E|--------------------|-----------------|--------------------|-2----2----------|-0---------------|
B|--------------------|-----------------|--------------------|-3----3----------|-------3---------|
G|-9-----9----9-------|-----------------|-2------------------|-2----2----------|-------------0---|
D|-9-----9----9-------|-3----3-----3----|-3-----3----3---3---|-0----0-----0----|-------------0---|
A|-7-----7----7-------|-3----3-----3----|-------3----3---5---|------------0----|-----------------|
E|----------------0---|-1----1-----1----|-------1----1-------|-----------------|-----------------|


E|---------------------------|-----------------|-3------3-------|-3------3-------|
B|---------------------------|-----------------|-3------3-------|-3------3-------|
G|-2----2----2---2---2-------|-4---------5-----|-0------0---0---|-2------2---0---|
D|-2----2----2---2---2-------|-2---------2-----|-0------0-------|------------0---|
A|-0----0----0---0---0---0---|-------0---------|----------------|----------------|
E|---------------------------|-----------------|-3------3-------|----------------|


E|---------------------------|-------------|---------------------------------|---------------------------------|
B|---------------------------|-------------|---------------------------------|---------------------------------|
G|-----------------------0---|-0-----------|---------------------------------|---------------------------------|
D|-3----3----3---3---3-------|-------3-----|---------------------------------|---------------------------------|
A|-3-------------------------|-------------|-7---5-------7---5-------7---5---|-----7---5---7---8---7---5-------|
E|-1-------------------------|-------------|---------0-----------0-----------|-0---------------------------0---|


E|---------------------------------|---------------------------------|---------------------------------|
B|---------------------------------|---------------------------------|---------------------------------|
G|---------------------------------|---------------------------------|---------------------------------|
D|---------------------------------|---------------------------------|---------------------------------|
A|-7---5-------7---5-------7---5---|-7---8---7---5-------7---5-------|-7---5-------7---5---7---8---7---|
E|---------0-----------0-----------|-----------------0-----------0---|---------0-----------------------|


E|---------------------------------|---------------------------------|---------------------------------|
B|---------------------------------|---------------------------------|---------------------------------|
G|---------------------------------|---------------------------------|---------------------------------|
D|---------------------------------|---------------------------------|---------------------------------|
A|-5-------7---5-------7---5-------|-7---5---7---8---7---5-------7---|-5-------7---5-------7---5---7---|
E|-----0-----------0-----------0---|-------------------------0-------|-----0-----------0---------------|


E|---------------------------------|---------------------------------|---------------------------------|
B|---------------------------------|---------------------------------|---------------------------------|
G|---------------------------------|---------------------------------|---------------------------------|
D|---------------------------------|---------------------------------|---------------------------------|
A|-8---7---5-------7---5-------7---|-5-------7---5---7---8---7---5---|-----7---5-------7---5-------7---|
E|-------------0-----------0-------|-----0---------------------------|-0-----------0-----------0-------|


E|---------------------------------|---------------------------------|---------------------------------|
B|---------------------------------|---------------------------------|---------------------------------|
G|---------------------------------|---------------------------------|---------------------------------|
D|---------------------------------|---------------------------------|---------------------------------|
A|-5---7---8---7---5-------7---5---|-----7---5-------7---5---7---8---|-7---5-------7---5-------7---5---|
E|---------------------0-----------|-0-----------0-------------------|---------0-----------0-----------|


E|---------------------------------|---------------------------------|---------------------------------|
B|---------------------------------|---------------------------------|---------------------------------|
G|---------------------------------|---------------------------------|---------------------------------|
D|---------------------------------|---------------------------------|---------------------------------|
A|-----7---5---7---8---7---5-------|-7---5-------7---5-------7---5---|-7---8---7---5-------7---5-------|
E|-0---------------------------0---|---------0-----------0-----------|-----------------0-----------0---|


E|---------------------------------|---------------------------------|---------------------------------|
B|---------------------------------|---------------------------------|---------------------------------|
G|---------------------------------|---------------------------------|-----------------------------5---|
D|---------------------------------|---------------------------------|-----------------2---2---2---5---|
A|-7---5-------7---5---7---8---7---|-5-------7---5-------7---5-------|-7---5---7---8---2---2---2---3---|
E|---------0-----------------------|-----0-----------0-----------0---|-----------------0---0---0-------|


E|---------------------------------|---------------------------------|---------------------------------|
B|---------------------------------|---------------------------------|---------------------------------|
G|-5---5---7---7---7---7---7---7---|-----------------------------5---|-5---5---7---7---7---7---7---7---|
D|-5---5---7---7---7---7---7---7---|-3---3---3---5---2---2---2---5---|-5---5---7---7---7---7---7---7---|
A|-3---3---5---5---5---5---5---5---|-3---3---3---5---2---2---2---3---|-3---3---5---5---5---5---5---5---|
E|---------------------------------|-1---1---1---3---0---0---0-------|---------------------------------|


E|---------------------------------|---------------------------------|---------------------------------|
B|---------------------------------|---------------------------------|---------------------------------|
G|-----------------------------5---|-5---5---7---7---7---7---7---7---|-----------------------------5---|
D|-3---3---3---5---2---2---2---5---|-5---5---7---7---7---7---7---7---|-3---3---3---5---2---2---2---5---|
A|-3---3---3---5---2---2---2---3---|-3---3---5---5---5---5---5---5---|-3---3---3---5---2---2---2---3---|
E|-1---1---1---3---0---0---0-------|---------------------------------|-1---1---1---3---0---0---0-------|


E|---------------------------------|---------------------------------|---------------------------------|
B|---------------------------------|---------------------------------|---------------------------------|
G|-5---5---7---7---7---7---7---7---|-----------------9---7-------10--|-9-------9---7-------10--9-------|
D|-5---5---7---7---7---7---7---7---|-3---3---3---5---9---7-------10--|-9-------9---7-------10--9-------|
A|-3---3---5---5---5---5---5---5---|-3---3---3---5---7---5-------8---|-7-------7---5-------8---7-------|
E|---------------------------------|-1---1---1---3-----------0-------|-----0-----------0-----------0---|


E|---------------------------------|---------------------------------|---------------------------------|
B|---------------------------------|---------------------------------|---------------------------------|
G|-----------------9---7-------10--|-9-------9---7-------10--9-------|-----------------9---7-------10--|
D|-3---3---3---3---9---7-------10--|-9-------9---7-------10--9-------|-3---3---3---3---9---7-------10--|
A|-5---5---5---5---7---5-------8---|-7-------7---5-------8---7-------|-5---5---5---5---7---5-------8---|
E|-7---7---7---7-----------0-------|-----0-----------0-----------0---|-7---7---7---7-----------0-------|


E|---------------------------------|-----------------------|---------------------------------|
B|---------------------------------|-----------------------|---------------------------------|
G|-9-------9---7-------10--9-------|-------9---7-------10--|-9-------9---7-------10--9-------|
D|-9-------9---7-------10--9-------|-------9---7-------10--|-9-------9---7-------10--9-------|
A|-7-------7---5-------8---7-------|-------7---5-------8---|-7-------7---5-------8---7-------|
E|-----0-----------0---------------|---------------0-------|-----0-----------0-----------0---|


E|------------------------------|---------------------------------|---------------------------------|
B|------------------------------|---------------------------------|---------------------------------|
G|-9----------------------------|---------------------------------|---------------------------------|
D|-9----------------------------|---------------------------------|---------------------------------|
A|-7------------7---5-------7---|-5-------7---5-------7---5-------|-7---5---7---8---7---5-------7---|
E|----------------------0-------|-----0-----------0-----------0---|-------------------------0-------|


E|---------------------------------|---------------------------------|---------------------------------|
B|---------------------------------|---------------------------------|---------------------------------|
G|---------------------------------|---------------------------------|---------------------------------|
D|---------------------------------|---------------------------------|---------------------------------|
A|-5-------7---5-------7---5-------|-7---5---7---8---7---5-------7---|-5-------7---5-------7---5-------|
E|-----0-----------0-----------0---|-------------------------0-------|-----0-----------0-----------0---|


E|---------------------------------|---------------------------------|---------------------------------|
B|---------------------------------|---------------------------------|---------------------------------|
G|---------------------------------|---------------------------------|---------------------------------|
D|---------------------------------|---------------------------------|---------------------------------|
A|-7---5---7---8---7---5-------7---|-5-------7---5-------7---5-------|-7---5---7---8---7---5-------7---|
E|-------------------------0-------|-----0-----------0-----------0---|-------------------------0-------|


E|---------------------------------|---------------------------------|---------------------------------|
B|---------------------------------|---------------------------------|---------------------------------|
G|---------------------------------|---------------------------------|---------------------------------|
D|---------------------------------|---------------------------------|---------------------------------|
A|-5-------7---5-------7---5-------|-7---5---7---8---7---5-------7---|-5-------7---5-------7---5-------|
E|-----0-----------0-----------0---|-------------------------0-------|-----0-----------0-----------0---|


E|---------------------------------|---------------------------------|---------------------------------|
B|---------------------------------|---------------------------------|---------------------------------|
G|---------------------------------|---------------------------------|---------------------------------|
D|---------------------------------|---------------------------------|---------------------------------|
A|-7---5---7---8---7---5-------7---|-5-------7---5-------7---5-------|-7---5---7---8---7---5-------7---|
E|-------------------------0-------|-----0-----------0-----------0---|-------------------------0-------|


E|---------------------------------|-----------------------------------|-------------------------------------|
B|---------------------------------|-----------------------------------|-------------------------------------|
G|---------------------------------|-------------------------------5---|-----------7-----------------7-------|
D|---------------------------------|-----------------2-------------5---|-----------7-----------------7-------|
A|-5-------7---5-------7---5-------|-7---5---7---8---2-------------3---|-3--3--3---5---5--5--5---5---5---5---|
E|-----0-----------0-----------0---|-----------------0---0--0--0-------|-------------------------------------|


E|-------------------------------------|-------------------------------------|-------------------------------------|
B|-------------------------------------|-------------------------------------|-------------------------------------|
G|---------------------------------5---|-----------7-----------------7-------|---------------------------------5---|
D|-3---------3---5---2-------------5---|-----------7-----------------7-------|-3---------3---5---2-------------5---|
A|-3---------3---5---2-------------3---|-3--3--3---5---5--5--5---5---5---5---|-3---------3---5---2-------------3---|
E|-1---1--1--1---3---0---0--0--0-------|-------------------------------------|-1---1--1--1---3---0---0--0--0-------|


E|-------------------------------------|-------------------------------------|-------------------------------------|
B|-------------------------------------|-------------------------------------|-------------------------------------|
G|-----------7-----------------7-------|---------------------------------5---|-----------7-----------------7-------|
D|-----------7-----------------7-------|-3---------3---5---2-------------5---|-----------7-----------------7-------|
A|-3--3--3---5---5--5--5---5---5---5---|-3---------3---5---2-------------3---|-3--3--3---5---5--5--5---5---5---5---|
E|-------------------------------------|-1---1--1--1---3---0---0--0--0-------|-------------------------------------|


E|-----------------------------------|---------------------------------|---------------------------------|
B|-----------------------------------|---------------------------------|---------------------------------|
G|-------------------9---7-------10--|-9-------9---7-------10--9-------|-----------------9---7-------10--|
D|-3---------3---5---9---7-------10--|-9-------9---7-------10--9-------|-3---3---3---3---9---7-------10--|
A|-3---------3---5---7---5-------8---|-7-------7---5-------8---7-------|-5---5---5---5---7---5-------8---|
E|-1---1--1--1---3-----------0-------|-----0-----------0-----------0---|-7---7---7---7-----------0-------|


E|---------------------------------|-----------------------|---------------------------------|
B|---------------------------------|-----------------------|---------------------------------|
G|-9-------9---7-------10--9-------|-------9---7-------10--|-9-------9---7-------10--9-------|
D|-9-------9---7-------10--9-------|-------9---7-------10--|-9-------9---7-------10--9-------|
A|-7-------7---5-------8---7-------|-------7---5-------8---|-7-------7---5-------8---7-------|
E|-----0-----------0---------------|---------------0-------|-----0-----------0---------------|


E|-----------------------|---------------------------------|--------------------------------|
B|-----------------------|---------------------------------|--------------------------------|
G|-------9---7-------10--|-9-------9---7-------10--9-------|-9------------2---2-------------|
D|-------9---7-------10--|-9-------9---7-------10--9-------|-9------------2---2-------------|
A|-------7---5-------8---|-7-------7---5-------8---7-------|-7------------0---0-------0--0--|
E|---------------0-------|-----0-----------0-----------0---|--------------------------------|


E|--------------------------------|-------------------------------------|--------------------------------|
B|--------------------------------|-------------------------------------|--------------------------------|
G|-2----2---2---------------------|-------------------2---2-------------|-2----2---2-----------------2---|
D|-2----2---2-----------------2---|-4---5---4--2------2---2-------------|-2----2---2-------------2-------|
A|-0----0---0-------0--0--3-------|---------------3---0---0-------0--0--|-0----0---0-------0--0----------|
E|--------------------------------|-------------------------------------|--------------------------------|


E|-------------------------------------|--------------------------------|-----------------------------------|
B|-------------------------------------|--------------------------------|-----------------------------------|
G|-4---5---4--2------------------------|--------------------------------|-1---2---1-------------------------|
D|---------------2---2---2-------------|-2----2---2-----------------2---|-------------2---2---2-------------|
A|-------------------2---2-------------|-2----2---2-------------2-------|-----------------2---2-------------|
E|-------------------0---0-------0--0--|-0----0---0-------0--0----------|-----------------0---0-------0--0--|


E|--------------------------------|-------------------------------------------|--------------------------------|
B|--------------------------------|-------------------------------------------|--------------------------------|
G|--------------------------------|-1--2--1-----------------2---2-------------|-2----2---2---------------------|
D|-2----2---2-----------------2---|----------2--0-----------2---2-------------|-2----2---2-----------------2---|
A|-2----2---2-------------2-------|----------------2--0-----0---0-------0--0--|-0----0---0-------0--0--3-------|
E|-0----0---0-------0--0----------|----------------------4--------------------|--------------------------------|


E|-------------------------------------|--------------------------------|-------------------------------------|
B|-------------------------------------|--------------------------------|-------------------------------------|
G|-------------------2---2-------------|-2----2---2-----------------2---|-4---5---4--2------------------------|
D|-4---5---4--2------2---2-------------|-2----2---2-------------2-------|---------------2---2---2-------------|
A|---------------3---0---0-------0--0--|-0----0---0-------0--0----------|-------------------2---2-------------|
E|-------------------------------------|--------------------------------|-------------------0---0-------0--0--|


E|--------------------------------|-----------------------------------|--------------------------------|
B|--------------------------------|-----------------------------------|--------------------------------|
G|--------------------------------|-1---2---1-------------------------|--------------------------------|
D|-2----2---2-----------------2---|-------------2---2---2-------------|-2----2---2-----------------2---|
A|-2----2---2-------------2-------|-----------------2---2-------------|-2----2---2-------------2-------|
E|-0----0---0-------0--0----------|-----------------0---0-------0--0--|-0----0---0-------0--0----------|


E|-------------------------------|------2----0-----|-----------------|------------------------|
B|-------------------------3-----|------3----------|-3---------------|------------------------|
G|-1--2--1-----------------2-----|------2----------|-------0---2-----|------2-------4---------|
D|----------2--0-----------0-----|-----------------|-------0---2-----|------2-------2---------|
A|----------------2--0-----------|-----------------|-----------0-----|------0---0---------0---|
E|----------------------4--------|-----------------|-----------------|------------------------|


E|------------0----|------0-------------|------------------------|-----------------|
B|------------0----|------0-------------|------------------------|-----------------|
G|-5----------0----|------0-------9-----|-9----9-----------------|-----------2-----|
D|-2---------------|--------------9-----|-9----9-------3----3----|------3----3-----|
A|-----------------|--------------7-----|-7----7-------3----3----|------3----------|
E|-------0---------|----------0---------|----------0---1----1----|------1----------|


E|--------------2----2----|-----------0-----|---------------------|---------------------------|
B|--------------3----3----|-----------------|-3-------------------|---------------------------|
G|--------------2----2----|-----------------|-------0---2----2----|-2---2---2-------4---------|
D|-3----3---3---0----0----|------0----------|-------0---2----2----|-2---2---2-------2---------|
A|-3----3---5-------------|------0----------|-----------0----0----|-0---0---0---0---------0---|
E|-1----1-----------------|-----------------|---------------------|---------------------------|


E|-------3-----|------3-------3-----|------3-----------------|-----------------------|
B|-------3-----|------3-------3-----|------3-----------------|-----------------------|
G|-5-----0-----|------0---0---2-----|------2---0-------------|-------------0---0-----|
D|-2-----0-----|------0-------------|----------0---3----3----|-3---3---3-------------|
A|-------------|--------------------|--------------3---------|-----------------------|
E|-------3-----|------3-------------|--------------1---------|-----------------------|


E|-------------|------------------------|-----------------|------------------------|
B|-------------|------------------------|-----------3-----|------3-----------------|
G|-------2-----|------2-------4---------|-5---------2-----|------2-------4---------|
D|-3-----2-----|------2-------2---------|-2---------0-----|------0---0---0-----0---|
A|-------0-----|------0---0---------0---|-------0---------|------------------------|
E|-------------|------------------------|-----------------|------------------------|


E|-----------------|--------------------|--------------------|--------------------|
B|-----------------|--------------------|--------------------|--------------------|
G|-5-----0---------|--------------4-----|------4-------5-----|------5---2---2-----|
D|-0-----0---3-----|------3-------3-----|------3-------3-----|------3---3---3-----|
A|-----------3-----|------3-------------|--------------------|----------3---3-----|
E|-----------1-----|------1---1---------|----------1---------|----------1---1-----|


E|-------------|--------|-------------|-------------|--------|------------------|-------------|
B|-------3-----|--------|-------------|-------3-----|--------|-3----------------|-------3-----|
G|-------2-----|--------|-3------1----|-------2-----|--------|-2-----0-----0----|-------2-----|
D|-------0-----|--------|-0------0----|-------0-----|--------|-0----------------|-------0-----|
A|-------------|--------|-------------|-------------|--------|------------------|-------------|
E|-------------|--------|-------------|-------------|--------|------------------|-------------|


E|--------|-------------|-------------|--------|------------------|-----------------------|
B|--------|-------------|-------3-----|--------|-3----------------|-----------------------|
G|--------|-3------5----|-------2-----|--------|-2-----0-----0----|-----------------------|
D|--------|-0------0----|-------0-----|--------|-0----------------|-------0---3---5---0---|
A|--------|-------------|-------------|--------|------------------|-----------------------|
E|--------|-------------|-------------|--------|------------------|-----------------------|


E|---------------------------------|---------------------------------|---------------------------------|
B|---------------------------------|---------------------------------|---------------------------------|
G|---------------------------------|---------------------------------|---------------------------------|
D|-3---5---0---5---6---0---3---5---|-0---3---5---0---3---5---0---5---|-6---0---3---5---0---3---5---0---|
A|---------------------------------|---------------------------------|---------------------------------|
E|---------------------------------|---------------------------------|---------------------------------|


E|---------------------------------|---------------------------------|---------------------------------|
B|---------------------------------|---------------------------------|---------------------------------|
G|---------------------------------|---------------------------------|---------------------------------|
D|-3---5---0---5---6---0---3---5---|-0---3---5---0---3---5---0---5---|-6---0---3---5---0---3---5---0---|
A|---------------------------------|---------------------------------|---------------------------------|
E|---------------------------------|---------------------------------|---------------------------------|


E|---------------------------------|---------------------------------|---------------------------------|
B|---------------------------------|---------------------------------|---------------------------------|
G|---------------------------------|---------------------------------|---------------------------------|
D|-3---5---0---5---6---0---3---5---|-0---3---5---0---3---5---0---5---|-6---0---3---5---0---3---5---0---|
A|---------------------------------|---------------------------------|---------------------------------|
E|---------------------------------|---------------------------------|---------------------------------|


E|---------------------------------|---------------------------------|-----------------------|
B|---------------------------------|---------------------------------|-----------------3-----|
G|---------------------------------|---------------------------------|-----------------2-----|
D|-3---5---0---5---6---0---3---5---|-0---3---5---0---3---5---0---5---|-6---0---3---5---0-----|
A|---------------------------------|---------------------------------|-----------------------|
E|---------------------------------|---------------------------------|-----------------------|


E|--------|--------|-------------|--------|--------|-------------|--------|--------|
B|--------|-3------|-------3-----|--------|-3------|-------3-----|--------|-3------|
G|--------|-2------|-------2-----|--------|-2------|-------2-----|--------|-2------|
D|--------|-0------|-------0-----|--------|-0------|-------0-----|--------|-0------|
A|--------|--------|-------------|--------|--------|-------------|--------|--------|
E|--------|--------|-------------|--------|--------|-------------|--------|--------|


E|-------------|--------|--------|-------------|--------|--------|-------------|--------|
B|-------------|--------|--------|-------------|--------|--------|-------------|--------|
G|-------------|--------|--------|-------2-----|--------|-3------|-------1-----|--------|
D|-------------|--------|--------|-------------|--------|--------|-------------|--------|
A|-------------|--------|--------|-------------|--------|--------|-------------|--------|
E|-------------|--------|--------|-------------|--------|--------|-------------|--------|


E|--------|-------------|--------|-------------|-------------|--------|--------|-------------|
B|--------|-------------|--------|-------------|-------------|--------|--------|-------------|
G|-2------|-------------|--------|-------------|-------0-----|--------|-0------|-------2-----|
D|--------|-------3-----|--------|-2-----------|-------------|--------|--------|-------------|
A|--------|-------------|--------|--------3----|-------------|--------|--------|-------------|
E|--------|-------------|--------|-------------|-------------|--------|--------|-------------|


E|--------|--------|-------------|--------|--------|-------------|--------|-------------|
B|--------|--------|-------------|--------|--------|-------------|--------|-------------|
G|--------|-3------|-------1-----|--------|-2------|-------------|--------|--------5----|
D|--------|--------|-------------|--------|--------|-------3-----|--------|-2-----------|
A|--------|--------|-------------|--------|--------|-------------|--------|-------------|
E|--------|--------|-------------|--------|--------|-------------|--------|-------------|


E|-------------|--------|--------|--------|--------|--------|--------|--------|--------|
B|-------------|--------|--------|--------|--------|--------|--------|--------|--------|
G|-------7-----|--------|-7------|--------|--------|--------|--------|--------|--------|
D|-------------|--------|--------|--------|--------|--------|--------|--------|--------|
A|-------------|--------|--------|--------|--------|--------|--------|--------|--------|
E|-------------|--------|--------|--------|--------|--------|--------|--------|--------|


E|--------|--------|--------|-----------------------|---------------------------------|
B|--------|--------|--------|-----------------------|---------------------------------|
G|--------|--------|--------|-----------------------|---------------------------------|
D|--------|--------|--------|-------0---3---5---0---|-3---5---0---5---6---0---3---5---|
A|--------|--------|--------|-----------------------|---------------------------------|
E|--------|--------|--------|-----------------------|---------------------------------|


E|---------------------------------|-----------------------|--------|--------|--------|
B|---------------------------------|-----------------------|--------|--------|--------|
G|---------------------------------|-----------------------|--------|--------|--------|
D|-0---3---5---0---3---5---0---5---|-6---0---3---5---------|--------|--------|--------|
A|---------------------------------|-----------------------|--------|--------|--------|
E|---------------------------------|-----------------------|--------|--------|--------|


E|--------|--------|--------|--------|--------|-----------------------|---------------------------------|
B|--------|--------|--------|--------|--------|-----------------------|---------------------------------|
G|--------|--------|--------|--------|--------|-----------------------|---------------------------------|
D|--------|--------|--------|--------|--------|-------0---3---5---0---|-3---5---0---5---6---0---3---5---|
A|--------|--------|--------|--------|--------|-----------------------|---------------------------------|
E|--------|--------|--------|--------|--------|-----------------------|---------------------------------|


E|---------------------------------|---------------------------------|---------------------------------|
B|---------------------------------|---------------------------------|---------------------------------|
G|---------------------------------|---------------------------------|---------------------------------|
D|-0---3---5---0---3---5---0---5---|-6---0---3---5---0---3---5---0---|-3---5---0---5---6---0---3---5---|
A|---------------------------------|---------------------------------|---------------------------------|
E|---------------------------------|---------------------------------|---------------------------------|


E|---------------------------------|---------------------------------|---------------------------------|
B|---------------------------------|---------------------------------|---------------------------------|
G|---------------------------------|---------------------------------|---------------------------------|
D|-0---3---5---0---3---5---0---5---|-6---0---3---5---0---3---5---0---|-3---5---0---5---6---0---3---5---|
A|---------------------------------|---------------------------------|---------------------------------|
E|---------------------------------|---------------------------------|---------------------------------|


E|---------------------------------|---------------------------------|---------------------------------|
B|---------------------------------|---------------------------------|---------------------------------|
G|---------------------------------|---------------------------------|---------------------------------|
D|-0---3---5---0---3---5---0---5---|-6---0---3---5---0---3---5---0---|-3---5---0---5---6---0---3---5---|
A|---------------------------------|---------------------------------|---------------------------------|
E|---------------------------------|---------------------------------|---------------------------------|


E|---------------------------------|---------------------------------|---------------------------------|
B|---------------------------------|---------------------------------|---------------------------------|
G|---------------------------------|---------------------------------|---------------------------------|
D|-0---3---5---0---3---5---0---5---|-6---0---3---5---0---3---5---0---|-3---5---0---5---6---0---3---5---|
A|---------------------------------|---------------------------------|---------------------------------|
E|---------------------------------|---------------------------------|---------------------------------|


E|---------------------------------|---------------------------------|---------------------------------|
B|---------------------------------|---------------------------------|---------------------------------|
G|---------------------------------|---------------------------------|---------7-----------------------|
D|-0---3---5---0---3---5---0---5---|-6---0---3---5-------------------|---------------------------------|
A|---------------------------------|-----------------5---5-------5---|-----5-------5-------5-------5---|
E|---------------------------------|---------------------------------|---------------------------------|


E|---------------------------------|---------------------------------|---------------------------------|
B|---------------------------------|---------------------------------|---------------------------------|
G|-------------------------7-------|---------------------------------|---------7-----------------------|
D|---------------------------------|---------------------------------|---------------------------------|
A|-----5-------5-------5-------5---|-----5-------5---5---5-------5---|-----5-------5-------5-------5---|
E|---------------------------------|---------------------------------|---------------------------------|


E|---------------------------------|---------------------------------|---------------------------------|
B|---------------------------------|---------------------------------|---------------------------------|
G|---------------------------------|---------------------------------|---------5-----------------------|
D|-------------------------2-------|---------------------------------|---------------------------------|
A|---------------------------------|-----------------3---3-------3---|-----3-------3-------3-------3---|
E|-----1-------1-------1-------0---|-----0-------0-------------------|---------------------------------|


E|---------------------------------|---------------------------------|---------------------------------|
B|---------------------------------|---------------------------------|---------------------------------|
G|---------------------------------|---------------------------------|---------7-----------------------|
D|-------------------------7-------|---------------------------------|---------------------------------|
A|---------------------------------|-----------------5---5-------5---|-----5-------5-------5-------5---|
E|-----3-------3-------3-------5---|-----5-------5-------------------|---------------------------------|


E|---------------------------------|---------------------------------|---------------------------------|
B|---------------------------------|---------------------------------|---------------------------------|
G|-7-----------------------7-------|---------------------------------|---------7-----------------------|
D|---------------------------------|---------------------------------|---------------------------------|
A|-----5-------5-------5-------5---|-----5-------5---5---5-------5---|-----5-------5-------5-------5---|
E|---------------------------------|---------------------------------|---------------------------------|


E|---------------------------------|---------------------------------|---------------------------------|
B|---------------------------------|---------------------------------|---------------------------------|
G|-------------------------7-------|---------------------------------|---------7-----------------------|
D|---------------------------------|---------------------------------|---------------------------------|
A|-----5-------5-------5-------5---|-----5-------5---5---5-------5---|-----5-------5-------5-------5---|
E|---------------------------------|---------------------------------|---------------------------------|


E|---------------------------------|---------------------------------|---------------------------------|
B|---------------------------------|---------------------------------|---------------------------------|
G|---------------------------------|---------------------------------|---------5-----------------------|
D|-------------------------2-------|---------------------------------|---------------------------------|
A|---------------------------------|-----------------3---3-------3---|-----3-------3-------3-------3---|
E|-----1-------1-------1-------0---|-----0-------0-------------------|---------------------------------|


E|---------------------------------|---------------------------------|---------------------------------|
B|---------------------------------|---------------------------------|---------------------------------|
G|---------------------------------|---------------------------------|---------7-----------------------|
D|-------------------------7-------|---------------------------------|---------------------------------|
A|---------------------------------|-----------------5---5-------5---|-----5-------5-------5-------5---|
E|-----3-------3-------3-------5---|-----5-------5-------------------|---------------------------------|


E|---------------------------------|---------------------------------|---------------------------------|
B|---------------------------------|---------------------------------|---------------------------------|
G|-7-----------------------7-------|---------------------------------|---------------------------------|
D|---------------------------------|---------------------------------|---------------------------------|
A|-----5-------5-------5-------5---|-----5-------5-------7---5---7---|-5---------------5-----------5---|
E|---------------------------------|-----------------0---------------|-----0---6---7-------5---3-------|


E|---------------------------------|---------------------------------|---------------------------------|
B|---------------------------------|---------------------------------|---------------------------------|
G|---------------------------------|---------------------------------|---------------------------------|
D|---------------------------------|---------------------------------|---------------------------------|
A|-----7---5---7---5-------5-------|-5---7---------------7---5---7---|-5---------------5-----------5---|
E|-0-------------------5-------3---|---------3---5---0---------------|-----0---6---7-------5---3-------|


E|---------------------------------|---------------------------------|---------------------------------|
B|---------------------------------|---------------------------------|---------------------------------|
G|---------------------------------|---------------------------------|---------------------------------|
D|---------------------------------|---------------------------------|---------------------------------|
A|-----7---5---7---5-------5-------|-5-------------------7---5---7---|-5---------------5-----------5---|
E|-0-------------------5-------3---|-----0---3---2---0---------------|-----0---6---7-------5---3-------|


E|---------------------------------|---------------------------------|---------------------------------|
B|---------------------------------|---------------------------------|---------------------------------|
G|---------------------------------|---------------------------------|---------------------------------|
D|---------------------------------|---------------------------------|---------------------------------|
A|-----7---5---7---5-------5-------|-5---7---------------7---5---7---|-5---------------5-----------5---|
E|-0-------------------5-------3---|---------3---5---0---------------|-----0---6---7-------5---3-------|


E|---------------------------------|---------------------------------|---------------------------------|
B|---------------------------------|---------------------------------|---------------------------------|
G|---------------------------------|---------------------------------|---------------------------------|
D|---------------------------------|---------------------------------|---------------------------------|
A|-----7---5---7---5-------5-------|-5-------------------7---5---7---|-5---------------5-----------5---|
E|-0-------------------5-------3---|-----0---3---2---0---------------|-----0---6---7-------5---3-------|


E|---------------------------------|---------------------------------|---------------------------------|
B|---------------------------------|---------------------------------|---------------------------------|
G|---------------------------------|---------------------------------|---------------------------------|
D|---------------------------------|---------------------------------|---------------------------------|
A|-----7---5---7---5-------5-------|-5---7---------------7---5---7---|-5---------------5-----------5---|
E|-0-------------------5-------3---|---------3---5---0---------------|-----0---6---7-------5---3-------|


E|---------------------------------|---------------------------------|---------------------------------|
B|---------------------------------|---------------------------------|---------------------------------|
G|---------------------------------|---------------------------------|---------------------------------|
D|---------------------------------|---------------------------------|---------------------------------|
A|-----7---5---7---5-------5-------|-5-------------------7---5---7---|-5---------------5-----------5---|
E|-0-------------------5-------3---|-----0---3---2---0---------------|-----0---6---7-------5---3-------|


E|---------------------------------|---------------------------------|---------------------------------|
B|---------------------------------|---------------------------------|---------------------------------|
G|---------------------------------|---------------------------------|---------------------------------|
D|---------------------------------|---------------------------------|---------------------------------|
A|-----7---5---7---5-------5-------|-5---7---------------7---5---7---|-5---------------5-----------5---|
E|-0-------------------5-------3---|---------3---5---0---------------|-----0---6---7-------5---3-------|


E|---------------------------------|---------------------------------|---------------------------------|
B|---------------------------------|---------------------------------|---------------------------------|
G|---------------------------------|---------------------------------|---------------------------------|
D|---------------------------------|---------------------------------|---------------------------------|
A|-----7---5---7---5-------5-------|-5-------------------------------|---------7-----------------------|
E|-0-------------------5-------3---|-----0---3---2---0---0-------0---|-----0-------0-------0-------0---|


E|---------------------------------|-----------------------|-------------------------------|
B|---------------------------------|-----------------------|-------------------------------|
G|---------------------------------|-----------------------|-------------------------6-----|
D|---------------------------------|-----------------4-----|-4---4---4---4---3---4---------|
A|-------------------------7-------|-----------------------|-------------------------------|
E|-----0-------0-------0-------0---|-----0-------0---------|-------------------------------|


E|------------------------------------|-9----14---14---16----13--|-14-16-14-13-14-16-14-13-15----|
B|-----7---7--8--7--6--7----10---10---|--------------------------|-------------------------------|
G|-6----------------------------------|--------------------------|-------------------------------|
D|------------------------------------|--------------------------|-------------------------------|
A|------------------------------------|--------------------------|-------------------------------|
E|------------------------------------|--------------------------|-------------------------------|


E|-----15-------9--10-12-10-9-----9--10-12-10-9-----|-----------------7-----------------------------|
B|-----------------------------12----------------12-|-10--9--7--8--10-----109-8-7------------7------|
G|--------------------------------------------------|-----------------------------107-8-9-10--------|
D|--------------------------------------------------|-----------------------------------------------|
A|--------------------------------------------------|-----------------------------------------------|
E|--------------------------------------------------|-----------------------------------------------|


E|-----------------------------------------------------------|-------------------------------------------|
B|----------7--8---------------------------------------------|-------------------------------------------|
G|-7--5--7--------9-7-5---------7----------------------------|-------------------------------------------|
D|----------------------9-7-5-7---9--7--------------7--------|----5--4--5--4-----------------------------|
A|--------------------------------------9--7--5--7-----9--7--|-5--------------7--5--4--5--4--------------|
E|-----------------------------------------------------------|-------------------------------------9--9--|


E|---------------------------------|-------------14--19--14------------------|-------14-15-14-15-14----14-15-14-15-14----|
B|---------------------------------|-------------------------15--14----------|-17-------------------17----------------17-|
G|-----------------------------9---|---------------------------------16--14--|-------------------------------------------|
D|---------9---12--11--------------|-11--16--17------------------------------|-------------------------------------------|
A|-----10--------------9---10------|-----------------------------------------|-------------------------------------------|
E|-9-------------------------------|-----------------------------------------|-------------------------------------------|


E|-14-15-14-15-14----14-15-14----------|-24--19------------19-15---------17------8---7---|
B|----------------17----------17-17----|---------20--19-15-------17----------------------|
G|-------------------------------------|-----------------------------16------9-----------|
D|-------------------------------------|-------------------------------------------------|
A|-------------------------------------|-------------------------------------------------|
E|-------------------------------------|-------------------------------------------------|


E|-12--7-------------------------|------------------------------|-------------------------------|
B|---------8---7-----------------|------------------------------|-------------------------------|
G|-----------------9---9-----7---|-9---7----7-------------------|-------------------------------|
D|-------------------------------|--------------9---7-----------|-------11-9--------11-9--------|
A|-------------------------------|----------------------7---5---|-7-----------10-9--------10-9--|
E|-------------------------------|------------------------------|-------------------------------|


E|-------------------------------------------------|-----------------------------------------------|
B|-------------------------------------------------|-----------------------------------------------|
G|-------------------------------------------------|----------------9--------11-12-11-9------11-9--|
D|-11-12-11-9--------11-9--------11-12-11-9--------|-11-12-11-9--12----12-11-------------11--------|
A|-------------10-9--------10-9--------------10-9--|-----------------------------------------------|
E|-------------------------------------------------|-----------------------------------------------|


E|-------------------------------------------------|-------------15-17-15-14-----------------|
B|-------------------------12----------------------|-14-15-14----------------17------19------|
G|-------11-12-11-9-----------12-11-9--11-12-11-9--|----------16-----------------16----------|
D|-11-9--------------11-9--------------------------|-------------------------------------17--|
A|-------------------------------------------------|-----------------------------------------|
E|-------------------------------------------------|-----------------------------------------|


E|-15------19------12--------------|-----------------------------------------|---------------------------------------------17--|
B|-------------------------12------|-----------------------------------------|-----------------------------17------------------|
G|---------------------------------|-12--------------------------------------|-----16--14--12------------------16--------------|
D|-----16------14------------------|---------16--14------16--14--12----------|-----------------16--14--12----------14----------|
A|---------------------------------|-----14--------------------------16--14--|-12--------------------------------------17------|
E|---------------------12------15--|-----------------12----------------------|-------------------------------------------------|


E|-------------19----------19---19--19--|-19--19--19--19----------22------|-21----19-21-22-21-19-21-22-21-19-21-|
B|-17--------------19-------------------|-----------------17--19------19--|-------------------------------------|
G|-----14--------------16---------------|---------------------------------|-------------------------------------|
D|---------17---------------------------|---------------------------------|-------------------------------------|
A|--------------------------------------|---------------------------------|-------------------------------------|
E|--------------------------------------|---------------------------------|-------------------------------------|


E|-22-21-19-21-22-21-18-19-21-19-------19-17----15-17-15-|-12-14-15-14-12-----------------------------|
B|-------------------------------20-22-------19----------|----------------15-14-12--------------------|
G|-------------------------------------------------------|-------------------------14-12-11-9---------|
D|-------------------------------------------------------|--------------------------------------------|
A|-------------------------------------------------------|--------------------------------------------|
E|-------------------------------------------------------|--------------------------------------------|


E|---------12-14-15-14---14--12----------|-15----17---14-------------|-14------------------21------------------|
B|-15----------------------------15--12--|---------------15-14-------|------15------------------22-------------|
G|---------------------------------------|---------------------14----|---------16-14---------------23-21-------|
D|---------------------------------------|------------------------16-|---------------17-16---------------24-23-|
A|---------------------------------------|---------------------------|-----------------------------------------|
E|---------------------------------------|---------------------------|-----------------------------------------|


E|---------------------------|-------------7-------------------|-----------------------------------------|
B|-22----22--------------8---|-7---------------10--8---7-------|---------------------------------8-------|
G|-------------------9-------|-----7---9-------------------9---|-7---------------------------------------|
D|---------------9-----------|---------------------------------|-----10--9---7---------------9-------10--|
A|-----------7---------------|---------------------------------|-----------------10--8---7---------------|
E|---------------------------|---------------------------------|-----------------------------------------|


E|-----12--10------15--14----------|---------10------------------------------|-------------------------7---8---10--12--14--|
B|-8-----------10----------15------|-8---7-------10--7-------------------8---|-7-----------7---8---10----------------------|
G|-----------------------------14--|---------------------7-----------9-------|-----7---9-----------------------------------|
D|---------------------------------|-----------------------------9-----------|---------------------------------------------|
A|---------------------------------|-------------------------7---------------|---------------------------------------------|
E|---------------------------------|-----------------------------------------|---------------------------------------------|


E|-----20------------------12--7-----------|-7-------------------------------------|
B|-20--------------------------------------|----7----------7-----------------------|
G|---------19------17--------------9---7---|-------------------7-------------------|
D|-------------19------17------------------|--------9--7---------------------------|
A|-----------------------------------------|-----------------------9---7---9---10--|
E|-----------------------------------------|---------------------------------------|


E|-------------------------------------------------|----------------------------------|
B|-----7---8---7-----------------------------------|----------------------------------|
G|-9---------------7-------------------------------|----------------------2---2---2---|
D|---------------------7---------------------------|-2---4---5------------------------|
A|-------------------------------------2---4---5---|-------------0----0---------------|
E|-------------------------0---2---3---------------|----------------------------------|


E|------------------------|---------------------------|------------------------|---------------------------|
B|------------------------|---------------------------|------------------------|---------------------------|
G|----------2----2--------|-2-------------------------|------------------------|---------------2---2---2---|
D|------------------------|---------------------------|------------------------|---------------------------|
A|-0----0------------0----|---------------------------|----------5----5---3----|-2----0----0---------------|
E|------------------------|------5----5---3---3---3---|-2----2-----------------|---------------------------|


E|------------------------|---------------------------|------------------------|------------------------------|
B|------------------------|---------------------------|------------------------|------------------------------|
G|----------2----2--------|-2-------------------------|------------------------|--------------2---4---5---4---|
D|------------------------|---------------------------|------------------------|----------2-------------------|
A|-0----0------------0----|---------------------------|----------5----5---3----|-2----0-----------------------|
E|------------------------|------5----5---3---3---3---|-2----2-----------------|------------------------------|


E|-------------------------------------|-------------------------------------|-----------------------------------------|
B|-------------------------------------|-------------------------------------|-----------------------------------------|
G|-2-----------------------------------|-------------------------------------|-------------------------4---5---7-------|
D|-----3-------------------------------|---------------------------------2---|-4-----------3---5---7-------------------|
A|---------3---5---2-------3-----------|-2---3---5---3---2-----------2-------|-----5---0---------------------------0---|
E|---------------------3-------1---5---|---------------------5---0-----------|-----------------------------------------|


E|---------------------------------|-----------------------------------------|---------------------------------|
B|---------------------------------|-----------------------------------------|---------------------------------|
G|-----2---4---5---4---2-----------|-----------------------------------------|---------------------------------|
D|-2-----------------------3-------|-----------------------------------------|-----------------2---4-----------|
A|-----------------------------3---|-5---2-------3-----------2---3---5---3---|-2-----------2-----------5---0---|
E|---------------------------------|---------3-------1---5-------------------|-----5---0-----------------------|


E|----------------------------------------|-------------------------------------------------|
B|----------------------------------------|-------------------------------------------------|
G|-------------4---5---7---4--------------|-------------------------------------------------|
D|-3---5---7--------------------5---------|---------------------------------------------5---|
A|-----------------------------------7----|---------------------5---5---7---8---7---8-------|
E|----------------------------------------|-5---7---8---7---8-------------------------------|


E|-------------------------------------------------|---------------------10--10--12--13--12--13--15--|
B|---------------------------------------------8---|-10--12--13--12--13------------------------------|
G|---------------------7---7---9---10--9---10------|-------------------------------------------------|
D|-7---9---10--9---10------------------------------|-------------------------------------------------|
A|-------------------------------------------------|-------------------------------------------------|
E|-------------------------------------------------|-------------------------------------------------|


E|-------------13--15--17--19-17-14-12-19-17-14-12-19-17-14-12-|-19-17-14-12-19-17-14-12-19-17-14-12-19-17-14-12-19-17-14-12-19-17-14-12-|
B|-13--15--17--------------------------------------------------|-------------------------------------------------------------------------|
G|-------------------------------------------------------------|-------------------------------------------------------------------------|
D|-------------------------------------------------------------|-------------------------------------------------------------------------|
A|-------------------------------------------------------------|-------------------------------------------------------------------------|
E|-------------------------------------------------------------|-------------------------------------------------------------------------|


E|-19-17-14-12-19-17-14-12-19-17-14-12-21-17-14-12-19-17-14-12-------------|-------------------------19-17-14-12-21-17-14-12-19-17-14-12-------------|
B|-------------------------------------------------------------19-17-14-12-|-19-17-14-12-19-17-14-12-------------------------------------19-17-14-12-|
G|-------------------------------------------------------------------------|-------------------------------------------------------------------------|
D|-------------------------------------------------------------------------|-------------------------------------------------------------------------|
A|-------------------------------------------------------------------------|-------------------------------------------------------------------------|
E|-------------------------------------------------------------------------|-------------------------------------------------------------------------|


E|-------------------------19-17-14-12-------------------|-----------------------------------|
B|-19-17-14-12-19-17-14-12-------------------------------|-----------------------------------|
G|-------------------------------------------------------|-----------------------------------|
D|-------------------------------------------------------|-----------------------------------|
A|-------------------------------------7--7--5---7---5---|-8---7---5---7--7--5---8---7---5---|
E|-------------------------------------------------------|-----------------------------------|


E|-------------------------------------|-----------------------------------|-----------------------------------|
B|-------------------------------------|-----------------------------------|-----------------------------------|
G|-------------------------------------|-----------------------------------|-----------------------------------|
D|-------------------------------------|-----------------------------------|-----------------------------------|
A|-7--7--5---7---5---8---7---5---7--7--|-5---8---7---5---7--7--5---7---5---|-8---7---5---7--7--5---8---7---5---|
E|-------------------------------------|-----------------------------------|-----------------------------------|


E|-------------------------------------|---------------------------|------------------------|
B|-------------------------------------|---------------------------|------------------------|
G|-------------------------------------|---------------------------|------------------------|
D|-------------------------------------|---------------------------|------------------------|
A|-7--7--5---7---5---8---7---5---7--7--|-5---8---7---5-------------|-7------------------7---|
E|-------------------------------------|-----------------0----0----|-------0---0---0--------|


E|------------------------|------------------------------|---------------------|---------------------------|
B|------------------------|------------------------------|---------------------|---------------------------|
G|------------------------|------------------------------|---------------------|---------------------------|
D|------------------------|------------------------------|---------------------|---------------------------|
A|-----7-------------7----|------------------7-------7---|-----------7---------|----------7-------7--------|
E|-0-------0----0---------|-----0---0---0--------0-------|-0----0----------0---|-0---0--------0-------0----|


E|------------------------|---------------------------|------------------------|------------------------|
B|------------------------|---------------------------|------------------------|------------------------|
G|------------------------|---------------------------|------------------------|------------------------|
D|------------------------|---------------------------|------------------------|------------------------|
A|------7-----------------|-----7-------7-------------|-7------------------7---|-----7-------------7----|
E|-0----------0---0---0---|---------0-------0----0----|-------0---0---0--------|-0-------0----0---------|


E|------------------------------|---------------------|---------------------------|
B|------------------------------|---------------------|---------------------------|
G|------------------------------|---------------------|---------------------------|
D|------------------------------|---------------------|---------------------------|
A|------------------7-------7---|-----------7---------|----------7-------7--------|
E|-----0---0---0--------0-------|-0----0----------0---|-0---0--------0-------0----|


E|------------------------|-----------------------|-------------|-------------|--------|
B|------------------------|-----------------------|-------------|-------------|--------|
G|------------------------|-----------------------|-------------|-------------|--------|
D|------------------------|-----------------------|-------------|-------------|--------|
A|------7-----------------|-----7-------7---------|-------------|-------------|--------|
E|-0----------0---0---0---|---------0-------0-----|-------0-----|-------------|--------|


E|--------|-------------|--------|-------------|--------|-------------|--------|--------|
B|--------|-------------|--------|-------------|--------|-------------|--------|--------|
G|--------|-------------|--------|-------------|--------|-------------|--------|--------|
D|--------|-------------|--------|-------------|--------|-------------|--------|--------|
A|--------|-------------|--------|-------------|--------|-------------|--------|--------|
E|--------|-------------|--------|-------------|--------|-------------|--------|--------|


E|-------------|--------|-------------|-------------|-------------|-------------|--------|
B|-------------|--------|-------------|-------------|-------------|-------------|--------|
G|-------------|--------|-------12----|-------12----|------11-----|------11-----|-13-----|
D|-------------|--------|-------------|-------------|-------------|-------------|--------|
A|-------------|--------|-------------|-------------|-------------|-------------|--------|
E|-------------|--------|-------------|-------------|-------------|-------------|--------|


E|-------------|-------------|-------------|-------------|-------------|-------------|
B|-------------|-------------|-------------|-------------|-------------|-------------|
G|-13-----7----|--------6----|-------5-----|-------5-----|------2------|------9------|
D|-------------|-------------|-------------|-------------|-------------|-------------|
A|-------------|-------------|-------------|-------------|-------------|-------------|
E|-------------|-------------|-------------|-------------|-------------|-------------|


E|--------|-------------|-------------|-------------|--------|-------------|-------------|
B|--------|-------------|-------------|-------------|--------|-------------|-------------|
G|-4------|-4------1----|--------1----|-------------|--------|------12-----|------12-----|
D|--------|-------------|-------------|-------------|--------|-------------|-------------|
A|--------|-------------|-------------|-------------|--------|-------------|-------------|
E|--------|-------------|-------------|-------------|--------|-------------|-------------|


E|--------|-------------|-------------|-------------|-------------|-------------|-------------|
B|--------|-------------|-------------|-------------|-------------|-------------|-------------|
G|-11-----|-11-----13---|--------13---|-------7-----|-------6-----|------5------|------5------|
D|--------|-------------|-------------|-------------|-------------|-------------|-------------|
A|--------|-------------|-------------|-------------|-------------|-------------|-------------|
E|--------|-------------|-------------|-------------|-------------|-------------|-------------|


E|--------|-------------|-------------|-------------|-------------|-------------|-------------|
B|--------|-------------|-------------|-------------|-------------|-------------|-------------|
G|-2------|-9------4----|--------4----|-------1-----|-------1-----|-------------|-------------|
D|--------|-------------|-------------|-------------|-------------|-------------|-------------|
A|--------|-------------|-------------|-------------|-------------|-------------|-------------|
E|--------|-------------|-------------|-------------|-------------|------0------|------0------|


E|--------|-------------|-------------|-------------|-------------|-------------|-------------|
B|--------|-------------|-------------|-------------|-------------|-------------|-------------|
G|--------|-------------|-------------|-------------|-------------|-------------|-------------|
D|--------|-------------|-------------|-------------|-------------|-------------|-------------|
A|--------|-------------|-------------|-------7-----|-------7-----|------7------|------7------|
E|-0------|-0------0----|--------0----|-------------|-------------|-------------|-------------|


E|--------|-------------|-------------|-------------|-------------|-------------|-------------|
B|--------|-------------|-------------|-------------|-------------|-------------|-------------|
G|--------|-------------|-------------|-------------|-------------|-------------|-------------|
D|--------|-------------|-------------|-------------|-------------|-------------|-------------|
A|-8------|-8------5----|--------5----|-------5-----|-------5-----|------11-----|------11-----|
E|--------|-------------|-------------|-------------|-------------|-------------|-------------|


E|--------|-------------|--------|-------------|-------------|-------------|-------------|
B|--------|-------------|--------|-------------|-------------|-------------|-------------|
G|--------|-------------|--------|-------9-----|-------9-----|------10-----|------10-----|
D|--------|-------------|--------|-------------|-------------|-------------|-------------|
A|--------|-------------|--------|-------------|-------------|-------------|-------------|
E|--------|-------------|--------|-------------|-------------|-------------|-------------|


E|--------|-------------|--------|-------------|-------------|
B|--------|-------------|--------|-------------|-------------|
G|-13-----|-13----------|--------|-------21----|-------21----|
D|--------|-------------|--------|-------------|-------------|
A|--------|-------------|--------|-------------|-------------|
E|--------|-------------|--------|-------------|-------------|





Track 2: Electric Guitar

E|--------|--------|--------|--------|--------|--------|--------|--------|--------|
B|--------|--------|--------|--------|--------|--------|--------|--------|--------|
G|--------|--------|--------|--------|--------|--------|--------|--------|--------|
D|--------|--------|--------|--------|--------|--------|--------|--------|--------|
A|--------|--------|--------|--------|--------|--------|--------|--------|--------|
E|--------|--------|--------|--------|--------|--------|--------|--------|--------|


E|--------|--------|--------|--------|--------|--------|--------|--------|--------|
B|--------|--------|--------|--------|--------|--------|--------|--------|--------|
G|--------|--------|--------|--------|--------|--------|--------|--------|--------|
D|--------|--------|--------|--------|--------|--------|--------|--------|--------|
A|--------|--------|--------|--------|--------|--------|--------|--------|--------|
E|--------|--------|--------|--------|--------|--------|--------|--------|--------|


E|--------|--------|--------|--------|--------|--------|--------|--------|--------|
B|--------|--------|--------|--------|--------|--------|--------|--------|--------|
G|--------|--------|--------|--------|--------|--------|--------|--------|--------|
D|--------|--------|--------|--------|--------|--------|--------|--------|--------|
A|--------|--------|--------|--------|--------|--------|--------|--------|--------|
E|--------|--------|--------|--------|--------|--------|--------|--------|--------|


E|--------|--------|--------|--------|--------|--------|--------|--------|--------|
B|--------|--------|--------|--------|--------|--------|--------|--------|--------|
G|--------|--------|--------|--------|--------|--------|--------|--------|--------|
D|--------|--------|--------|--------|--------|--------|--------|--------|--------|
A|--------|--------|--------|--------|--------|--------|--------|--------|--------|
E|--------|--------|--------|--------|--------|--------|--------|--------|--------|


E|--------|--------|--------|--------|--------|--------|--------|--------|--------|
B|--------|--------|--------|--------|--------|--------|--------|--------|--------|
G|--------|--------|--------|--------|--------|--------|--------|--------|--------|
D|--------|--------|--------|--------|--------|--------|--------|--------|--------|
A|--------|--------|--------|--------|--------|--------|--------|--------|--------|
E|--------|--------|--------|--------|--------|--------|--------|--------|--------|


E|--------|--------|--------|--------|--------|--------|--------|--------|--------|
B|--------|--------|--------|--------|--------|--------|--------|--------|--------|
G|--------|--------|--------|--------|--------|--------|--------|--------|--------|
D|--------|--------|--------|--------|--------|--------|--------|--------|--------|
A|--------|--------|--------|--------|--------|--------|--------|--------|--------|
E|--------|--------|--------|--------|--------|--------|--------|--------|--------|


E|--------|--------|--------|--------|--------|--------|--------|--------|--------|
B|--------|--------|--------|--------|--------|--------|--------|--------|--------|
G|--------|--------|--------|--------|--------|--------|--------|--------|--------|
D|--------|--------|--------|--------|--------|--------|--------|--------|--------|
A|--------|--------|--------|--------|--------|--------|--------|--------|--------|
E|--------|--------|--------|--------|--------|--------|--------|--------|--------|


E|--------|--------|--------|--------|--------|--------|--------|--------|--------|
B|--------|--------|--------|--------|--------|--------|--------|--------|--------|
G|--------|--------|--------|--------|--------|--------|--------|--------|--------|
D|--------|--------|--------|--------|--------|--------|--------|--------|--------|
A|--------|--------|--------|--------|--------|--------|--------|--------|--------|
E|--------|--------|--------|--------|--------|--------|--------|--------|--------|


E|--------|--------|--------|--------|--------|--------|--------|--------|--------|
B|--------|--------|--------|--------|--------|--------|--------|--------|--------|
G|--------|--------|--------|--------|--------|--------|--------|--------|--------|
D|--------|--------|--------|--------|--------|--------|--------|--------|--------|
A|--------|--------|--------|--------|--------|--------|--------|--------|--------|
E|--------|--------|--------|--------|--------|--------|--------|--------|--------|


E|--------|--------|--------|--------|--------|--------|--------|--------|--------|
B|--------|--------|--------|--------|--------|--------|--------|--------|--------|
G|--------|--------|--------|--------|--------|--------|--------|--------|--------|
D|--------|--------|--------|--------|--------|--------|--------|--------|--------|
A|--------|--------|--------|--------|--------|--------|--------|--------|--------|
E|--------|--------|--------|--------|--------|--------|--------|--------|--------|


E|--------|--------|--------|--------|--------|--------|--------|--------|--------|
B|--------|--------|--------|--------|--------|--------|--------|--------|--------|
G|--------|--------|--------|--------|--------|--------|--------|--------|--------|
D|--------|--------|--------|--------|--------|--------|--------|--------|--------|
A|--------|--------|--------|--------|--------|--------|--------|--------|--------|
E|--------|--------|--------|--------|--------|--------|--------|--------|--------|


E|--------|--------|--------|--------|--------|--------|--------|--------|--------|
B|--------|--------|--------|--------|--------|--------|--------|--------|--------|
G|--------|--------|--------|--------|--------|--------|--------|--------|--------|
D|--------|--------|--------|--------|--------|--------|--------|--------|--------|
A|--------|--------|--------|--------|--------|--------|--------|--------|--------|
E|--------|--------|--------|--------|--------|--------|--------|--------|--------|


E|--------|--------|--------|--------|--------|--------|--------|--------|--------|
B|--------|--------|--------|--------|--------|--------|--------|--------|--------|
G|--------|--------|--------|--------|--------|--------|--------|--------|--------|
D|--------|--------|--------|--------|--------|--------|--------|--------|--------|
A|--------|--------|--------|--------|--------|--------|--------|--------|--------|
E|--------|--------|--------|--------|--------|--------|--------|--------|--------|


E|--------|--------|--------|--------|--------|--------|--------|--------|--------|
B|--------|--------|--------|--------|--------|--------|--------|--------|--------|
G|--------|--------|--------|--------|--------|--------|--------|--------|--------|
D|--------|--------|--------|--------|--------|--------|--------|--------|--------|
A|--------|--------|--------|--------|--------|--------|--------|--------|--------|
E|--------|--------|--------|--------|--------|--------|--------|--------|--------|


E|--------|--------|--------|--------|--------|--------|-------------------------------------|
B|--------|--------|--------|--------|--------|--------|-------------------------------------|
G|--------|--------|--------|--------|--------|--------|-9--9--7---9---7---10--9---7---9--9--|
D|--------|--------|--------|--------|--------|--------|-------------------------------------|
A|--------|--------|--------|--------|--------|--------|-------------------------------------|
E|--------|--------|--------|--------|--------|--------|-------------------------------------|


E|-----------------------------------|-----------------------------------|-----------------------------------|
B|-----------------------------------|-----------------------------------|-----------------------------------|
G|-7---10--9---7---9---7---9--9--7---|-9---7---11--9---7---9--9--7---11--|-9---7---9---7---9--9--7---9---7---|
D|-----------------------------------|-----------------------------------|-----------------------------------|
A|-----------------------------------|-----------------------------------|-----------------------------------|
E|-----------------------------------|-----------------------------------|-----------------------------------|


E|-----------------------------------|-----------------------------------|-----------------------------------|
B|-----------------------------------|-----------------------------------|-----------------------------------|
G|-10--9---7---9--9--7---10--9---7---|-9---7---9--9--7---9---7---11--9---|-7---9--9--7---11--9---7---9---7---|
D|-----------------------------------|-----------------------------------|-----------------------------------|
A|-----------------------------------|-----------------------------------|-----------------------------------|
E|-----------------------------------|-----------------------------------|-----------------------------------|


E|-------------------------------------|-----------------------------------|-----------------------------------|
B|-------------------------------------|-----------------------------------|-----------------------------------|
G|-9--9--7---9---7---10--9---7---9--9--|-7---10--9---7---9---7---9--9--7---|-9---7---11--9---7---9--9--7---11--|
D|-------------------------------------|-----------------------------------|-----------------------------------|
A|-------------------------------------|-----------------------------------|-----------------------------------|
E|-------------------------------------|-----------------------------------|-----------------------------------|


E|-----------------------------------|-----------------------------------|-----------------------------------|
B|-----------------------------------|-----------------------------------|-----------------------------------|
G|-9---7---9---7---9--9--7---9---7---|-10--9---7---9--9--7---10--9---7---|-9---7---9--9--7---9---7---11--9---|
D|-----------------------------------|-----------------------------------|-----------------------------------|
A|-----------------------------------|-----------------------------------|-----------------------------------|
E|-----------------------------------|-----------------------------------|-----------------------------------|


E|-----------------------------------|--------|--------|--------|--------|--------|
B|-----------------------------------|--------|--------|--------|--------|--------|
G|-7---9--9--7---11--9---7---9---7---|--------|--------|--------|--------|--------|
D|-----------------------------------|--------|--------|--------|--------|--------|
A|-----------------------------------|--------|--------|--------|--------|--------|
E|-----------------------------------|--------|--------|--------|--------|--------|


E|--------|--------|--------|--------|--------|--------|--------|--------|--------|
B|--------|--------|--------|--------|--------|--------|--------|--------|--------|
G|--------|--------|--------|--------|--------|--------|--------|--------|--------|
D|--------|--------|--------|--------|--------|--------|--------|--------|--------|
A|--------|--------|--------|--------|--------|--------|--------|--------|--------|
E|--------|--------|--------|--------|--------|--------|--------|--------|--------|


E|--------|--------|--------|--------|--------|--------|--------|--------|--------|
B|--------|--------|--------|--------|--------|--------|--------|--------|--------|
G|--------|--------|--------|--------|--------|--------|--------|--------|--------|
D|--------|--------|--------|--------|--------|--------|--------|--------|--------|
A|--------|--------|--------|--------|--------|--------|--------|--------|--------|
E|--------|--------|--------|--------|--------|--------|--------|--------|--------|


E|--------|--------|--------|--------|--------|--------|--------|--------|--------|
B|--------|--------|--------|--------|--------|--------|--------|--------|--------|
G|--------|--------|--------|--------|--------|--------|--------|--------|--------|
D|--------|--------|--------|--------|--------|--------|--------|--------|--------|
A|--------|--------|--------|--------|--------|--------|--------|--------|--------|
E|--------|--------|--------|--------|--------|--------|--------|--------|--------|


E|--------|--------|--------|--------|--------|--------|--------|--------|--------|
B|--------|--------|--------|--------|--------|--------|--------|--------|--------|
G|--------|--------|--------|--------|--------|--------|--------|--------|--------|
D|--------|--------|--------|--------|--------|--------|--------|--------|--------|
A|--------|--------|--------|--------|--------|--------|--------|--------|--------|
E|--------|--------|--------|--------|--------|--------|--------|--------|--------|


E|--------|--------|--------|--------|--------|--------|--------|--------|--------|
B|--------|--------|--------|--------|--------|--------|--------|--------|--------|
G|--------|--------|--------|--------|--------|--------|--------|--------|--------|
D|--------|--------|--------|--------|--------|--------|--------|--------|--------|
A|--------|--------|--------|--------|--------|--------|--------|--------|--------|
E|--------|--------|--------|--------|--------|--------|--------|--------|--------|


E|--------|--------|--------|--------|--------|--------|--------|--------|--------|
B|--------|--------|--------|--------|--------|--------|--------|--------|--------|
G|--------|--------|--------|--------|--------|--------|--------|--------|--------|
D|--------|--------|--------|--------|--------|--------|--------|--------|--------|
A|--------|--------|--------|--------|--------|--------|--------|--------|--------|
E|--------|--------|--------|--------|--------|--------|--------|--------|--------|


E|--------|--------|--------|--------|--------|--------|--------|--------|--------|
B|--------|--------|--------|--------|--------|--------|--------|--------|--------|
G|--------|--------|--------|--------|--------|--------|--------|--------|--------|
D|--------|--------|--------|--------|--------|--------|--------|--------|--------|
A|--------|--------|--------|--------|--------|--------|--------|--------|--------|
E|--------|--------|--------|--------|--------|--------|--------|--------|--------|


E|--------|--------|--------|--------|--------|--------|--------|--------|--------|
B|--------|--------|--------|--------|--------|--------|--------|--------|--------|
G|--------|--------|--------|--------|--------|--------|--------|--------|--------|
D|--------|--------|--------|--------|--------|--------|--------|--------|--------|
A|--------|--------|--------|--------|--------|--------|--------|--------|--------|
E|--------|--------|--------|--------|--------|--------|--------|--------|--------|


E|--------|--------|--------|--------|--------|--------|--------|--------|--------|
B|--------|--------|--------|--------|--------|--------|--------|--------|--------|
G|--------|--------|--------|--------|--------|--------|--------|--------|--------|
D|--------|--------|--------|--------|--------|--------|--------|--------|--------|
A|--------|--------|--------|--------|--------|--------|--------|--------|--------|
E|--------|--------|--------|--------|--------|--------|--------|--------|--------|


E|--------|--------|--------|--------|--------|--------|--------|--------|--------|
B|--------|--------|--------|--------|--------|--------|--------|--------|--------|
G|--------|--------|--------|--------|--------|--------|--------|--------|--------|
D|--------|--------|--------|--------|--------|--------|--------|--------|--------|
A|--------|--------|--------|--------|--------|--------|--------|--------|--------|
E|--------|--------|--------|--------|--------|--------|--------|--------|--------|


E|--------|--------|--------|--------|--------|--------|--------|--------|--------|
B|--------|--------|--------|--------|--------|--------|--------|--------|--------|
G|--------|--------|--------|--------|--------|--------|--------|--------|--------|
D|--------|--------|--------|--------|--------|--------|--------|--------|--------|
A|--------|--------|--------|--------|--------|--------|--------|--------|--------|
E|--------|--------|--------|--------|--------|--------|--------|--------|--------|


E|--------|--------|--------|--------|--------|--------|--------|--------|--------|
B|--------|--------|--------|--------|--------|--------|--------|--------|--------|
G|--------|--------|--------|--------|--------|--------|--------|--------|--------|
D|--------|--------|--------|--------|--------|--------|--------|--------|--------|
A|--------|--------|--------|--------|--------|--------|--------|--------|--------|
E|--------|--------|--------|--------|--------|--------|--------|--------|--------|


E|--------|--------|--------|--------|--------|--------|--------|--------|--------|
B|--------|--------|--------|--------|--------|--------|--------|--------|--------|
G|--------|--------|--------|--------|--------|--------|--------|--------|--------|
D|--------|--------|--------|--------|--------|--------|--------|--------|--------|
A|--------|--------|--------|--------|--------|--------|--------|--------|--------|
E|--------|--------|--------|--------|--------|--------|--------|--------|--------|


E|--------|--------|--------|--------|--------|--------|--------|--------|--------|
B|--------|--------|--------|--------|--------|--------|--------|--------|--------|
G|--------|--------|--------|--------|--------|--------|--------|--------|--------|
D|--------|--------|--------|--------|--------|--------|--------|--------|--------|
A|--------|--------|--------|--------|--------|--------|--------|--------|--------|
E|--------|--------|--------|--------|--------|--------|--------|--------|--------|


E|--------|--------|--------|--------|--------|--------|--------|--------|--------|
B|--------|--------|--------|--------|--------|--------|--------|--------|--------|
G|--------|--------|--------|--------|--------|--------|--------|--------|--------|
D|--------|--------|--------|--------|--------|--------|--------|--------|--------|
A|--------|--------|--------|--------|--------|--------|--------|--------|--------|
E|--------|--------|--------|--------|--------|--------|--------|--------|--------|


E|--------|--------|--------|--------|--------|--------|--------|--------|--------|
B|--------|--------|--------|--------|--------|--------|--------|--------|--------|
G|--------|--------|--------|--------|--------|--------|--------|--------|--------|
D|--------|--------|--------|--------|--------|--------|--------|--------|--------|
A|--------|--------|--------|--------|--------|--------|--------|--------|--------|
E|--------|--------|--------|--------|--------|--------|--------|--------|--------|


E|--------|--------|--------|--------|--------|--------|--------|--------|--------|
B|--------|--------|--------|--------|--------|--------|--------|--------|--------|
G|--------|--------|--------|--------|--------|--------|--------|--------|--------|
D|--------|--------|--------|--------|--------|--------|--------|--------|--------|
A|--------|--------|--------|--------|--------|--------|--------|--------|--------|
E|--------|--------|--------|--------|--------|--------|--------|--------|--------|


E|--------|--------|--------|--------|--------|--------|--------|--------|--------|
B|--------|--------|--------|--------|--------|--------|--------|--------|--------|
G|--------|--------|--------|--------|--------|--------|--------|--------|--------|
D|--------|--------|--------|--------|--------|--------|--------|--------|--------|
A|--------|--------|--------|--------|--------|--------|--------|--------|--------|
E|--------|--------|--------|--------|--------|--------|--------|--------|--------|


E|--------|--------|--------|--------|--------|--------|--------|--------|--------|
B|--------|--------|--------|--------|--------|--------|--------|--------|--------|
G|--------|--------|--------|--------|--------|--------|--------|--------|--------|
D|--------|--------|--------|--------|--------|--------|--------|--------|--------|
A|--------|--------|--------|--------|--------|--------|--------|--------|--------|
E|--------|--------|--------|--------|--------|--------|--------|--------|--------|


E|--------|--------|--------|--------|--------|--------|--------|--------|--------|
B|--------|--------|--------|--------|--------|--------|--------|--------|--------|
G|--------|--------|--------|--------|--------|--------|--------|--------|--------|
D|--------|--------|--------|--------|--------|--------|--------|--------|--------|
A|--------|--------|--------|--------|--------|--------|--------|--------|--------|
E|--------|--------|--------|--------|--------|--------|--------|--------|--------|


E|--------|--------|--------|--------|--------|--------|--------|--------|--------|
B|--------|--------|--------|--------|--------|--------|--------|--------|--------|
G|--------|--------|--------|--------|--------|--------|--------|--------|--------|
D|--------|--------|--------|--------|--------|--------|--------|--------|--------|
A|--------|--------|--------|--------|--------|--------|--------|--------|--------|
E|--------|--------|--------|--------|--------|--------|--------|--------|--------|


E|--------|--------|--------|--------|--------|--------|--------|--------|--------|
B|--------|--------|--------|--------|--------|--------|--------|--------|--------|
G|--------|--------|--------|--------|--------|--------|--------|--------|--------|
D|--------|--------|--------|--------|--------|--------|--------|--------|--------|
A|--------|--------|--------|--------|--------|--------|--------|--------|--------|
E|--------|--------|--------|--------|--------|--------|--------|--------|--------|


E|--------|--------|--------|--------|--------|--------|--------|--------|--------|
B|--------|--------|--------|--------|--------|--------|--------|--------|--------|
G|--------|--------|--------|--------|--------|--------|--------|--------|--------|
D|--------|--------|--------|--------|--------|--------|--------|--------|--------|
A|--------|--------|--------|--------|--------|--------|--------|--------|--------|
E|--------|--------|--------|--------|--------|--------|--------|--------|--------|


E|--------|--------|--------|--------|--------|--------|--------|--------|--------|
B|--------|--------|--------|--------|--------|--------|--------|--------|--------|
G|--------|--------|--------|--------|--------|--------|--------|--------|--------|
D|--------|--------|--------|--------|--------|--------|--------|--------|--------|
A|--------|--------|--------|--------|--------|--------|--------|--------|--------|
E|--------|--------|--------|--------|--------|--------|--------|--------|--------|


E|--------|--------|--------|--------|--------|--------|--------|--------|--------|
B|--------|--------|--------|--------|--------|--------|--------|--------|--------|
G|--------|--------|--------|--------|--------|--------|--------|--------|--------|
D|--------|--------|--------|--------|--------|--------|--------|--------|--------|
A|--------|--------|--------|--------|--------|--------|--------|--------|--------|
E|--------|--------|--------|--------|--------|--------|--------|--------|--------|


E|--------|--------|--------|--------|--------|--------|--------|--------|--------|
B|--------|--------|--------|--------|--------|--------|--------|--------|--------|
G|--------|--------|--------|--------|--------|--------|--------|--------|--------|
D|--------|--------|--------|--------|--------|--------|--------|--------|--------|
A|--------|--------|--------|--------|--------|--------|--------|--------|--------|
E|--------|--------|--------|--------|--------|--------|--------|--------|--------|


E|--------|--------|--------|--------|--------|--------|--------|--------|--------|
B|--------|--------|--------|--------|--------|--------|--------|--------|--------|
G|--------|--------|--------|--------|--------|--------|--------|--------|--------|
D|--------|--------|--------|--------|--------|--------|--------|--------|--------|
A|--------|--------|--------|--------|--------|--------|--------|--------|--------|
E|--------|--------|--------|--------|--------|--------|--------|--------|--------|


E|--------|--------|--------|--------|--------|--------|--------|--------|--------|
B|--------|--------|--------|--------|--------|--------|--------|--------|--------|
G|--------|--------|--------|--------|--------|--------|--------|--------|--------|
D|--------|--------|--------|--------|--------|--------|--------|--------|--------|
A|--------|--------|--------|--------|--------|--------|--------|--------|--------|
E|--------|--------|--------|--------|--------|--------|--------|--------|--------|


E|--------|--------|--------|--------|--------|--------|--------|--------|--------|
B|--------|--------|--------|--------|--------|--------|--------|--------|--------|
G|--------|--------|--------|--------|--------|--------|--------|--------|--------|
D|--------|--------|--------|--------|--------|--------|--------|--------|--------|
A|--------|--------|--------|--------|--------|--------|--------|--------|--------|
E|--------|--------|--------|--------|--------|--------|--------|--------|--------|


E|--------|--------|--------|--------|--------|--------|--------|--------|--------|
B|--------|--------|--------|--------|--------|--------|--------|--------|--------|
G|--------|--------|--------|--------|--------|--------|--------|--------|--------|
D|--------|--------|--------|--------|--------|--------|--------|--------|--------|
A|--------|--------|--------|--------|--------|--------|--------|--------|--------|
E|--------|--------|--------|--------|--------|--------|--------|--------|--------|


E|--------|--------|--------|--------|--------|--------|--------|--------|--------|
B|--------|--------|--------|--------|--------|--------|--------|--------|--------|
G|--------|--------|--------|--------|--------|--------|--------|--------|--------|
D|--------|--------|--------|--------|--------|--------|--------|--------|--------|
A|--------|--------|--------|--------|--------|--------|--------|--------|--------|
E|--------|--------|--------|--------|--------|--------|--------|--------|--------|


E|--------|--------|--------|--------|--------|--------|--------|--------|--------|
B|--------|--------|--------|--------|--------|--------|--------|--------|--------|
G|--------|--------|--------|--------|--------|--------|--------|--------|--------|
D|--------|--------|--------|--------|--------|--------|--------|--------|--------|
A|--------|--------|--------|--------|--------|--------|--------|--------|--------|
E|--------|--------|--------|--------|--------|--------|--------|--------|--------|


E|--------|--------|--------|--------|--------|--------|--------|--------|--------|
B|--------|--------|--------|--------|--------|--------|--------|--------|--------|
G|--------|--------|--------|--------|--------|--------|--------|--------|--------|
D|--------|--------|--------|--------|--------|--------|--------|--------|--------|
A|--------|--------|--------|--------|--------|--------|--------|--------|--------|
E|--------|--------|--------|--------|--------|--------|--------|--------|--------|


E|--------|--------|--------|--------|--------|--------|--------|--------|--------|
B|--------|--------|--------|--------|--------|--------|--------|--------|--------|
G|--------|--------|--------|--------|--------|--------|--------|--------|--------|
D|--------|--------|--------|--------|--------|--------|--------|--------|--------|
A|--------|--------|--------|--------|--------|--------|--------|--------|--------|
E|--------|--------|--------|--------|--------|--------|--------|--------|--------|


E|--------|--------|--------|--------|--------|-------------|-----------------------|
B|--------|--------|--------|--------|--------|-------------|-----------------------|
G|--------|--------|--------|--------|--------|-------------|-----------------------|
D|--------|--------|--------|--------|--------|-------------|-----------------------|
A|--------|--------|--------|--------|--------|-------------|-------------------3---|
E|--------|--------|--------|--------|--------|-------------|-------0---0---0-------|


E|---------------------------------|---------------------------------|---------------------------------|
B|---------------------------------|---------------------------------|---------------------------------|
G|---------------------------------|---------------------------------|---------------------------------|
D|---------------------------------|---------------------------------|---------------------------------|
A|-3---3---5---5---5---5---5---5---|-----------------------------3---|-3---3---5---5---5---5---5---5---|
E|---------------------------------|-1---1---1---3---0---0---0-------|---------------------------------|


E|-----------------------------------------|---------------------------------|---------------------------------|
B|-----------------------------------------|---------------------------------|---------------------------------|
G|-----------------------------------------|---------------------------------|---------------------------------|
D|-----------------------------------------|---------------------------------|---------------------------------|
A|-------------------------------------3---|-3---3---5---5---5---5---5---5---|-----------------------------3---|
E|-1---1---1---1---1---3---0---0---0-------|---------------------------------|-1---1---1---3---0---0---0-------|


E|---------------------------------|-----------------------------------------|--------------------|
B|---------------------------------|-----------------------------------------|--------------------|
G|---------------------------------|-----------------------------------------|--------------------|
D|---------------------------------|-----------------------------------------|-2---4---5----------|
A|-3---3---5---5---5---5---5---5---|-----------------------------2---4---5---|--------------------|
E|---------------------------------|-1---1---1---3---0---2---3---------------|--------------------|


E|-------------|-------------|-------------|-------------|-------------|-------------|
B|-------------|-------------|-------------|-------------|-------------|-------------|
G|-------------|-------------|-------------|-------------|-------------|-------------|
D|-------------|-------------|-------------|-------------|-------------|-------------|
A|-------------|-------------|-------------|-------------|-------------|-------------|
E|-------------|-------------|-------------|-------------|-------------|-------------|


E|-------------|--------|--------|--------|--------|--------|--------|--------|--------|
B|-------------|--------|--------|--------|--------|--------|--------|--------|--------|
G|-------------|--------|--------|--------|--------|--------|--------|--------|--------|
D|-------------|--------|--------|--------|--------|--------|--------|--------|--------|
A|-------------|--------|--------|--------|--------|--------|--------|--------|--------|
E|-------------|--------|--------|--------|--------|--------|--------|--------|--------|


E|--------|--------|--------|-------------------------------------------|-------------------------------------------------------------------------|
B|--------|--------|--------|-------19-17-14-12-19-17-14-12-19-17-14-12-|-19-17-14-12-19-17-14-12-19-17-14-12-19-17-14-12-19-17-14-12-19-17-14-12-|
G|--------|--------|--------|-------------------------------------------|-------------------------------------------------------------------------|
D|--------|--------|--------|-------------------------------------------|-------------------------------------------------------------------------|
A|--------|--------|--------|-------------------------------------------|-------------------------------------------------------------------------|
E|--------|--------|--------|-------------------------------------------|-------------------------------------------------------------------------|


E|-------------------------------------------------------------------------|-------------------------------------------------------------------------|
B|-19-17-14-12-19-17-14-12-19-17-14-12-21-17-14-12-19-17-14-12-------------|-------------------------19-17-14-12-21-17-14-12-19-17-14-12-------------|
G|-------------------------------------------------------------18-16-13-11-|-18-16-13-11-18-16-13-11-------------------------------------18-16-13-11-|
D|-------------------------------------------------------------------------|-------------------------------------------------------------------------|
A|-------------------------------------------------------------------------|-------------------------------------------------------------------------|
E|-------------------------------------------------------------------------|-------------------------------------------------------------------------|


E|-------------------------------------------|--------|--------|--------|--------|
B|-------------------------19-17-14-12-------|--------|--------|--------|--------|
G|-18-16-13-11-18-16-13-11-------------------|--------|--------|--------|--------|
D|-------------------------------------------|--------|--------|--------|--------|
A|-------------------------------------------|--------|--------|--------|--------|
E|-------------------------------------------|--------|--------|--------|--------|


E|--------|--------|--------|--------|--------|--------|--------|--------|--------|
B|--------|--------|--------|--------|--------|--------|--------|--------|--------|
G|--------|--------|--------|--------|--------|--------|--------|--------|--------|
D|--------|--------|--------|--------|--------|--------|--------|--------|--------|
A|--------|--------|--------|--------|--------|--------|--------|--------|--------|
E|--------|--------|--------|--------|--------|--------|--------|--------|--------|


E|--------|--------|--------|--------|--------|--------|--------|--------|--------|
B|--------|--------|--------|--------|--------|--------|--------|--------|--------|
G|--------|--------|--------|--------|--------|--------|--------|--------|--------|
D|--------|--------|--------|--------|--------|--------|--------|--------|--------|
A|--------|--------|--------|--------|--------|--------|--------|--------|--------|
E|--------|--------|--------|--------|--------|--------|--------|--------|--------|


E|--------|--------|--------|--------|--------|--------|--------|--------|--------|
B|--------|--------|--------|--------|--------|--------|--------|--------|--------|
G|--------|--------|--------|--------|--------|--------|--------|--------|--------|
D|--------|--------|--------|--------|--------|--------|--------|--------|--------|
A|--------|--------|--------|--------|--------|--------|--------|--------|--------|
E|--------|--------|--------|--------|--------|--------|--------|--------|--------|


E|--------|--------|--------|--------|--------|--------|--------|--------|--------|
B|--------|--------|--------|--------|--------|--------|--------|--------|--------|
G|--------|--------|--------|--------|--------|--------|--------|--------|--------|
D|--------|--------|--------|--------|--------|--------|--------|--------|--------|
A|--------|--------|--------|--------|--------|--------|--------|--------|--------|
E|--------|--------|--------|--------|--------|--------|--------|--------|--------|


E|--------|--------|--------|--------|--------|--------|--------|--------|--------|
B|--------|--------|--------|--------|--------|--------|--------|--------|--------|
G|--------|--------|--------|--------|--------|--------|--------|--------|--------|
D|--------|--------|--------|--------|--------|--------|--------|--------|--------|
A|--------|--------|--------|--------|--------|--------|--------|--------|--------|
E|--------|--------|--------|--------|--------|--------|--------|--------|--------|


E|--------|--------|--------|--------|--------|--------|--------|--------|--------|
B|--------|--------|--------|--------|--------|--------|--------|--------|--------|
G|--------|--------|--------|--------|--------|--------|--------|--------|--------|
D|--------|--------|--------|--------|--------|--------|--------|--------|--------|
A|--------|--------|--------|--------|--------|--------|--------|--------|--------|
E|--------|--------|--------|--------|--------|--------|--------|--------|--------|


E|--------|--------|--------|--------|--------|--------|--------|--------|--------|
B|--------|--------|--------|--------|--------|--------|--------|--------|--------|
G|--------|--------|--------|--------|--------|--------|--------|--------|--------|
D|--------|--------|--------|--------|--------|--------|--------|--------|--------|
A|--------|--------|--------|--------|--------|--------|--------|--------|--------|
E|--------|--------|--------|--------|--------|--------|--------|--------|--------|


E|--------|--------|--------|--------|--------|--------|--------|--------|--------|
B|--------|--------|--------|--------|--------|--------|--------|--------|--------|
G|--------|--------|--------|--------|--------|--------|--------|--------|--------|
D|--------|--------|--------|--------|--------|--------|--------|--------|--------|
A|--------|--------|--------|--------|--------|--------|--------|--------|--------|
E|--------|--------|--------|--------|--------|--------|--------|--------|--------|


E|--------|--------|--------|--------|--------|--------|--------|--------|--------|
B|--------|--------|--------|--------|--------|--------|--------|--------|--------|
G|--------|--------|--------|--------|--------|--------|--------|--------|--------|
D|--------|--------|--------|--------|--------|--------|--------|--------|--------|
A|--------|--------|--------|--------|--------|--------|--------|--------|--------|
E|--------|--------|--------|--------|--------|--------|--------|--------|--------|


E|--------|--------|--------|--------|--------|--------|
B|--------|--------|--------|--------|--------|--------|
G|--------|--------|--------|--------|--------|--------|
D|--------|--------|--------|--------|--------|--------|
A|--------|--------|--------|--------|--------|--------|
E|--------|--------|--------|--------|--------|--------|





Track 3: Electric in Drop-D

E|--------|--------|--------|--------|--------|--------|--------|--------|--------|
B|--------|--------|--------|--------|--------|--------|--------|--------|--------|
G|--------|--------|--------|--------|--------|--------|--------|--------|--------|
D|--------|--------|--------|--------|--------|--------|--------|--------|--------|
A|--------|--------|--------|--------|--------|--------|--------|--------|--------|
D|--------|--------|--------|--------|--------|--------|--------|--------|--------|


E|--------|--------|--------|--------|--------|--------|--------|--------|--------|
B|--------|--------|--------|--------|--------|--------|--------|--------|--------|
G|--------|--------|--------|--------|--------|--------|--------|--------|--------|
D|--------|--------|--------|--------|--------|--------|--------|--------|--------|
A|--------|--------|--------|--------|--------|--------|--------|--------|--------|
D|--------|--------|--------|--------|--------|--------|--------|--------|--------|


E|--------|--------|--------|--------|--------|--------|--------|--------|--------|
B|--------|--------|--------|--------|--------|--------|--------|--------|--------|
G|--------|--------|--------|--------|--------|--------|--------|--------|--------|
D|--------|--------|--------|--------|--------|--------|--------|--------|--------|
A|--------|--------|--------|--------|--------|--------|--------|--------|--------|
D|--------|--------|--------|--------|--------|--------|--------|--------|--------|


E|--------|--------|--------|--------|--------|--------|--------|--------|--------|
B|--------|--------|--------|--------|--------|--------|--------|--------|--------|
G|--------|--------|--------|--------|--------|--------|--------|--------|--------|
D|--------|--------|--------|--------|--------|--------|--------|--------|--------|
A|--------|--------|--------|--------|--------|--------|--------|--------|--------|
D|--------|--------|--------|--------|--------|--------|--------|--------|--------|


E|--------|--------|--------|--------|--------|--------|--------|--------|--------|
B|--------|--------|--------|--------|--------|--------|--------|--------|--------|
G|--------|--------|--------|--------|--------|--------|--------|--------|--------|
D|--------|--------|--------|--------|--------|--------|--------|--------|--------|
A|--------|--------|--------|--------|--------|--------|--------|--------|--------|
D|--------|--------|--------|--------|--------|--------|--------|--------|--------|


E|--------|--------|--------|--------|--------|--------|--------|--------|--------|
B|--------|--------|--------|--------|--------|--------|--------|--------|--------|
G|--------|--------|--------|--------|--------|--------|--------|--------|--------|
D|--------|--------|--------|--------|--------|--------|--------|--------|--------|
A|--------|--------|--------|--------|--------|--------|--------|--------|--------|
D|--------|--------|--------|--------|--------|--------|--------|--------|--------|


E|--------|--------|--------|--------|--------|--------|--------|--------|--------|
B|--------|--------|--------|--------|--------|--------|--------|--------|--------|
G|--------|--------|--------|--------|--------|--------|--------|--------|--------|
D|--------|--------|--------|--------|--------|--------|--------|--------|--------|
A|--------|--------|--------|--------|--------|--------|--------|--------|--------|
D|--------|--------|--------|--------|--------|--------|--------|--------|--------|


E|--------|--------|--------|--------|--------|--------|--------|--------|--------|
B|--------|--------|--------|--------|--------|--------|--------|--------|--------|
G|--------|--------|--------|--------|--------|--------|--------|--------|--------|
D|--------|--------|--------|--------|--------|--------|--------|--------|--------|
A|--------|--------|--------|--------|--------|--------|--------|--------|--------|
D|--------|--------|--------|--------|--------|--------|--------|--------|--------|


E|--------|--------|--------|--------|--------|--------|--------|--------|--------|
B|--------|--------|--------|--------|--------|--------|--------|--------|--------|
G|--------|--------|--------|--------|--------|--------|--------|--------|--------|
D|--------|--------|--------|--------|--------|--------|--------|--------|--------|
A|--------|--------|--------|--------|--------|--------|--------|--------|--------|
D|--------|--------|--------|--------|--------|--------|--------|--------|--------|


E|--------|--------|--------|--------|--------|--------|--------|--------|--------|
B|--------|--------|--------|--------|--------|--------|--------|--------|--------|
G|--------|--------|--------|--------|--------|--------|--------|--------|--------|
D|--------|--------|--------|--------|--------|--------|--------|--------|--------|
A|--------|--------|--------|--------|--------|--------|--------|--------|--------|
D|--------|--------|--------|--------|--------|--------|--------|--------|--------|


E|--------|--------|--------|--------|--------|--------|--------|--------|--------|
B|--------|--------|--------|--------|--------|--------|--------|--------|--------|
G|--------|--------|--------|--------|--------|--------|--------|--------|--------|
D|--------|--------|--------|--------|--------|--------|--------|--------|--------|
A|--------|--------|--------|--------|--------|--------|--------|--------|--------|
D|--------|--------|--------|--------|--------|--------|--------|--------|--------|


E|--------|--------|--------|--------|--------|--------|--------|--------|--------|
B|--------|--------|--------|--------|--------|--------|--------|--------|--------|
G|--------|--------|--------|--------|--------|--------|--------|--------|--------|
D|--------|--------|--------|--------|--------|--------|--------|--------|--------|
A|--------|--------|--------|--------|--------|--------|--------|--------|--------|
D|--------|--------|--------|--------|--------|--------|--------|--------|--------|


E|--------|--------|--------|--------|--------|--------|--------|--------|--------|
B|--------|--------|--------|--------|--------|--------|--------|--------|--------|
G|--------|--------|--------|--------|--------|--------|--------|--------|--------|
D|--------|--------|--------|--------|--------|--------|--------|--------|--------|
A|--------|--------|--------|--------|--------|--------|--------|--------|--------|
D|--------|--------|--------|--------|--------|--------|--------|--------|--------|


E|--------|--------|--------|--------|--------|--------|--------|--------|--------|
B|--------|--------|--------|--------|--------|--------|--------|--------|--------|
G|--------|--------|--------|--------|--------|--------|--------|--------|--------|
D|--------|--------|--------|--------|--------|--------|--------|--------|--------|
A|--------|--------|--------|--------|--------|--------|--------|--------|--------|
D|--------|--------|--------|--------|--------|--------|--------|--------|--------|


E|--------|--------|--------|--------|--------|--------|--------|--------|--------|
B|--------|--------|--------|--------|--------|--------|--------|--------|--------|
G|--------|--------|--------|--------|--------|--------|--------|--------|--------|
D|--------|--------|--------|--------|--------|--------|--------|--------|--------|
A|--------|--------|--------|--------|--------|--------|--------|--------|--------|
D|--------|--------|--------|--------|--------|--------|--------|--------|--------|


E|--------|--------|--------|--------|--------|--------|--------|--------|--------|
B|--------|--------|--------|--------|--------|--------|--------|--------|--------|
G|--------|--------|--------|--------|--------|--------|--------|--------|--------|
D|--------|--------|--------|--------|--------|--------|--------|--------|--------|
A|--------|--------|--------|--------|--------|--------|--------|--------|--------|
D|--------|--------|--------|--------|--------|--------|--------|--------|--------|


E|--------|--------|--------|--------|--------|--------|--------|--------|--------|
B|--------|--------|--------|--------|--------|--------|--------|--------|--------|
G|--------|--------|--------|--------|--------|--------|--------|--------|--------|
D|--------|--------|--------|--------|--------|--------|--------|--------|--------|
A|--------|--------|--------|--------|--------|--------|--------|--------|--------|
D|--------|--------|--------|--------|--------|--------|--------|--------|--------|


E|--------|--------|--------|--------|--------|--------|--------|--------|--------|
B|--------|--------|--------|--------|--------|--------|--------|--------|--------|
G|--------|--------|--------|--------|--------|--------|--------|--------|--------|
D|--------|--------|--------|--------|--------|--------|--------|--------|--------|
A|--------|--------|--------|--------|--------|--------|--------|--------|--------|
D|--------|--------|--------|--------|--------|--------|--------|--------|--------|


E|--------|--------|--------|--------|--------|--------|--------|--------|--------|
B|--------|--------|--------|--------|--------|--------|--------|--------|--------|
G|--------|--------|--------|--------|--------|--------|--------|--------|--------|
D|--------|--------|--------|--------|--------|--------|--------|--------|--------|
A|--------|--------|--------|--------|--------|--------|--------|--------|--------|
D|--------|--------|--------|--------|--------|--------|--------|--------|--------|


E|--------|--------|--------|--------|--------|--------|--------|--------|--------|
B|--------|--------|--------|--------|--------|--------|--------|--------|--------|
G|--------|--------|--------|--------|--------|--------|--------|--------|--------|
D|--------|--------|--------|--------|--------|--------|--------|--------|--------|
A|--------|--------|--------|--------|--------|--------|--------|--------|--------|
D|--------|--------|--------|--------|--------|--------|--------|--------|--------|


E|--------|--------|--------|--------|--------|--------|--------|--------|--------|
B|--------|--------|--------|--------|--------|--------|--------|--------|--------|
G|--------|--------|--------|--------|--------|--------|--------|--------|--------|
D|--------|--------|--------|--------|--------|--------|--------|--------|--------|
A|--------|--------|--------|--------|--------|--------|--------|--------|--------|
D|--------|--------|--------|--------|--------|--------|--------|--------|--------|


E|--------|--------|--------|--------|--------|--------|--------|--------|--------|
B|--------|--------|--------|--------|--------|--------|--------|--------|--------|
G|--------|--------|--------|--------|--------|--------|--------|--------|--------|
D|--------|--------|--------|--------|--------|--------|--------|--------|--------|
A|--------|--------|--------|--------|--------|--------|--------|--------|--------|
D|--------|--------|--------|--------|--------|--------|--------|--------|--------|


E|--------|--------|--------|--------|--------|--------|--------|--------|--------|
B|--------|--------|--------|--------|--------|--------|--------|--------|--------|
G|--------|--------|--------|--------|--------|--------|--------|--------|--------|
D|--------|--------|--------|--------|--------|--------|--------|--------|--------|
A|--------|--------|--------|--------|--------|--------|--------|--------|--------|
D|--------|--------|--------|--------|--------|--------|--------|--------|--------|


E|--------|--------|--------|--------|--------|--------|--------|--------|--------|
B|--------|--------|--------|--------|--------|--------|--------|--------|--------|
G|--------|--------|--------|--------|--------|--------|--------|--------|--------|
D|--------|--------|--------|--------|--------|--------|--------|--------|--------|
A|--------|--------|--------|--------|--------|--------|--------|--------|--------|
D|--------|--------|--------|--------|--------|--------|--------|--------|--------|


E|--------|--------|--------|--------|--------|--------|--------|--------|--------|
B|--------|--------|--------|--------|--------|--------|--------|--------|--------|
G|--------|--------|--------|--------|--------|--------|--------|--------|--------|
D|--------|--------|--------|--------|--------|--------|--------|--------|--------|
A|--------|--------|--------|--------|--------|--------|--------|--------|--------|
D|--------|--------|--------|--------|--------|--------|--------|--------|--------|


E|--------|--------|--------|--------|--------|--------|--------|--------|--------|
B|--------|--------|--------|--------|--------|--------|--------|--------|--------|
G|--------|--------|--------|--------|--------|--------|--------|--------|--------|
D|--------|--------|--------|--------|--------|--------|--------|--------|--------|
A|--------|--------|--------|--------|--------|--------|--------|--------|--------|
D|--------|--------|--------|--------|--------|--------|--------|--------|--------|


E|--------|--------|--------|--------|--------|--------|--------|--------|--------|
B|--------|--------|--------|--------|--------|--------|--------|--------|--------|
G|--------|--------|--------|--------|--------|--------|--------|--------|--------|
D|--------|--------|--------|--------|--------|--------|--------|--------|--------|
A|--------|--------|--------|--------|--------|--------|--------|--------|--------|
D|--------|--------|--------|--------|--------|--------|--------|--------|--------|


E|--------|--------|--------|--------|--------|--------|--------|--------|--------|
B|--------|--------|--------|--------|--------|--------|--------|--------|--------|
G|--------|--------|--------|--------|--------|--------|--------|--------|--------|
D|--------|--------|--------|--------|--------|--------|--------|--------|--------|
A|--------|--------|--------|--------|--------|--------|--------|--------|--------|
D|--------|--------|--------|--------|--------|--------|--------|--------|--------|


E|--------|--------|--------|--------|--------|--------|--------|--------|--------|
B|--------|--------|--------|--------|--------|--------|--------|--------|--------|
G|--------|--------|--------|--------|--------|--------|--------|--------|--------|
D|--------|--------|--------|--------|--------|--------|--------|--------|--------|
A|--------|--------|--------|--------|--------|--------|--------|--------|--------|
D|--------|--------|--------|--------|--------|--------|--------|--------|--------|


E|--------|--------|--------|--------|--------|--------|--------|--------|--------|
B|--------|--------|--------|--------|--------|--------|--------|--------|--------|
G|--------|--------|--------|--------|--------|--------|--------|--------|--------|
D|--------|--------|--------|--------|--------|--------|--------|--------|--------|
A|--------|--------|--------|--------|--------|--------|--------|--------|--------|
D|--------|--------|--------|--------|--------|--------|--------|--------|--------|


E|--------|--------|--------|--------|--------|--------|--------|--------|--------|
B|--------|--------|--------|--------|--------|--------|--------|--------|--------|
G|--------|--------|--------|--------|--------|--------|--------|--------|--------|
D|--------|--------|--------|--------|--------|--------|--------|--------|--------|
A|--------|--------|--------|--------|--------|--------|--------|--------|--------|
D|--------|--------|--------|--------|--------|--------|--------|--------|--------|


E|--------|--------|--------|--------|--------|-------------|--------|--------|-------------|
B|--------|--------|--------|--------|--------|-------------|--------|--------|-------------|
G|--------|--------|--------|--------|--------|-------------|--------|--------|-------------|
D|--------|--------|--------|--------|--------|-------0-----|--------|-0------|-------0-----|
A|--------|--------|--------|--------|--------|-------0-----|--------|-0------|-------0-----|
D|--------|--------|--------|--------|--------|-------0-----|--------|-0------|-------0-----|


E|--------|-------------|-------------|--------|--------|-------------|--------|-------------|
B|--------|-------------|-------------|--------|--------|-------------|--------|-------------|
G|--------|-------------|-------------|--------|--------|-------------|--------|-------------|
D|--------|-------------|-------0-----|--------|-0------|-------0-----|--------|-------------|
A|--------|-------------|-------0-----|--------|-0------|-------0-----|--------|-------------|
D|--------|-3------2----|-------0-----|--------|-0------|-------0-----|--------|-3------2----|


E|-----------------------|---------------------------------|---------------------------------|
B|-----------------------|---------------------------------|---------------------------------|
G|-----------------------|---------------------------------|---------------------------------|
D|-----------------------|---------------------------------|---------------------------------|
A|-----------------------|---------------------------------|---------------------------------|
D|-------0---3---5---0---|-3---5---0---5---6---0---3---5---|-0---3---5---0---3---5---0---5---|


E|---------------------------------|---------------------------------|---------------------------------|
B|---------------------------------|---------------------------------|---------------------------------|
G|---------------------------------|---------------------------------|---------------------------------|
D|---------------------------------|---------------------------------|---------------------------------|
A|---------------------------------|---------------------------------|---------------------------------|
D|-6---0---3---5---0---3---5---0---|-3---5---0---5---6---0---3---5---|-0---3---5---0---3---5---0---5---|


E|---------------------------------|---------------------------------|---------------------------------|
B|---------------------------------|---------------------------------|---------------------------------|
G|---------------------------------|---------------------------------|---------------------------------|
D|---------------------------------|---------------------------------|---------------------------------|
A|---------------------------------|---------------------------------|---------------------------------|
D|-6---0---3---5---0---3---5---0---|-3---5---0---5---6---0---3---5---|-0---3---5---0---3---5---0---5---|


E|---------------------------------|---------------------------------|---------------------------------|
B|---------------------------------|---------------------------------|---------------------------------|
G|---------------------------------|---------------------------------|---------------------------------|
D|---------------------------------|---------------------------------|---------------------------------|
A|---------------------------------|---------------------------------|---------------------------------|
D|-6---0---3---5---0---3---5---0---|-3---5---0---5---6---0---3---5---|-0---3---5---0---3---5---0---5---|


E|-----------------------|--------|--------|-------------|--------|--------|-------------|
B|-----------------------|--------|--------|-------------|--------|--------|-------------|
G|-----------------------|--------|--------|-------------|--------|--------|-------------|
D|-----------------0-----|--------|-0------|-------0-----|--------|-0------|-------0-----|
A|-----------------0-----|--------|-0------|-------0-----|--------|-0------|-------0-----|
D|-6---0---3---5---0-----|--------|-0------|-------0-----|--------|-0------|-------0-----|


E|--------|--------|-------------|--------|--------|--------|--------|--------|--------|
B|--------|--------|-------------|--------|--------|--------|--------|--------|--------|
G|--------|--------|-------------|--------|--------|--------|--------|--------|--------|
D|--------|-0------|-------------|--------|--------|--------|--------|--------|--------|
A|--------|-0------|-------------|--------|--------|--------|--------|--------|--------|
D|--------|-0------|-------------|--------|--------|--------|--------|--------|--------|


E|--------|--------|--------|--------|--------|--------|--------|--------|--------|
B|--------|--------|--------|--------|--------|--------|--------|--------|--------|
G|--------|--------|--------|--------|--------|--------|--------|--------|--------|
D|--------|--------|--------|--------|--------|--------|--------|--------|--------|
A|--------|--------|--------|--------|--------|--------|--------|--------|--------|
D|--------|--------|--------|--------|--------|--------|--------|--------|--------|


E|--------|--------|--------|--------|--------|--------|--------|--------|--------|
B|--------|--------|--------|--------|--------|--------|--------|--------|--------|
G|--------|--------|--------|--------|--------|--------|--------|--------|--------|
D|--------|--------|--------|--------|--------|--------|--------|--------|--------|
A|--------|--------|--------|--------|--------|--------|--------|--------|--------|
D|--------|--------|--------|--------|--------|--------|--------|--------|--------|


E|--------|--------|-------------|--------|--------|-------------|--------|--------|
B|--------|--------|-------3-----|--------|-3------|-------3-----|--------|-3------|
G|--------|--------|-------2-----|--------|-3------|-------1-----|--------|-2------|
D|--------|--------|-------0-----|--------|-0------|-------0-----|--------|-0------|
A|--------|--------|-------0-----|--------|-0------|-------0-----|--------|-0------|
D|--------|--------|-------0-----|--------|-0------|-------0-----|--------|-0------|


E|-------------|--------|-------------|-----------------------|---------------------------------|
B|-------------|--------|-------------|-----------------------|---------------------------------|
G|-------------|--------|-5------5----|-----------------------|---------------------------------|
D|-------3-----|--------|-2------5----|-----------------------|---------------------------------|
A|-------3-----|--------|-3------3----|-----------------------|---------------------------------|
D|-------3-----|--------|-2-----------|-------0---3---5---0---|-3---5---0---5---6---0---3---5---|


E|---------------------------------|-----------------------|--------|--------|-------------|
B|---------------------------------|-----------------3-----|--------|-3------|-------3-----|
G|---------------------------------|-----------------2-----|--------|-3------|-------1-----|
D|---------------------------------|-----------------0-----|--------|-0------|-------0-----|
A|---------------------------------|-----------------0-----|--------|-0------|-------0-----|
D|-0---3---5---0---3---5---0---5---|-6---0---3---5---0-----|--------|-0------|-------0-----|


E|--------|--------|-------------|--------|-------------|-----------------------|---------------------------------|
B|--------|-3------|-------------|--------|-------------|-----------------------|---------------------------------|
G|--------|-2------|-------------|--------|-5------5----|-----------------------|---------------------------------|
D|--------|-0------|-------3-----|--------|-2------5----|-----------------------|---------------------------------|
A|--------|-0------|-------3-----|--------|-3------3----|-----------------------|---------------------------------|
D|--------|-0------|-------3-----|--------|-2-----------|-------0---3---5---0---|-3---5---0---5---6---0---3---5---|


E|---------------------------------|---------------------------------|---------------------------------|
B|---------------------------------|---------------------------------|---------------------------------|
G|---------------------------------|---------------------------------|---------------------------------|
D|---------------------------------|---------------------------------|---------------------------------|
A|---------------------------------|---------------------------------|---------------------------------|
D|-0---3---5---0---3---5---0---5---|-6---0---3---5---0---3---5---0---|-3---5---0---5---6---0---3---5---|


E|---------------------------------|---------------------------------|---------------------------------|
B|---------------------------------|---------------------------------|---------------------------------|
G|---------------------------------|---------------------------------|---------------------------------|
D|---------------------------------|---------------------------------|---------------------------------|
A|---------------------------------|---------------------------------|---------------------------------|
D|-0---3---5---0---3---5---0---5---|-6---0---3---5---0---3---5---0---|-3---5---0---5---6---0---3---5---|


E|---------------------------------|---------------------------------|---------------------------------|
B|---------------------------------|---------------------------------|---------------------------------|
G|---------------------------------|---------------------------------|---------------------------------|
D|---------------------------------|---------------------------------|---------------------------------|
A|---------------------------------|---------------------------------|---------------------------------|
D|-0---3---5---0---3---5---0---5---|-6---0---3---5---0---3---5---0---|-3---5---0---5---6---0---3---5---|


E|---------------------------------|---------------------------------|---------------------------------|
B|---------------------------------|---------------------------------|---------------------------------|
G|---------------------------------|---------------------------------|---------------------------------|
D|---------------------------------|---------------------------------|---------------------------------|
A|---------------------------------|---------------------------------|---------------------------------|
D|-0---3---5---0---3---5---0---5---|-6---0---3---5---0---3---5---0---|-3---5---0---5---6---0---3---5---|


E|---------------------------------|-----------------------|--------|--------|--------|
B|---------------------------------|-----------------------|--------|--------|--------|
G|---------------------------------|-----------------------|--------|--------|--------|
D|---------------------------------|-----------------------|--------|--------|--------|
A|---------------------------------|-----------------------|--------|--------|--------|
D|-0---3---5---0---3---5---0---5---|-6---0---3---5---------|--------|--------|--------|


E|--------|--------|--------|--------|--------|--------|--------|--------|--------|
B|--------|--------|--------|--------|--------|--------|--------|--------|--------|
G|--------|--------|--------|--------|--------|--------|--------|--------|--------|
D|--------|--------|--------|--------|--------|--------|--------|--------|--------|
A|--------|--------|--------|--------|--------|--------|--------|--------|--------|
D|--------|--------|--------|--------|--------|--------|--------|--------|--------|


E|--------|--------|--------|--------|--------|--------|--------|--------|--------|
B|--------|--------|--------|--------|--------|--------|--------|--------|--------|
G|--------|--------|--------|--------|--------|--------|--------|--------|--------|
D|--------|--------|--------|--------|--------|--------|--------|--------|--------|
A|--------|--------|--------|--------|--------|--------|--------|--------|--------|
D|--------|--------|--------|--------|--------|--------|--------|--------|--------|


E|--------|--------|--------|--------|--------|--------|--------|--------|--------|
B|--------|--------|--------|--------|--------|--------|--------|--------|--------|
G|--------|--------|--------|--------|--------|--------|--------|--------|--------|
D|--------|--------|--------|--------|--------|--------|--------|--------|--------|
A|--------|--------|--------|--------|--------|--------|--------|--------|--------|
D|--------|--------|--------|--------|--------|--------|--------|--------|--------|


E|--------|--------|--------|--------|--------|--------|--------|--------|--------|
B|--------|--------|--------|--------|--------|--------|--------|--------|--------|
G|--------|--------|--------|--------|--------|--------|--------|--------|--------|
D|--------|--------|--------|--------|--------|--------|--------|--------|--------|
A|--------|--------|--------|--------|--------|--------|--------|--------|--------|
D|--------|--------|--------|--------|--------|--------|--------|--------|--------|


E|--------|--------|--------|--------|--------|--------|--------|--------|--------|
B|--------|--------|--------|--------|--------|--------|--------|--------|--------|
G|--------|--------|--------|--------|--------|--------|--------|--------|--------|
D|--------|--------|--------|--------|--------|--------|--------|--------|--------|
A|--------|--------|--------|--------|--------|--------|--------|--------|--------|
D|--------|--------|--------|--------|--------|--------|--------|--------|--------|


E|--------|--------|--------|--------|--------|--------|--------|--------|--------|
B|--------|--------|--------|--------|--------|--------|--------|--------|--------|
G|--------|--------|--------|--------|--------|--------|--------|--------|--------|
D|--------|--------|--------|--------|--------|--------|--------|--------|--------|
A|--------|--------|--------|--------|--------|--------|--------|--------|--------|
D|--------|--------|--------|--------|--------|--------|--------|--------|--------|


E|--------|--------|--------|--------|--------|--------|--------|--------|--------|
B|--------|--------|--------|--------|--------|--------|--------|--------|--------|
G|--------|--------|--------|--------|--------|--------|--------|--------|--------|
D|--------|--------|--------|--------|--------|--------|--------|--------|--------|
A|--------|--------|--------|--------|--------|--------|--------|--------|--------|
D|--------|--------|--------|--------|--------|--------|--------|--------|--------|


E|--------|--------|--------|--------|--------|--------|--------|--------|--------|
B|--------|--------|--------|--------|--------|--------|--------|--------|--------|
G|--------|--------|--------|--------|--------|--------|--------|--------|--------|
D|--------|--------|--------|--------|--------|--------|--------|--------|--------|
A|--------|--------|--------|--------|--------|--------|--------|--------|--------|
D|--------|--------|--------|--------|--------|--------|--------|--------|--------|


E|--------|--------|--------|--------|--------|--------|--------|--------|--------|
B|--------|--------|--------|--------|--------|--------|--------|--------|--------|
G|--------|--------|--------|--------|--------|--------|--------|--------|--------|
D|--------|--------|--------|--------|--------|--------|--------|--------|--------|
A|--------|--------|--------|--------|--------|--------|--------|--------|--------|
D|--------|--------|--------|--------|--------|--------|--------|--------|--------|


E|--------|--------|--------|--------|--------|--------|--------|--------|--------|
B|--------|--------|--------|--------|--------|--------|--------|--------|--------|
G|--------|--------|--------|--------|--------|--------|--------|--------|--------|
D|--------|--------|--------|--------|--------|--------|--------|--------|--------|
A|--------|--------|--------|--------|--------|--------|--------|--------|--------|
D|--------|--------|--------|--------|--------|--------|--------|--------|--------|


E|--------|--------|--------|--------|--------|--------|--------|--------|--------|
B|--------|--------|--------|--------|--------|--------|--------|--------|--------|
G|--------|--------|--------|--------|--------|--------|--------|--------|--------|
D|--------|--------|--------|--------|--------|--------|--------|--------|--------|
A|--------|--------|--------|--------|--------|--------|--------|--------|--------|
D|--------|--------|--------|--------|--------|--------|--------|--------|--------|


E|--------|--------|--------|--------|--------|--------|--------|--------|--------|
B|--------|--------|--------|--------|--------|--------|--------|--------|--------|
G|--------|--------|--------|--------|--------|--------|--------|--------|--------|
D|--------|--------|--------|--------|--------|--------|--------|--------|--------|
A|--------|--------|--------|--------|--------|--------|--------|--------|--------|
D|--------|--------|--------|--------|--------|--------|--------|--------|--------|


E|--------|--------|--------|--------|--------|--------|--------|--------|--------|
B|--------|--------|--------|--------|--------|--------|--------|--------|--------|
G|--------|--------|--------|--------|--------|--------|--------|--------|--------|
D|--------|--------|--------|--------|--------|--------|--------|--------|--------|
A|--------|--------|--------|--------|--------|--------|--------|--------|--------|
D|--------|--------|--------|--------|--------|--------|--------|--------|--------|


E|--------|--------|--------|--------|--------|--------|--------|--------|--------|
B|--------|--------|--------|--------|--------|--------|--------|--------|--------|
G|--------|--------|--------|--------|--------|--------|--------|--------|--------|
D|--------|--------|--------|--------|--------|--------|--------|--------|--------|
A|--------|--------|--------|--------|--------|--------|--------|--------|--------|
D|--------|--------|--------|--------|--------|--------|--------|--------|--------|


E|--------|--------|--------|--------|--------|--------|--------|--------|--------|
B|--------|--------|--------|--------|--------|--------|--------|--------|--------|
G|--------|--------|--------|--------|--------|--------|--------|--------|--------|
D|--------|--------|--------|--------|--------|--------|--------|--------|--------|
A|--------|--------|--------|--------|--------|--------|--------|--------|--------|
D|--------|--------|--------|--------|--------|--------|--------|--------|--------|


E|--------|--------|--------|--------|--------|--------|--------|--------|--------|
B|--------|--------|--------|--------|--------|--------|--------|--------|--------|
G|--------|--------|--------|--------|--------|--------|--------|--------|--------|
D|--------|--------|--------|--------|--------|--------|--------|--------|--------|
A|--------|--------|--------|--------|--------|--------|--------|--------|--------|
D|--------|--------|--------|--------|--------|--------|--------|--------|--------|


E|--------|--------|--------|--------|--------|--------|--------|--------|--------|
B|--------|--------|--------|--------|--------|--------|--------|--------|--------|
G|--------|--------|--------|--------|--------|--------|--------|--------|--------|
D|--------|--------|--------|--------|--------|--------|--------|--------|--------|
A|--------|--------|--------|--------|--------|--------|--------|--------|--------|
D|--------|--------|--------|--------|--------|--------|--------|--------|--------|


E|--------|--------|--------|--------|--------|--------|--------|--------|--------|
B|--------|--------|--------|--------|--------|--------|--------|--------|--------|
G|--------|--------|--------|--------|--------|--------|--------|--------|--------|
D|--------|--------|--------|--------|--------|--------|--------|--------|--------|
A|--------|--------|--------|--------|--------|--------|--------|--------|--------|
D|--------|--------|--------|--------|--------|--------|--------|--------|--------|


E|--------|--------|--------|--------|--------|--------|--------|--------|--------|
B|--------|--------|--------|--------|--------|--------|--------|--------|--------|
G|--------|--------|--------|--------|--------|--------|--------|--------|--------|
D|--------|--------|--------|--------|--------|--------|--------|--------|--------|
A|--------|--------|--------|--------|--------|--------|--------|--------|--------|
D|--------|--------|--------|--------|--------|--------|--------|--------|--------|


E|--------|--------|--------|--------|--------|--------|--------|--------|--------|
B|--------|--------|--------|--------|--------|--------|--------|--------|--------|
G|--------|--------|--------|--------|--------|--------|--------|--------|--------|
D|--------|--------|--------|--------|--------|--------|--------|--------|--------|
A|--------|--------|--------|--------|--------|--------|--------|--------|--------|
D|--------|--------|--------|--------|--------|--------|--------|--------|--------|


E|--------|--------|--------|--------|--------|--------|--------|--------|--------|
B|--------|--------|--------|--------|--------|--------|--------|--------|--------|
G|--------|--------|--------|--------|--------|--------|--------|--------|--------|
D|--------|--------|--------|--------|--------|--------|--------|--------|--------|
A|--------|--------|--------|--------|--------|--------|--------|--------|--------|
D|--------|--------|--------|--------|--------|--------|--------|--------|--------|


E|--------|--------|--------|--------|--------|--------|--------|--------|--------|
B|--------|--------|--------|--------|--------|--------|--------|--------|--------|
G|--------|--------|--------|--------|--------|--------|--------|--------|--------|
D|--------|--------|--------|--------|--------|--------|--------|--------|--------|
A|--------|--------|--------|--------|--------|--------|--------|--------|--------|
D|--------|--------|--------|--------|--------|--------|--------|--------|--------|


E|--------|--------|--------|--------|--------|
B|--------|--------|--------|--------|--------|
G|--------|--------|--------|--------|--------|
D|--------|--------|--------|--------|--------|
A|--------|--------|--------|--------|--------|
D|--------|--------|--------|--------|--------|





Track 4: Electric Guitar III

E|--------|--------|--------|--------|--------|--------|--------|--------|--------|
B|--------|--------|--------|--------|--------|--------|--------|--------|--------|
G|--------|--------|--------|--------|--------|--------|--------|--------|--------|
D|--------|--------|--------|--------|--------|--------|--------|--------|--------|
A|--------|--------|--------|--------|--------|--------|--------|--------|--------|
E|--------|--------|--------|--------|--------|--------|--------|--------|--------|


E|--------|--------|--------|--------|--------|--------|--------|--------|--------|
B|--------|--------|--------|--------|--------|--------|--------|--------|--------|
G|--------|--------|--------|--------|--------|--------|--------|--------|--------|
D|--------|--------|--------|--------|--------|--------|--------|--------|--------|
A|--------|--------|--------|--------|--------|--------|--------|--------|--------|
E|--------|--------|--------|--------|--------|--------|--------|--------|--------|


E|--------|--------|--------|--------|--------|--------|--------|--------|--------|
B|--------|--------|--------|--------|--------|--------|--------|--------|--------|
G|--------|--------|--------|--------|--------|--------|--------|--------|--------|
D|--------|--------|--------|--------|--------|--------|--------|--------|--------|
A|--------|--------|--------|--------|--------|--------|--------|--------|--------|
E|--------|--------|--------|--------|--------|--------|--------|--------|--------|


E|--------|--------|--------|--------|--------|--------|--------|--------|--------|
B|--------|--------|--------|--------|--------|--------|--------|--------|--------|
G|--------|--------|--------|--------|--------|--------|--------|--------|--------|
D|--------|--------|--------|--------|--------|--------|--------|--------|--------|
A|--------|--------|--------|--------|--------|--------|--------|--------|--------|
E|--------|--------|--------|--------|--------|--------|--------|--------|--------|


E|--------|--------|--------|--------|--------|--------|--------|--------|--------|
B|--------|--------|--------|--------|--------|--------|--------|--------|--------|
G|--------|--------|--------|--------|--------|--------|--------|--------|--------|
D|--------|--------|--------|--------|--------|--------|--------|--------|--------|
A|--------|--------|--------|--------|--------|--------|--------|--------|--------|
E|--------|--------|--------|--------|--------|--------|--------|--------|--------|


E|--------|--------|--------|--------|--------|--------|--------|--------|--------|
B|--------|--------|--------|--------|--------|--------|--------|--------|--------|
G|--------|--------|--------|--------|--------|--------|--------|--------|--------|
D|--------|--------|--------|--------|--------|--------|--------|--------|--------|
A|--------|--------|--------|--------|--------|--------|--------|--------|--------|
E|--------|--------|--------|--------|--------|--------|--------|--------|--------|


E|--------|--------|--------|--------|--------|--------|--------|--------|--------|
B|--------|--------|--------|--------|--------|--------|--------|--------|--------|
G|--------|--------|--------|--------|--------|--------|--------|--------|--------|
D|--------|--------|--------|--------|--------|--------|--------|--------|--------|
A|--------|--------|--------|--------|--------|--------|--------|--------|--------|
E|--------|--------|--------|--------|--------|--------|--------|--------|--------|


E|--------|--------|--------|--------|--------|--------|--------|--------|--------|
B|--------|--------|--------|--------|--------|--------|--------|--------|--------|
G|--------|--------|--------|--------|--------|--------|--------|--------|--------|
D|--------|--------|--------|--------|--------|--------|--------|--------|--------|
A|--------|--------|--------|--------|--------|--------|--------|--------|--------|
E|--------|--------|--------|--------|--------|--------|--------|--------|--------|


E|--------|--------|--------|--------|--------|--------|--------|--------|--------|
B|--------|--------|--------|--------|--------|--------|--------|--------|--------|
G|--------|--------|--------|--------|--------|--------|--------|--------|--------|
D|--------|--------|--------|--------|--------|--------|--------|--------|--------|
A|--------|--------|--------|--------|--------|--------|--------|--------|--------|
E|--------|--------|--------|--------|--------|--------|--------|--------|--------|


E|--------|--------|--------|--------|--------|--------|--------|--------|--------|
B|--------|--------|--------|--------|--------|--------|--------|--------|--------|
G|--------|--------|--------|--------|--------|--------|--------|--------|--------|
D|--------|--------|--------|--------|--------|--------|--------|--------|--------|
A|--------|--------|--------|--------|--------|--------|--------|--------|--------|
E|--------|--------|--------|--------|--------|--------|--------|--------|--------|


E|--------|--------|--------|--------|--------|--------|--------|--------|--------|
B|--------|--------|--------|--------|--------|--------|--------|--------|--------|
G|--------|--------|--------|--------|--------|--------|--------|--------|--------|
D|--------|--------|--------|--------|--------|--------|--------|--------|--------|
A|--------|--------|--------|--------|--------|--------|--------|--------|--------|
E|--------|--------|--------|--------|--------|--------|--------|--------|--------|


E|--------|--------|--------|--------|--------|--------|--------|--------|--------|
B|--------|--------|--------|--------|--------|--------|--------|--------|--------|
G|--------|--------|--------|--------|--------|--------|--------|--------|--------|
D|--------|--------|--------|--------|--------|--------|--------|--------|--------|
A|--------|--------|--------|--------|--------|--------|--------|--------|--------|
E|--------|--------|--------|--------|--------|--------|--------|--------|--------|


E|--------|--------|--------|--------|--------|--------|--------|--------|--------|
B|--------|--------|--------|--------|--------|--------|--------|--------|--------|
G|--------|--------|--------|--------|--------|--------|--------|--------|--------|
D|--------|--------|--------|--------|--------|--------|--------|--------|--------|
A|--------|--------|--------|--------|--------|--------|--------|--------|--------|
E|--------|--------|--------|--------|--------|--------|--------|--------|--------|


E|--------|--------|--------|--------|--------|--------|--------|--------|--------|
B|--------|--------|--------|--------|--------|--------|--------|--------|--------|
G|--------|--------|--------|--------|--------|--------|--------|--------|--------|
D|--------|--------|--------|--------|--------|--------|--------|--------|--------|
A|--------|--------|--------|--------|--------|--------|--------|--------|--------|
E|--------|--------|--------|--------|--------|--------|--------|--------|--------|


E|--------|--------|--------|--------|--------|--------|--------|--------|--------|
B|--------|--------|--------|--------|--------|--------|--------|--------|--------|
G|--------|--------|--------|--------|--------|--------|--------|--------|--------|
D|--------|--------|--------|--------|--------|--------|--------|--------|--------|
A|--------|--------|--------|--------|--------|--------|--------|--------|--------|
E|--------|--------|--------|--------|--------|--------|--------|--------|--------|


E|--------|--------|--------|--------|--------|--------|--------|--------|--------|
B|--------|--------|--------|--------|--------|--------|--------|--------|--------|
G|--------|--------|--------|--------|--------|--------|--------|--------|--------|
D|--------|--------|--------|--------|--------|--------|--------|--------|--------|
A|--------|--------|--------|--------|--------|--------|--------|--------|--------|
E|--------|--------|--------|--------|--------|--------|--------|--------|--------|


E|--------|--------|--------|--------|--------|--------|--------|--------|--------|
B|--------|--------|--------|--------|--------|--------|--------|--------|--------|
G|--------|--------|--------|--------|--------|--------|--------|--------|--------|
D|--------|--------|--------|--------|--------|--------|--------|--------|--------|
A|--------|--------|--------|--------|--------|--------|--------|--------|--------|
E|--------|--------|--------|--------|--------|--------|--------|--------|--------|


E|--------|--------|--------|--------|--------|--------|--------|--------|--------|
B|--------|--------|--------|--------|--------|--------|--------|--------|--------|
G|--------|--------|--------|--------|--------|--------|--------|--------|--------|
D|--------|--------|--------|--------|--------|--------|--------|--------|--------|
A|--------|--------|--------|--------|--------|--------|--------|--------|--------|
E|--------|--------|--------|--------|--------|--------|--------|--------|--------|


E|--------|--------|--------|--------|--------|--------|--------|--------|--------|
B|--------|--------|--------|--------|--------|--------|--------|--------|--------|
G|--------|--------|--------|--------|--------|--------|--------|--------|--------|
D|--------|--------|--------|--------|--------|--------|--------|--------|--------|
A|--------|--------|--------|--------|--------|--------|--------|--------|--------|
E|--------|--------|--------|--------|--------|--------|--------|--------|--------|


E|--------|--------|--------|--------|--------|--------|--------|--------|--------|
B|--------|--------|--------|--------|--------|--------|--------|--------|--------|
G|--------|--------|--------|--------|--------|--------|--------|--------|--------|
D|--------|--------|--------|--------|--------|--------|--------|--------|--------|
A|--------|--------|--------|--------|--------|--------|--------|--------|--------|
E|--------|--------|--------|--------|--------|--------|--------|--------|--------|


E|--------|--------|--------|--------|--------|--------|--------|--------|--------|
B|--------|--------|--------|--------|--------|--------|--------|--------|--------|
G|--------|--------|--------|--------|--------|--------|--------|--------|--------|
D|--------|--------|--------|--------|--------|--------|--------|--------|--------|
A|--------|--------|--------|--------|--------|--------|--------|--------|--------|
E|--------|--------|--------|--------|--------|--------|--------|--------|--------|


E|--------|--------|--------|--------|--------|--------|--------|--------|--------|
B|--------|--------|--------|--------|--------|--------|--------|--------|--------|
G|--------|--------|--------|--------|--------|--------|--------|--------|--------|
D|--------|--------|--------|--------|--------|--------|--------|--------|--------|
A|--------|--------|--------|--------|--------|--------|--------|--------|--------|
E|--------|--------|--------|--------|--------|--------|--------|--------|--------|


E|--------|--------|--------|--------|--------|--------|--------|--------|--------|
B|--------|--------|--------|--------|--------|--------|--------|--------|--------|
G|--------|--------|--------|--------|--------|--------|--------|--------|--------|
D|--------|--------|--------|--------|--------|--------|--------|--------|--------|
A|--------|--------|--------|--------|--------|--------|--------|--------|--------|
E|--------|--------|--------|--------|--------|--------|--------|--------|--------|


E|--------|--------|--------|--------|--------|--------|--------|--------|--------|
B|--------|--------|--------|--------|--------|--------|--------|--------|--------|
G|--------|--------|--------|--------|--------|--------|--------|--------|--------|
D|--------|--------|--------|--------|--------|--------|--------|--------|--------|
A|--------|--------|--------|--------|--------|--------|--------|--------|--------|
E|--------|--------|--------|--------|--------|--------|--------|--------|--------|


E|--------|--------|--------|--------|--------|--------|--------|--------|--------|
B|--------|--------|--------|--------|--------|--------|--------|--------|--------|
G|--------|--------|--------|--------|--------|--------|--------|--------|--------|
D|--------|--------|--------|--------|--------|--------|--------|--------|--------|
A|--------|--------|--------|--------|--------|--------|--------|--------|--------|
E|--------|--------|--------|--------|--------|--------|--------|--------|--------|


E|--------|--------|--------|--------|--------|--------|--------|--------|--------|
B|--------|--------|--------|--------|--------|--------|--------|--------|--------|
G|--------|--------|--------|--------|--------|--------|--------|--------|--------|
D|--------|--------|--------|--------|--------|--------|--------|--------|--------|
A|--------|--------|--------|--------|--------|--------|--------|--------|--------|
E|--------|--------|--------|--------|--------|--------|--------|--------|--------|


E|--------|--------|--------|--------|--------|--------|--------|--------|--------|
B|--------|--------|--------|--------|--------|--------|--------|--------|--------|
G|--------|--------|--------|--------|--------|--------|--------|--------|--------|
D|--------|--------|--------|--------|--------|--------|--------|--------|--------|
A|--------|--------|--------|--------|--------|--------|--------|--------|--------|
E|--------|--------|--------|--------|--------|--------|--------|--------|--------|


E|--------|--------|--------|--------|--------|--------|--------|--------|--------|
B|--------|--------|--------|--------|--------|--------|--------|--------|--------|
G|--------|--------|--------|--------|--------|--------|--------|--------|--------|
D|--------|--------|--------|--------|--------|--------|--------|--------|--------|
A|--------|--------|--------|--------|--------|--------|--------|--------|--------|
E|--------|--------|--------|--------|--------|--------|--------|--------|--------|


E|--------|--------|--------|--------|--------|--------|--------|--------|--------|
B|--------|--------|--------|--------|--------|--------|--------|--------|--------|
G|--------|--------|--------|--------|--------|--------|--------|--------|--------|
D|--------|--------|--------|--------|--------|--------|--------|--------|--------|
A|--------|--------|--------|--------|--------|--------|--------|--------|--------|
E|--------|--------|--------|--------|--------|--------|--------|--------|--------|


E|--------|--------|--------|--------|--------|--------|--------|--------|--------|
B|--------|--------|--------|--------|--------|--------|--------|--------|--------|
G|--------|--------|--------|--------|--------|--------|--------|--------|--------|
D|--------|--------|--------|--------|--------|--------|--------|--------|--------|
A|--------|--------|--------|--------|--------|--------|--------|--------|--------|
E|--------|--------|--------|--------|--------|--------|--------|--------|--------|


E|--------|--------|--------|--------|--------|--------|--------|--------|--------|
B|--------|--------|--------|--------|--------|--------|--------|--------|--------|
G|--------|--------|--------|--------|--------|--------|--------|--------|--------|
D|--------|--------|--------|--------|--------|--------|--------|--------|--------|
A|--------|--------|--------|--------|--------|--------|--------|--------|--------|
E|--------|--------|--------|--------|--------|--------|--------|--------|--------|


E|--------|--------|--------|--------|--------|--------|--------|--------|--------|
B|--------|--------|--------|--------|--------|--------|--------|--------|--------|
G|--------|--------|--------|--------|--------|--------|--------|--------|--------|
D|--------|--------|--------|--------|--------|--------|--------|--------|--------|
A|--------|--------|--------|--------|--------|--------|--------|--------|--------|
E|--------|--------|--------|--------|--------|--------|--------|--------|--------|


E|--------|--------|--------|--------|--------|--------|--------|--------|--------|
B|--------|--------|--------|--------|--------|--------|--------|--------|--------|
G|--------|--------|--------|--------|--------|--------|--------|--------|--------|
D|--------|--------|--------|--------|--------|--------|--------|--------|--------|
A|--------|--------|--------|--------|--------|--------|--------|--------|--------|
E|--------|--------|--------|--------|--------|--------|--------|--------|--------|


E|--------|--------|--------|--------|--------|--------|--------|--------|--------|
B|--------|--------|--------|--------|--------|--------|--------|--------|--------|
G|--------|--------|--------|--------|--------|--------|--------|--------|--------|
D|--------|--------|--------|--------|--------|--------|--------|--------|--------|
A|--------|--------|--------|--------|--------|--------|--------|--------|--------|
E|--------|--------|--------|--------|--------|--------|--------|--------|--------|


E|--------|--------|--------|--------|--------|--------|--------|--------|--------|
B|--------|--------|--------|--------|--------|--------|--------|--------|--------|
G|--------|--------|--------|--------|--------|--------|--------|--------|--------|
D|--------|--------|--------|--------|--------|--------|--------|--------|--------|
A|--------|--------|--------|--------|--------|--------|--------|--------|--------|
E|--------|--------|--------|--------|--------|--------|--------|--------|--------|


E|--------|--------|--------|--------|--------|--------|--------|--------|--------|
B|--------|--------|--------|--------|--------|--------|--------|--------|--------|
G|--------|--------|--------|--------|--------|--------|--------|--------|--------|
D|--------|--------|--------|--------|--------|--------|--------|--------|--------|
A|--------|--------|--------|--------|--------|--------|--------|--------|--------|
E|--------|--------|--------|--------|--------|--------|--------|--------|--------|


E|--------|--------|--------|--------|--------|--------|--------|--------|--------|
B|--------|--------|--------|--------|--------|--------|--------|--------|--------|
G|--------|--------|--------|--------|--------|--------|--------|--------|--------|
D|--------|--------|--------|--------|--------|--------|--------|--------|--------|
A|--------|--------|--------|--------|--------|--------|--------|--------|--------|
E|--------|--------|--------|--------|--------|--------|--------|--------|--------|


E|--------|--------|--------|--------|--------|--------|--------|--------|--------|
B|--------|--------|--------|--------|--------|--------|--------|--------|--------|
G|--------|--------|--------|--------|--------|--------|--------|--------|--------|
D|--------|--------|--------|--------|--------|--------|--------|--------|--------|
A|--------|--------|--------|--------|--------|--------|--------|--------|--------|
E|--------|--------|--------|--------|--------|--------|--------|--------|--------|


E|--------|--------|--------|--------|--------|--------|--------|--------|--------|
B|--------|--------|--------|--------|--------|--------|--------|--------|--------|
G|--------|--------|--------|--------|--------|--------|--------|--------|--------|
D|--------|--------|--------|--------|--------|--------|--------|--------|--------|
A|--------|--------|--------|--------|--------|--------|--------|--------|--------|
E|--------|--------|--------|--------|--------|--------|--------|--------|--------|


E|--------|--------|--------|--------|--------|--------|--------|--------|--------|
B|--------|--------|--------|--------|--------|--------|--------|--------|--------|
G|--------|--------|--------|--------|--------|--------|--------|--------|--------|
D|--------|--------|--------|--------|--------|--------|--------|--------|--------|
A|--------|--------|--------|--------|--------|--------|--------|--------|--------|
E|--------|--------|--------|--------|--------|--------|--------|--------|--------|


E|--------|--------|--------|--------|--------|--------|--------|--------|--------|
B|--------|--------|--------|--------|--------|--------|--------|--------|--------|
G|--------|--------|--------|--------|--------|--------|--------|--------|--------|
D|--------|--------|--------|--------|--------|--------|--------|--------|--------|
A|--------|--------|--------|--------|--------|--------|--------|--------|--------|
E|--------|--------|--------|--------|--------|--------|--------|--------|--------|


E|--------|--------|--------|--------|--------|--------|--------|--------|--------|
B|--------|--------|--------|--------|--------|--------|--------|--------|--------|
G|--------|--------|--------|--------|--------|--------|--------|--------|--------|
D|--------|--------|--------|--------|--------|--------|--------|--------|--------|
A|--------|--------|--------|--------|--------|--------|--------|--------|--------|
E|--------|--------|--------|--------|--------|--------|--------|--------|--------|


E|--------|--------|--------|--------|--------|--------|--------|--------|--------|
B|--------|--------|--------|--------|--------|--------|--------|--------|--------|
G|--------|--------|--------|--------|--------|--------|--------|--------|--------|
D|--------|--------|--------|--------|--------|--------|--------|--------|--------|
A|--------|--------|--------|--------|--------|--------|--------|--------|--------|
E|--------|--------|--------|--------|--------|--------|--------|--------|--------|


E|--------|--------|-------------|--------|--------|-------------|--------|-------------|
B|--------|--------|-------------|--------|--------|-------3-----|--------|-3------3----|
G|--------|--------|-------------|--------|--------|-------2-----|--------|-3------1----|
D|--------|--------|-------------|--------|--------|-------0-----|--------|-0------0----|
A|--------|--------|-------------|--------|--------|-------------|--------|-------------|
E|--------|--------|-------------|--------|--------|-------------|--------|-------------|


E|-------------|--------|-------------|-------------|--------|-3-----------|-------------|
B|-------3-----|--------|-------------|-------------|--------|-3-----------|-------3-----|
G|-------2-----|--------|-5------5----|-------5-----|--------|-0------2----|-------2-----|
D|-------0-----|--------|-3------2----|-------5-----|--------|-0------2----|-------0-----|
A|-------------|--------|-------------|-------3-----|--------|--------0----|-------------|
E|-------------|--------|-------------|-------------|--------|-3-----------|-------------|


E|--------|--------|--------|--------|--------|--------|--------|--------|--------|
B|--------|-3------|--------|--------|--------|--------|--------|--------|--------|
G|--------|-2------|--------|--------|--------|--------|--------|--------|--------|
D|--------|-0------|--------|--------|--------|--------|--------|--------|--------|
A|--------|--------|--------|--------|--------|--------|--------|--------|--------|
E|--------|--------|--------|--------|--------|--------|--------|--------|--------|


E|--------|--------|--------|--------|--------|--------|--------|--------|--------|
B|--------|--------|--------|--------|--------|--------|--------|--------|--------|
G|--------|--------|--------|--------|--------|--------|--------|--------|--------|
D|--------|--------|--------|--------|--------|--------|--------|--------|--------|
A|--------|--------|--------|--------|--------|--------|--------|--------|--------|
E|--------|--------|--------|--------|--------|--------|--------|--------|--------|


E|--------|--------|--------|--------|--------|--------|--------|--------|--------|
B|--------|--------|--------|--------|--------|--------|--------|--------|--------|
G|--------|--------|--------|--------|--------|--------|--------|--------|--------|
D|--------|--------|--------|--------|--------|--------|--------|--------|--------|
A|--------|--------|--------|--------|--------|--------|--------|--------|--------|
E|--------|--------|--------|--------|--------|--------|--------|--------|--------|


E|--------|--------|--------|--------|--------|--------|--------|--------|--------|
B|--------|--------|--------|--------|--------|--------|--------|--------|--------|
G|--------|--------|--------|--------|--------|--------|--------|--------|--------|
D|--------|--------|--------|--------|--------|--------|--------|--------|--------|
A|--------|--------|--------|--------|--------|--------|--------|--------|--------|
E|--------|--------|--------|--------|--------|--------|--------|--------|--------|


E|--------|--------|--------|--------|--------|--------|--------|--------|--------|
B|--------|--------|--------|--------|--------|--------|--------|--------|--------|
G|--------|--------|--------|--------|--------|--------|--------|--------|--------|
D|--------|--------|--------|--------|--------|--------|--------|--------|--------|
A|--------|--------|--------|--------|--------|--------|--------|--------|--------|
E|--------|--------|--------|--------|--------|--------|--------|--------|--------|


E|--------|--------|--------|--------|--------|--------|--------|--------|--------|
B|--------|--------|--------|--------|--------|--------|--------|--------|--------|
G|--------|--------|--------|--------|--------|--------|--------|--------|--------|
D|--------|--------|--------|--------|--------|--------|--------|--------|--------|
A|--------|--------|--------|--------|--------|--------|--------|--------|--------|
E|--------|--------|--------|--------|--------|--------|--------|--------|--------|


E|--------|--------|--------|--------|--------|--------|--------|--------|--------|
B|--------|--------|--------|--------|--------|--------|--------|--------|--------|
G|--------|--------|--------|--------|--------|--------|--------|--------|--------|
D|--------|--------|--------|--------|--------|--------|--------|--------|--------|
A|--------|--------|--------|--------|--------|--------|--------|--------|--------|
E|--------|--------|--------|--------|--------|--------|--------|--------|--------|


E|--------|--------|--------|--------|--------|--------|--------|--------|--------|
B|--------|--------|--------|--------|--------|--------|--------|--------|--------|
G|--------|--------|--------|--------|--------|--------|--------|--------|--------|
D|--------|--------|--------|--------|--------|--------|--------|--------|--------|
A|--------|--------|--------|--------|--------|--------|--------|--------|--------|
E|--------|--------|--------|--------|--------|--------|--------|--------|--------|


E|--------|--------|--------|--------|--------|--------|--------|--------|--------|
B|--------|--------|--------|--------|--------|--------|--------|--------|--------|
G|--------|--------|--------|--------|--------|--------|--------|--------|--------|
D|--------|--------|--------|--------|--------|--------|--------|--------|--------|
A|--------|--------|--------|--------|--------|--------|--------|--------|--------|
E|--------|--------|--------|--------|--------|--------|--------|--------|--------|


E|--------|--------|--------|--------|--------|--------|--------|--------|--------|
B|--------|--------|--------|--------|--------|--------|--------|--------|--------|
G|--------|--------|--------|--------|--------|--------|--------|--------|--------|
D|--------|--------|--------|--------|--------|--------|--------|--------|--------|
A|--------|--------|--------|--------|--------|--------|--------|--------|--------|
E|--------|--------|--------|--------|--------|--------|--------|--------|--------|


E|--------|--------|--------|--------|--------|--------|--------|--------|--------|
B|--------|--------|--------|--------|--------|--------|--------|--------|--------|
G|--------|--------|--------|--------|--------|--------|--------|--------|--------|
D|--------|--------|--------|--------|--------|--------|--------|--------|--------|
A|--------|--------|--------|--------|--------|--------|--------|--------|--------|
E|--------|--------|--------|--------|--------|--------|--------|--------|--------|


E|--------|--------|--------|--------|--------|--------|--------|--------|--------|
B|--------|--------|--------|--------|--------|--------|--------|--------|--------|
G|--------|--------|--------|--------|--------|--------|--------|--------|--------|
D|--------|--------|--------|--------|--------|--------|--------|--------|--------|
A|--------|--------|--------|--------|--------|--------|--------|--------|--------|
E|--------|--------|--------|--------|--------|--------|--------|--------|--------|


E|--------|--------|--------|--------|--------|--------|--------|--------|--------|
B|--------|--------|--------|--------|--------|--------|--------|--------|--------|
G|--------|--------|--------|--------|--------|--------|--------|--------|--------|
D|--------|--------|--------|--------|--------|--------|--------|--------|--------|
A|--------|--------|--------|--------|--------|--------|--------|--------|--------|
E|--------|--------|--------|--------|--------|--------|--------|--------|--------|


E|--------|--------|--------|--------|--------|--------|--------|--------|--------|
B|--------|--------|--------|--------|--------|--------|--------|--------|--------|
G|--------|--------|--------|--------|--------|--------|--------|--------|--------|
D|--------|--------|--------|--------|--------|--------|--------|--------|--------|
A|--------|--------|--------|--------|--------|--------|--------|--------|--------|
E|--------|--------|--------|--------|--------|--------|--------|--------|--------|


E|--------|--------|--------|--------|--------|--------|--------|--------|--------|
B|--------|--------|--------|--------|--------|--------|--------|--------|--------|
G|--------|--------|--------|--------|--------|--------|--------|--------|--------|
D|--------|--------|--------|--------|--------|--------|--------|--------|--------|
A|--------|--------|--------|--------|--------|--------|--------|--------|--------|
E|--------|--------|--------|--------|--------|--------|--------|--------|--------|


E|--------|--------|--------|--------|--------|--------|--------|--------|--------|
B|--------|--------|--------|--------|--------|--------|--------|--------|--------|
G|--------|--------|--------|--------|--------|--------|--------|--------|--------|
D|--------|--------|--------|--------|--------|--------|--------|--------|--------|
A|--------|--------|--------|--------|--------|--------|--------|--------|--------|
E|--------|--------|--------|--------|--------|--------|--------|--------|--------|


E|--------|--------|--------|--------|--------|--------|--------|--------|--------|
B|--------|--------|--------|--------|--------|--------|--------|--------|--------|
G|--------|--------|--------|--------|--------|--------|--------|--------|--------|
D|--------|--------|--------|--------|--------|--------|--------|--------|--------|
A|--------|--------|--------|--------|--------|--------|--------|--------|--------|
E|--------|--------|--------|--------|--------|--------|--------|--------|--------|


E|--------|--------|--------|--------|--------|--------|--------|--------|--------|
B|--------|--------|--------|--------|--------|--------|--------|--------|--------|
G|--------|--------|--------|--------|--------|--------|--------|--------|--------|
D|--------|--------|--------|--------|--------|--------|--------|--------|--------|
A|--------|--------|--------|--------|--------|--------|--------|--------|--------|
E|--------|--------|--------|--------|--------|--------|--------|--------|--------|


E|--------|--------|--------|--------|--------|--------|--------|--------|--------|
B|--------|--------|--------|--------|--------|--------|--------|--------|--------|
G|--------|--------|--------|--------|--------|--------|--------|--------|--------|
D|--------|--------|--------|--------|--------|--------|--------|--------|--------|
A|--------|--------|--------|--------|--------|--------|--------|--------|--------|
E|--------|--------|--------|--------|--------|--------|--------|--------|--------|


E|--------|--------|--------|--------|--------|--------|--------|--------|--------|
B|--------|--------|--------|--------|--------|--------|--------|--------|--------|
G|--------|--------|--------|--------|--------|--------|--------|--------|--------|
D|--------|--------|--------|--------|--------|--------|--------|--------|--------|
A|--------|--------|--------|--------|--------|--------|--------|--------|--------|
E|--------|--------|--------|--------|--------|--------|--------|--------|--------|


E|--------|--------|--------|--------|--------|
B|--------|--------|--------|--------|--------|
G|--------|--------|--------|--------|--------|
D|--------|--------|--------|--------|--------|
A|--------|--------|--------|--------|--------|
E|--------|--------|--------|--------|--------|





Track 5: Untitled

G|--------|--------|--------|--------|--------|--------|--------|--------|--------|
D|--------|--------|--------|--------|--------|--------|--------|--------|--------|
A|--------|--------|--------|--------|--------|--------|--------|--------|--------|
E|--------|--------|--------|--------|--------|--------|--------|--------|--------|


G|--------|--------|--------|--------|--------|--------|--------|--------|--------|
D|--------|--------|--------|--------|--------|--------|--------|--------|--------|
A|--------|--------|--------|--------|--------|--------|--------|--------|--------|
E|--------|--------|--------|--------|--------|--------|--------|--------|--------|


G|--------|--------|--------|--------|--------|--------|--------|--------|--------|
D|--------|--------|--------|--------|--------|--------|--------|--------|--------|
A|--------|--------|--------|--------|--------|--------|--------|--------|--------|
E|--------|--------|--------|--------|--------|--------|--------|--------|--------|


G|--------|--------|--------|--------|--------|--------|--------|--------|--------|
D|--------|--------|--------|--------|--------|--------|--------|--------|--------|
A|--------|--------|--------|--------|--------|--------|--------|--------|--------|
E|--------|--------|--------|--------|--------|--------|--------|--------|--------|


G|--------|--------|--------|--------|--------|--------|--------|--------|--------|
D|--------|--------|--------|--------|--------|--------|--------|--------|--------|
A|--------|--------|--------|--------|--------|--------|--------|--------|--------|
E|--------|--------|--------|--------|--------|--------|--------|--------|--------|


G|--------|--------|--------|--------|--------|--------|--------|--------|--------|
D|--------|--------|--------|--------|--------|--------|--------|--------|--------|
A|--------|--------|--------|--------|--------|--------|--------|--------|--------|
E|--------|--------|--------|--------|--------|--------|--------|--------|--------|


G|--------|--------|--------|--------|--------|--------|--------|--------|--------|
D|--------|--------|--------|--------|--------|--------|--------|--------|--------|
A|--------|--------|--------|--------|--------|--------|--------|--------|--------|
E|--------|--------|--------|--------|--------|--------|--------|--------|--------|


G|--------|--------|--------|--------|--------|--------|--------|--------|--------|
D|--------|--------|--------|--------|--------|--------|--------|--------|--------|
A|--------|--------|--------|--------|--------|--------|--------|--------|--------|
E|--------|--------|--------|--------|--------|--------|--------|--------|--------|


G|--------|--------|--------|--------|--------|--------|--------|--------|--------|
D|--------|--------|--------|--------|--------|--------|--------|--------|--------|
A|--------|--------|--------|--------|--------|--------|--------|--------|--------|
E|--------|--------|--------|--------|--------|--------|--------|--------|--------|


G|--------|--------|--------|--------|--------|--------|--------|--------|--------|
D|--------|--------|--------|--------|--------|--------|--------|--------|--------|
A|--------|--------|--------|--------|--------|--------|--------|--------|--------|
E|--------|--------|--------|--------|--------|--------|--------|--------|--------|


G|--------|--------|--------|--------|--------|--------|--------|--------|--------|
D|--------|--------|--------|--------|--------|--------|--------|--------|--------|
A|--------|--------|--------|--------|--------|--------|--------|--------|--------|
E|--------|--------|--------|--------|--------|--------|--------|--------|--------|


G|--------|--------|--------|--------|--------|--------|--------|--------|--------|
D|--------|--------|--------|--------|--------|--------|--------|--------|--------|
A|--------|--------|--------|--------|--------|--------|--------|--------|--------|
E|--------|--------|--------|--------|--------|--------|--------|--------|--------|


G|--------|--------|--------|--------|--------|--------|--------|--------|--------|
D|--------|--------|--------|--------|--------|--------|--------|--------|--------|
A|--------|--------|--------|--------|--------|--------|--------|--------|--------|
E|--------|--------|--------|--------|--------|--------|--------|--------|--------|


G|--------|--------|--------|--------|--------|--------|--------|--------|--------|
D|--------|--------|--------|--------|--------|--------|--------|--------|--------|
A|--------|--------|--------|--------|--------|--------|--------|--------|--------|
E|--------|--------|--------|--------|--------|--------|--------|--------|--------|


G|--------|--------|--------|--------|--------|--------|--------|--------|--------|
D|--------|--------|--------|--------|--------|--------|--------|--------|--------|
A|--------|--------|--------|--------|--------|--------|--------|--------|--------|
E|--------|--------|--------|--------|--------|--------|--------|--------|--------|


G|--------|--------|--------|--------|--------|--------|--------|--------|--------|
D|--------|--------|--------|--------|--------|--------|--------|--------|--------|
A|--------|--------|--------|--------|--------|--------|--------|--------|--------|
E|--------|--------|--------|--------|--------|--------|--------|--------|--------|


G|--------|--------|--------|--------|--------|--------|--------|--------|--------|
D|--------|--------|--------|--------|--------|--------|--------|--------|--------|
A|--------|--------|--------|--------|--------|--------|--------|--------|--------|
E|--------|--------|--------|--------|--------|--------|--------|--------|--------|


G|--------|--------|--------|--------|--------|--------|--------|--------|--------|
D|--------|--------|--------|--------|--------|--------|--------|--------|--------|
A|--------|--------|--------|--------|--------|--------|--------|--------|--------|
E|--------|--------|--------|--------|--------|--------|--------|--------|--------|


G|--------|--------|--------|--------|--------|--------|--------|--------|--------|
D|--------|--------|--------|--------|--------|--------|--------|--------|--------|
A|--------|--------|--------|--------|--------|--------|--------|--------|--------|
E|--------|--------|--------|--------|--------|--------|--------|--------|--------|


G|--------|--------|--------|--------|--------|--------|--------|--------|--------|
D|--------|--------|--------|--------|--------|--------|--------|--------|--------|
A|--------|--------|--------|--------|--------|--------|--------|--------|--------|
E|--------|--------|--------|--------|--------|--------|--------|--------|--------|


G|--------|--------|--------|--------|--------|--------|--------|--------|--------|
D|--------|--------|--------|--------|--------|--------|--------|--------|--------|
A|--------|--------|--------|--------|--------|--------|--------|--------|--------|
E|--------|--------|--------|--------|--------|--------|--------|--------|--------|


G|--------|--------|--------|--------|--------|--------|--------|--------|--------|
D|--------|--------|--------|--------|--------|--------|--------|--------|--------|
A|--------|--------|--------|--------|--------|--------|--------|--------|--------|
E|--------|--------|--------|--------|--------|--------|--------|--------|--------|


G|--------|--------|--------|--------|--------|--------|--------|--------|--------|
D|--------|--------|--------|--------|--------|--------|--------|--------|--------|
A|--------|--------|--------|--------|--------|--------|--------|--------|--------|
E|--------|--------|--------|--------|--------|--------|--------|--------|--------|


G|--------|--------|--------|--------|--------|--------|--------|--------|--------|
D|--------|--------|--------|--------|--------|--------|--------|--------|--------|
A|--------|--------|--------|--------|--------|--------|--------|--------|--------|
E|--------|--------|--------|--------|--------|--------|--------|--------|--------|


G|--------|--------|--------|--------|--------|--------|--------|--------|--------|
D|--------|--------|--------|--------|--------|--------|--------|--------|--------|
A|--------|--------|--------|--------|--------|--------|--------|--------|--------|
E|--------|--------|--------|--------|--------|--------|--------|--------|--------|


G|--------|--------|--------|--------|--------|--------|--------|--------|--------|
D|--------|--------|--------|--------|--------|--------|--------|--------|--------|
A|--------|--------|--------|--------|--------|--------|--------|--------|--------|
E|--------|--------|--------|--------|--------|--------|--------|--------|--------|


G|--------|--------|--------|--------|--------|--------|--------|--------|--------|
D|--------|--------|--------|--------|--------|--------|--------|--------|--------|
A|--------|--------|--------|--------|--------|--------|--------|--------|--------|
E|--------|--------|--------|--------|--------|--------|--------|--------|--------|


G|--------|--------|--------|--------|--------|--------|--------|--------|--------|
D|--------|--------|--------|--------|--------|--------|--------|--------|--------|
A|--------|--------|--------|--------|--------|--------|--------|--------|--------|
E|--------|--------|--------|--------|--------|--------|--------|--------|--------|


G|--------|--------|--------|--------|--------|--------|--------|--------|--------|
D|--------|--------|--------|--------|--------|--------|--------|--------|--------|
A|--------|--------|--------|--------|--------|--------|--------|--------|--------|
E|--------|--------|--------|--------|--------|--------|--------|--------|--------|


G|--------|--------|--------|--------|--------|--------|--------|--------|--------|
D|--------|--------|--------|--------|--------|--------|--------|--------|--------|
A|--------|--------|--------|--------|--------|--------|--------|--------|--------|
E|--------|--------|--------|--------|--------|--------|--------|--------|--------|


G|--------|--------|--------|--------|--------|--------|--------|--------|--------|
D|--------|--------|--------|--------|--------|--------|--------|--------|--------|
A|--------|--------|--------|--------|--------|--------|--------|--------|--------|
E|--------|--------|--------|--------|--------|--------|--------|--------|--------|


G|--------|--------|--------|--------|--------|--------|--------|--------|--------|
D|--------|--------|--------|--------|--------|--------|--------|--------|--------|
A|--------|--------|--------|--------|--------|--------|--------|--------|--------|
E|--------|--------|--------|--------|--------|--------|--------|--------|--------|


G|--------|--------|--------|--------|--------|--------|--------|--------|--------|
D|--------|--------|--------|--------|--------|--------|--------|--------|--------|
A|--------|--------|--------|--------|--------|--------|--------|--------|--------|
E|--------|--------|--------|--------|--------|--------|--------|--------|--------|


G|--------|--------|--------|--------|--------|--------|--------|--------|--------|
D|--------|--------|--------|--------|--------|--------|--------|--------|--------|
A|--------|--------|--------|--------|--------|--------|--------|--------|--------|
E|--------|--------|--------|--------|--------|--------|--------|--------|--------|


G|--------|--------|--------|--------|--------|--------|--------|--------|--------|
D|--------|--------|--------|--------|--------|--------|--------|--------|--------|
A|--------|--------|--------|--------|--------|--------|--------|--------|--------|
E|--------|--------|--------|--------|--------|--------|--------|--------|--------|


G|--------|--------|--------|--------|--------|--------|--------|--------|--------|
D|--------|--------|--------|--------|--------|--------|--------|--------|--------|
A|--------|--------|--------|--------|--------|--------|--------|--------|--------|
E|--------|--------|--------|--------|--------|--------|--------|--------|--------|


G|--------|--------|--------|--------|--------|--------|--------|--------|--------|
D|--------|--------|--------|--------|--------|--------|--------|--------|--------|
A|--------|--------|--------|--------|--------|--------|--------|--------|--------|
E|--------|--------|--------|--------|--------|--------|--------|--------|--------|


G|--------|--------|--------|--------|--------|--------|--------|--------|--------|
D|--------|--------|--------|--------|--------|--------|--------|--------|--------|
A|--------|--------|--------|--------|--------|--------|--------|--------|--------|
E|--------|--------|--------|--------|--------|--------|--------|--------|--------|


G|--------|--------|--------|--------|--------|--------|--------|--------|--------|
D|--------|--------|--------|--------|--------|--------|--------|--------|--------|
A|--------|--------|--------|--------|--------|--------|--------|--------|--------|
E|--------|--------|--------|--------|--------|--------|--------|--------|--------|


G|--------|--------|--------|--------|--------|--------|--------|--------|--------|
D|--------|--------|--------|--------|--------|--------|--------|--------|--------|
A|--------|--------|--------|--------|--------|--------|--------|--------|--------|
E|--------|--------|--------|--------|--------|--------|--------|--------|--------|


G|--------|--------|--------|--------|--------|--------|--------|--------|--------|
D|--------|--------|--------|--------|--------|--------|--------|--------|--------|
A|--------|--------|--------|--------|--------|--------|--------|--------|--------|
E|--------|--------|--------|--------|--------|--------|--------|--------|--------|


G|--------|--------|--------|--------|--------|--------|--------|--------|--------|
D|--------|--------|--------|--------|--------|--------|--------|--------|--------|
A|--------|--------|--------|--------|--------|--------|--------|--------|--------|
E|--------|--------|--------|--------|--------|--------|--------|--------|--------|


G|--------|--------|--------|--------|--------|--------|--------|--------|--------|
D|--------|--------|--------|--------|--------|--------|--------|--------|--------|
A|--------|--------|--------|--------|--------|--------|--------|--------|--------|
E|--------|--------|--------|--------|--------|--------|--------|--------|--------|


G|--------|--------|--------|--------|--------|--------|--------|--------|--------|
D|--------|--------|--------|--------|--------|--------|--------|--------|--------|
A|--------|--------|--------|--------|--------|--------|--------|--------|--------|
E|--------|--------|--------|--------|--------|--------|--------|--------|--------|


G|--------|--------|--------|--------|--------|--------|--------|--------|--------|
D|--------|--------|--------|--------|--------|--------|--------|--------|--------|
A|--------|--------|--------|--------|--------|--------|--------|--------|--------|
E|--------|--------|--------|--------|--------|--------|--------|--------|--------|


G|--------|--------|--------|--------|--------|--------|--------|--------|--------|
D|--------|--------|--------|--------|--------|--------|--------|--------|--------|
A|--------|--------|--------|--------|--------|--------|--------|--------|--------|
E|--------|--------|--------|--------|--------|--------|--------|--------|--------|


G|--------|--------|--------|--------|--------|--------|--------|--------|--------|
D|--------|--------|--------|--------|--------|--------|--------|--------|--------|
A|--------|--------|--------|--------|--------|--------|--------|--------|--------|
E|--------|--------|--------|--------|--------|--------|--------|--------|--------|


G|--------|--------|--------|--------|--------|--------|--------|--------|--------|
D|--------|--------|--------|--------|--------|--------|--------|--------|--------|
A|--------|--------|--------|--------|--------|--------|--------|--------|--------|
E|--------|--------|--------|--------|--------|--------|--------|--------|--------|


G|--------|--------|--------|--------|--------|--------|--------|--------|--------|
D|--------|--------|--------|--------|--------|--------|--------|--------|--------|
A|--------|--------|--------|--------|--------|--------|--------|--------|--------|
E|--------|--------|--------|--------|--------|--------|--------|--------|--------|


G|--------|--------|--------|--------|--------|--------|--------|--------|--------|
D|--------|--------|--------|--------|--------|--------|--------|--------|--------|
A|--------|--------|--------|--------|--------|--------|--------|--------|--------|
E|--------|--------|--------|--------|--------|--------|--------|--------|--------|


G|--------|--------|--------|--------|--------|--------|--------|--------|--------|
D|--------|--------|--------|--------|--------|--------|--------|--------|--------|
A|--------|--------|--------|--------|--------|--------|--------|--------|--------|
E|--------|--------|--------|--------|--------|--------|--------|--------|--------|


G|--------|--------|--------|--------|--------|--------|--------|--------|--------|
D|--------|--------|--------|--------|--------|--------|--------|--------|--------|
A|--------|--------|--------|--------|--------|--------|--------|--------|--------|
E|--------|--------|--------|--------|--------|--------|--------|--------|--------|


G|--------|--------|--------|--------|--------|--------|--------|--------|--------|
D|--------|--------|--------|--------|--------|--------|--------|--------|--------|
A|--------|--------|--------|--------|--------|--------|--------|--------|--------|
E|--------|--------|--------|--------|--------|--------|--------|--------|--------|


G|--------|--------|--------|--------|--------|--------|--------|--------|--------|
D|--------|--------|--------|--------|--------|--------|--------|--------|--------|
A|--------|--------|--------|--------|--------|--------|--------|--------|--------|
E|--------|--------|--------|--------|--------|--------|--------|--------|--------|


G|--------|--------|--------|--------|--------|--------|--------|--------|--------|
D|--------|--------|--------|--------|--------|--------|--------|--------|--------|
A|--------|--------|--------|--------|--------|--------|--------|--------|--------|
E|--------|--------|--------|--------|--------|--------|--------|--------|--------|


G|--------|--------|--------|--------|--------|--------|--------|--------|--------|
D|--------|--------|--------|--------|--------|--------|--------|--------|--------|
A|--------|--------|--------|--------|--------|--------|--------|--------|--------|
E|--------|--------|--------|--------|--------|--------|--------|--------|--------|


G|--------|--------|--------|--------|--------|--------|--------|--------|--------|
D|--------|--------|--------|--------|--------|--------|--------|--------|--------|
A|--------|--------|--------|--------|--------|--------|--------|--------|--------|
E|--------|--------|--------|--------|--------|--------|--------|--------|--------|


G|--------|--------|--------|--------|--------|--------|--------|--------|--------|
D|--------|--------|--------|--------|--------|--------|--------|--------|--------|
A|--------|--------|--------|--------|--------|--------|--------|--------|--------|
E|--------|--------|--------|--------|--------|--------|--------|--------|--------|


G|--------|--------|--------|--------|--------|--------|--------|--------|--------|
D|--------|--------|--------|--------|--------|--------|--------|--------|--------|
A|--------|--------|--------|--------|--------|--------|--------|--------|--------|
E|--------|--------|--------|--------|--------|--------|--------|--------|--------|


G|--------|--------|--------|--------|--------|--------|--------|--------|--------|
D|--------|--------|--------|--------|--------|--------|--------|--------|--------|
A|--------|--------|--------|--------|--------|--------|--------|--------|--------|
E|--------|--------|--------|--------|--------|--------|--------|--------|--------|


G|--------|--------|--------|--------|--------|--------|--------|--------|--------|
D|--------|--------|--------|--------|--------|--------|--------|--------|--------|
A|--------|--------|--------|--------|--------|--------|--------|--------|--------|
E|--------|--------|--------|--------|--------|--------|--------|--------|--------|


G|--------|--------|--------|--------|--------|--------|--------|--------|--------|
D|--------|--------|--------|--------|--------|--------|--------|--------|--------|
A|--------|--------|--------|--------|--------|--------|--------|--------|--------|
E|--------|--------|--------|--------|--------|--------|--------|--------|--------|


G|--------|--------|--------|--------|--------|--------|--------|--------|--------|
D|--------|--------|--------|--------|--------|--------|--------|--------|--------|
A|--------|--------|--------|--------|--------|--------|--------|--------|--------|
E|--------|--------|--------|--------|--------|--------|--------|--------|--------|


G|--------|--------|--------|--------|--------|--------|--------|--------|--------|
D|--------|--------|--------|--------|--------|--------|--------|--------|--------|
A|--------|--------|--------|--------|--------|--------|--------|--------|--------|
E|--------|--------|--------|--------|--------|--------|--------|--------|--------|


G|--------|--------|--------|--------|--------|--------|--------|--------|--------|
D|--------|--------|--------|--------|--------|--------|--------|--------|--------|
A|--------|--------|--------|--------|--------|--------|--------|--------|--------|
E|--------|--------|--------|--------|--------|--------|--------|--------|--------|


G|--------|--------|
D|--------|--------|
A|--------|--------|
E|--------|--------|