Menu:

 

Search:

 

dream theater - the dance of eternity:

 



Title: The Dance Of Eternity - For 6 String Guitar
Artist: 
Album: Metropolis Pt. 2: Scenes From A Memory
Author: Dream Theater


Track 1: Untitled

E|-------------------------------------------|-------------------------------------------|
B|-------------------------------------------|-------------------------------------------|
G|-------------------------------------------|-------------------------------------------|
D|-0--0--0--0-------0-------0---0--0--0--0---|-0--0--0--0-------0-------0---0--0--0--0---|
A|-------------------------------------------|-------------------------------------------|
E|-------------------------------------------|-------------------------------------------|


E|-------------------------------------------|-----------------------------------------------------|
B|-------------------------------------------|-----------------------------------------------------|
G|-------------------------------------------|-----------------------------------------------------|
D|-0--0--0--0-------0-------0---0--0--0--0---|-0--0--0--0-------0--0--0--0--0--0--0---0--0--0--0---|
A|-------------------------------------------|-----------------------------------------------------|
E|-------------------------------------------|-----------------------------------------------------|


E|-3-----3---------|-3-----3------------|-----------------|----------3-----3---|-------3-----3---|
B|-3-----3---------|-3-----3------------|-----------------|----------3-----3---|-------3-----3---|
G|-0-----0---------|-0-----0------------|-----------5-----|----------0-----0---|-------0-----0---|
D|-0-----0---6-----|-0-----0---3----2---|-----------5-----|-4---4----0-----0---|-6-----0-----0---|
A|-----------6-----|-----------3----2---|-----------3-----|-4---4--------------|-6---------------|
E|-3-----3---4-----|-3-----3---1----0---|-----------3-----|-2---2----3-----3---|-4-----3-----3---|


E|-------------|------------------------|---------------------------------|-----------------------------------|
B|-------------|------------------------|---------------------------------|-----------------------------------|
G|-------------|-5-----8---8------------|---------------------------------|-----------------------------------|
D|-3----2------|-5-----8---8------------|-5-------3---6---5---------------|--------3--5-------------------2---|
A|-3----2------|-3-----6---6--------5---|-----5---------------6---5-------|-5---6---------3-----------2-------|
E|-1----0------|-3-----6---6----3-------|-----------------------------3---|-------------------1---0-----------|


E|---------------------------------|---------------------------------|-----------------------------------|
B|---------------------------------|---------------------------------|-----------------------------------|
G|---------4---5-------------------|---------------------------------|-----------------------------------|
D|-3---2---------------5-----------|-6---------------5-------3---6---|-5----------------------3--5-------|
A|-----------------3-------4-------|-------------5-------5-----------|-----6---5-------5---6---------3---|
E|-----------------------------2---|-----4---3-----------------------|-------------3---------------------|


E|---------------------------------|----------------------------------------|-----------------------------------------------|
B|---------------------------------|----------------------------------------|-----------------------------------------------|
G|-------------------------4---5---|--------------8-------------------------|-----------------------------------------------|
D|-------------2---3---2-----------|----------------------------------------|-------------------3--5--6--5---6--5--5--6--5--|
A|---------2-----------------------|-3--5--6----------6---------------------|-------------3--5------------------------------|
E|-1---0---------------------------|----------3-----------6---4---3---4--3--|-3--4--3--4------------------------------------|


E|---------------------------------------------|---------------------------------------------|
B|---------------------------------------------|---------------------------------------------|
G|----7--5-------------------------------------|---------------------------------------------|
D|----------6--5-------------------------------|-----------------3--5--6--5---6--5--5--6--5--|
A|----------------8--6--5----------------------|-----------3--5------------------------------|
E|-------------------------3---4--3--3--4--3---|-4---3--4------------------------------------|


E|-------------------------------|-------------------|----------------|----3-------------------|
B|-------------------------------|-------------------|----------------|----3-------------------|
G|----7--5-----------------------|-------------------|----------------|----0-----6---6---------|
D|-6--------6--5--------7-----7--|----8-----7-----7--|----5----4------|----0-----6---6----7----|
A|----------------8--6--5-----5--|----6-----5-----5--|----3----2------|----------4---4----5----|
E|----------------------5-----5--|----6-----5-----5--|----3----2------|----3-----4---4----5----|


E|------------------------|------------------------|---------------------|-------------------|
B|------------------------|------------------------|---------------------|-------------------|
G|------------------------|------------------------|---------------------|-------------------|
D|---------7---8-----7----|---------7---5----6-----|----------5----------|-------------------|
A|---------5---6-----5----|---------5---3----6-----|----------5----------|-------------------|
E|---------5---6-----5----|---------5---3----4-----|----------3----------|----------------3--|


E|---------------------------------------------|---------------------------------------------|
B|---------------------------------------------|---------------------------------------------|
G|---------------------------------------------|---------------------7--5--------------------|
D|------------------------------------3--5--6--|-5---6--5--5--6--5---------6--5--------------|
A|------------------------------3--5-----------|---------------------------------8--6--5-----|
E|----4--3--3--4--3---4---3--4-----------------|------------------------------------------3--|


E|------------------------------------------|---------------------------|------------------------|
B|------------------------------------------|---------------------------|------------------------|
G|------------------------------------------|---------------------------|------------------------|
D|----------------------------3--5--6--8----|-----6---6----7----2-------|-----------2------------|
A|----------------------3--5-----------8----|-----6---6----5----2-------|-----------2------------|
E|----4--3--3--4--3--4-----------------6----|-----4---4----5----0-------|-----------0------------|


E|------------------------------------------|-----------------------------------------|
B|------------------------------------------|-----------------------------------------|
G|------------------------------------------|--------------------------7--3-----------|
D|---------------4--4--4-----------4--4--4--|-----4---5-------------6--------4--------|
A|------------------------------------------|-4-----------3------5--------------5-----|
E|------2--2--2-----------2--2--2-----------|-----------------4--------------------6--|


E|---------------------------------------------|---------------------------------------------|
B|---------------------------------------------|---------------------------------------------|
G|---------------------------------------------|---------7--------3--------------------------|
D|----------4--4--4-----------4--4--4------4---|-5----------6--------4--------------------4--|
A|-------------------------------------4-------|-----3---------5--------5-----4--------------|
E|-2--2--2-----------2--2--2-------------------|---------------------------3-----2--2--2-----|


E|-----------------------------------------|-------------------------------------------------|
B|-----------------------------------------|-------------------------------------------------|
G|-----------------------------------------|----------7--9-----------------------------------|
D|-4--4-----------4--4--4------4---5-------|-------8--------6-----------------4--4--4--------|
A|-------------------------4-----------3---|----9--------------5-----------------------------|
E|-------2--2--2---------------------------|-6--------------------4--2--2--2-----------2--2--|


E|-----------------------------------------------|---------------------------------------------------|
B|---------------------8-------------------------|---------------------------------------------------|
G|-------------------------5---------------------|---------------------------------------------------|
D|----4--4--4------4-----------7--7--6--5--5--4--|-3-------------------------------------------------|
A|-------------4---------------------------------|-----3--7--6--5--5--4------------------------------|
E|-2---------------------------------------------|-----------------------7--7--7--7-----7--7--7--7---|


E|-----------------------------------------------|---------------------------------------------|
B|-----------------------------------------------|---------------------------------------------|
G|-----------------------------------------------|---------------------------------------------|
D|-----------------------------------------------|---------------------------------------------|
A|-----------------------------------------------|---------------------------------------------|
E|-7--7--7--7-----7--7--7--7---7--7--7--7-----7--|-7--7--7---7--7--7--7-----7--7--7--7---7--7--|


E|---------------------------------------------|---------------------------------------------|
B|---------------------------------------------|---------------------------------------------|
G|---------------------------------------------|---------------------------------------------|
D|---------------------------------------------|---------------------------------------------|
A|---------------------------------------------|---------------------------------------------|
E|-7---7--7--7--7-----7--7--7--7---7--7--7--7--|----7--7--7--7---7--7--7--7-----7--7--7--7---|


E|---------------------------------------------|-----------------------------------------------|
B|---------------------------------------------|-----------------------------------------------|
G|---------------------------------------------|-----------------------------------------------|
D|---------------------------------------------|-----------------------------------------------|
A|---------------------------------------------|-----------------------------------------------|
E|-7--7--7--7-----7--7--7--7---7--7--7---7--7--|-7--7-----7--7--7--7---7--7--7--7-----7--7--7--|


E|---------------------------------------------|-------------------------------------------------|
B|---------------------------------------------|-------------------------------------------------|
G|---------------------------------------------|-------------------------------------------------|
D|---------------------------------------------|-------------------------------------------------|
A|---------------------------------------------|-------------------------------------------------|
E|-7---7--7--7--7-----7--7--7--7---7--7--7--7--|----7--7--7--7---7--7--7---7--7--7--7---7--7--7--|


E|-----------------------------------------------------|------------------------------------12131415-12-------|
B|-----------------------------------------------------|------------------------------121315------------12----|
G|-----------------------------------------------------|------------------------9-1112---------------------12-|
D|-----------------------------------------------------|------------------9-1012------------------------------|
A|-----------------------------------------------------|------------------------------------------------------|
E|-7---7--7--7--7---7--7--7--7---7--7--7--7---7--7--7--|-7---7--7--7--7---------------------------------------|


E|----12-7-----------14-9-----------12-8-----------|-12-7-----------7--3-----------9--6-----------6--|
B|----------8--------------11-------------10-------|-------8--------------5--------------7-----------|
G|-------------9--------------11-------------9-----|----------9--------------4--------------6--------|
D|-------------------------------------------------|-------------------------------------------------|
A|-------------------------------------------------|-------------------------------------------------|
E|-------------------------------------------------|-------------------------------------------------|


E|-2-----------8--5--------15-12----------12-7-----|-------14-9-----------12-8-----------12-7--------|
B|----2--------------5-----------12-------------8--|-------------11-------------10-------------8-----|
G|-------3--------------------------12-------------|-9--------------11-------------9--------------9--|
D|-------------------------------------------------|-------------------------------------------------|
A|-------------------------------------------------|-------------------------------------------------|
E|-------------------------------------------------|-------------------------------------------------|


E|----7--3-----------9--6-----------6--2-----------|-8--5--------12-7--0--11-7--0-----10-9--0--8--7--|
B|----------5--------------7--------------2--------|-------5-----------------------------------------|
G|-------------4--------------6--------------3-----|-------------------------------------------------|
D|-------------------------------------------------|-------------------------------------------------|
A|-------------------------------------------------|-------------------------------------------------|
E|-------------------------------------------------|-------------------------------------------------|


E|-0--6--5--------------------7--14-15-12----12----|----12-------12-7--0--11-7--0-----10-9--0--8--7--|
B|----------7--8--------7--8--------------11----11-|-10----8--7--------------------------------------|
G|----------------8--9-----------------------------|-------------------------------------------------|
D|-------------------------------------------------|-------------------------------------------------|
A|-------------------------------------------------|-------------------------------------------------|
E|-------------------------------------------------|-------------------------------------------------|


E|-0--6--5-----------------------------------------|-------------------------------------------------|
B|----------7--8-----------5-----------------------|-------------------------------------------------|
G|----------------5--6--8--------------------------|-------------------------------------------------|
D|----------------------------7--8--10-11----------|-8-----------------------------------------------|
A|----------------------------------------9--10-12-|----12-10-9--7--------6-----------5--4-----3--2--|
E|-------------------------------------------------|----------------7--0-----7--0-----------0--------|


E|-------------------------------------------------|-------------------------------------------------|
B|-------------------------------------------------|-------------------------------------------------|
G|-------------------------------------------------|-------------------------------------------------|
D|-------------------------1-----------------------|-------------------------------------------------|
A|----1--0-----------------------------2--3--4--5--|-6-----6--9--7--------6-----------5--4-----3--2--|
E|-0--------2--3--2--0--2-----0--2--3--------------|----7-----------7--0-----7--0-----------0--------|


E|-------------------------------------------------14|-19-14-------------------------------|
B|-----------------------------------------------16--|-------16----------------------------|
G|---------------------------------------------16----|----------16-------------------------|
D|-------------5---5---5--5-----4--4---------16------|-------------16-------9----9----4----|
A|----1--0-----3---3---3--3-----2--2-----1418--------|----------------18-14-7----7----2----|
E|-0--------2--3---3---3--3-----2--2-----------------|----------------------7----7----2----|


E|---------------------------|------------------------|---------------------------|
B|---------------------------|------------------------|---------------------------|
G|---------------------------|------------------------|---------------------------|
D|-4---9---9---9----9---4----|-4----6----6----5---5---|-----4---4---4---4----7----|
A|-2---7---7---7----7---2----|-2----4----4----3---3---|-----2---2---2---2----5----|
E|-2---7---7---7----7---2----|-2----4----4----3---3---|-----2---2---2---2----5----|


E|---------------------|---------------------------|------------------------|---------------------------|
B|---------------------|---------------------------|------------------------|---------------------------|
G|---------------------|---------------------------|------------------------|---------------------------|
D|-8----9----9----4----|-4---9---9---9----9---4----|-4----11---11---11--11--|-----4---4---4---5----4----|
A|-6----7----7----2----|-2---7---7---7----7---2----|-2----9----9----9---9---|-----2---2---2---5----4----|
E|-6----7----7----2----|-2---7---7---7----7---2----|-2----9----9----9---9---|-----2---2---2---3----2----|


E|------------------------|------------------------------|---------------------------|
B|------------------------|------------------------------|---------------------------|
G|------------------------|------------------------------|---------------------------|
D|-3----9----4---4---8----|-4---4---7----4---6---6---6---|-----4---5----5----5---5---|
A|-3----7----2---2---6----|-2---2---5----2---4---4---4---|-----2---3----3----3---3---|
E|-1----7----2---2---6----|-2---2---5----2---4---4---4---|-----2---3----3----3---3---|


E|---------------------------|------------------------|------------------------------|
B|---------------------------|------------------------|------------------------------|
G|---------------------------|------------------------|------------------------------|
D|-----4---4---4---4----7----|-6----9----4---4---11---|-4---4---5----4---6---6---6---|
A|-----2---2---2---2----5----|-4----7----2---2---9----|-2---2---5----2---6---6---6---|
E|-----2---2---2---2----5----|-4----7----2---2---9----|-2---2---3----2---4---4---4---|


E|---------------------|---------------------------|---------------------|-----------------|
B|---------------------|---------------------------|---------------------|-----------------|
G|---------------------|---------------------------|---------------------|-----------------|
D|----------7-----7----|-----7--------7--------7---|------9--------------|-----------------|
A|----------7-----7----|-----7---7----7--------7---|------9--------------|-----------------|
E|----------5-----5----|-----5---5----5--------5---|------7--------------|------12----7----|


E|------------------------------|-----------------------------12--|---------10----------7---8---10--|
B|------------------------------|---------------------------------|---------------------------------|
G|----------------------9---10--|-9-------9-----------9---10------|-9---10------9---10--------------|
D|--------------9---10----------|-----10------9---10--------------|---------------------------------|
A|------7---8-------------------|---------------------------------|---------------------------------|
E|------------------------------|---------------------------------|---------------------------------|


E|-8---7---8-----------7-----------|---------------------------------|---------------------------------|
B|---------------------------------|---------------------------------|-----------------------------12--|
G|-------------10--9-------9---7---|-------------------------9---10--|-9-------9-----------9---10------|
D|---------------------------------|-10--9-----------9---10----------|-----10------9---10--------------|
A|---------------------------------|---------7---8-------------------|---------------------------------|
E|---------------------------------|---------------------------------|---------------------------------|


E|-----15--17----------15----------|---------------------------------|---------------------------------|
B|-13----------15--13------13--12--|-----15--13----------------------|---------------------------------|
G|---------------------------------|-14----------12--10--9-------12--|-------------------------9---10--|
D|---------------------------------|-------------------------12------|-10--9-----------9---10----------|
A|---------------------------------|---------------------------------|---------7---8-------------------|
E|---------------------------------|---------------------------------|---------------------------------|


E|-----------------------------12--|---------10----------7---8---10--|-8---7---8-----------7-----------|
B|---------------------------------|---------------------------------|---------------------------------|
G|-9-------9-----------9---10------|-9---10------9---10--------------|-------------10--9-------9---7---|
D|-----10------9---10--------------|---------------------------------|---------------------------------|
A|---------------------------------|---------------------------------|---------------------------------|
E|---------------------------------|---------------------------------|---------------------------------|


E|---------------------------------|---------------------------------|-----15--17--12------17------12--19--12------|
B|---------------------------------|-----------------------------12--|-13--------------15------15--------------15--|
G|-------------------------9---10--|-9-------9-----------9---10------|---------------------------------------------|
D|-10--9-----------9---10----------|-----10------9---10--------------|---------------------------------------------|
A|---------7---8-------------------|---------------------------------|---------------------------------------------|
E|---------------------------------|---------------------------------|---------------------------------------------|


E|-19------12--20--15------20------15--22--15------|-22------15--24--19------24------19--24--19------|
B|-----15--------------18------18--------------18--|-----18--------------22------22--------------22--|
G|-------------------------------------------------|-------------------------------------------------|
D|-------------------------------------------------|-------------------------------------------------|
A|-------------------------------------------------|-------------------------------------------------|
E|-------------------------------------------------|-------------------------------------------------|


E|---------19--24--19------24------19--24--19------|---------19--12--7-------12------7---12--7-------|
B|-----22--------------22------22--------------22--|-----22--------------10------10--------------10--|
G|-21----------------------------------------------|-21----------------------------------------------|
D|-------------------------------------------------|-------------------------------------------------|
A|-------------------------------------------------|-------------------------------------------------|
E|-------------------------------------------------|-------------------------------------------------|


E|---------7---12--7-------------------------------|------------------------|-----------------|
B|-----10--------------10------10------------------|------------------------|-----------------|
G|-9-----------------------9-------9-------9-------|-----9------------------|-----------------|
D|-------------------------------------12------10--|-9-------9---7----------|-----------------|
A|-------------------------------------------------|-------------7----------|-----------------|
E|-------------------------------------------------|-------------5----------|-----------------|


E|------------------------------|-----------------|-----------------|-----------------|
B|------------------------------|-----------------|-----------------|-----------------|
G|------------------------------|-----------------|-----------------|-----------------|
D|------------------------------|-----------------|-----------------|-----------------|
A|-7---7---7---7---7------------|-----------------|-7----7----------|-----------------|
E|-5---5---5---5---5------------|-----------------|-5----5----------|-----------------|


E|------------------------------|-----------------|-----------------|-----------------|
B|------------------------------|-----------------|-----------------|-----------------|
G|------------------------------|-----------------|-14---14---------|-----------------|
D|------------------------------|-----------------|-14---14---------|-----------------|
A|-7---7---7---7---7------------|-----------------|-12---12---------|-----------------|
E|-5---5---5---5---5------------|-----------------|-----------------|-----------------|


E|------------------------------|-----------------|-----------------|-----------------|
B|------------------------------|-----------------|-----------------|-----------------|
G|-14--14--14--14--14-----------|-----------------|-14---14---------|-----------------|
D|-14--14--14--14--14-----------|-----------------|-14---14---------|-----------------|
A|-12--12--12--12--12-----------|-----------------|-12---12---------|-----------------|
E|------------------------------|-----------------|-----------------|-----------------|


E|------------------------------|-----------------|-----------------------------------------|
B|------------------------------|-----------------|-----------------------------------------|
G|-14--14--14--14--14-----------|-----------------|-----------------------------------------|
D|-14--14--14--14--14-----------|-----------------|-----------------------------------------|
A|-12--12--12--12--12-----------|------------0----|-------------0--2--2---------------------|
E|------------------------------|-----------------|-3---1---0------------3--0---1--3--1--0--|


E|-------------------------------------------|-------------------------------------------|
B|-------------------------------------------|-------------------------------------------|
G|-------------------------------------------|-------------------------------------------|
D|-------------------------------0--2--0--2--|-------------------------------------------|
A|-0-------------2--3--3---------------------|-0-------------0--2--2---------------------|
E|-----3--1--0------------1--0---------------|-----3--1--0------------3--0---1--3--1--0--|


E|-------------------------------------------|-------------------------------------------|
B|-------------------------------------------|-------------------------------------------|
G|-------------------------------------5--4--|-2-----------------------------------------|
D|--------------------0--2---3--2--2---------|-----5--3------7--9--9---------------------|
A|----0--2-----------------------------------|-----------7------------10-7---8--10-8--7--|
E|-----------3--0----------------------------|-------------------------------------------|


E|-------------------------------------------|-------------------------------------------|
B|-------------------------------------------|-------------------------------------------|
G|-------------------------------7--9--7--9--|-------------------------------------------|
D|-7-------------9--10-10--------------------|-7-------------7--9--9---------------------|
A|-----10-8--7------------8--7---------------|-----10-8--7------------10-7---8--10-8--7--|
E|-------------------------------------------|-------------------------------------------|


E|---------------------------------------------|-------------------------------------------------|
B|---------------------------------------------|-------------------------------------------------|
G|--------------------7--9---10-9--9-----------|-------------------------------------------------|
D|----7--9-------------------------------------|-------------------------------------------------|
A|-----------10-7------------------------------|-------------------------------------------------|
E|---------------------------------------8--7--|-5--0--3--1--0--0--5--7--0--3--0--0--1--3--1--0--|


E|-------------------------------------------------|-------------------------------------------------|
B|-------------------------------------------------|-------------------------------------------------|
G|-------------------------------------------------|-------------------------------------------------|
D|-------------------------------------------------|-------------------------------------------------|
A|-------------------------------------------------|-------------------------------------------------|
E|-5--0--3--1--0--0--5--7--0--3--0--0--1--3--1--0--|-5--0--3--1--0--0--5--7--0--3--0--0--1--3--1--0--|


E|-------------------------------------------------|-------------------------------------------------|
B|-------------------------------------------------|-------------------------------------------------|
G|-------------------------------------------------|-------------------------------------------------|
D|-------------------------------------------------|-------------------------------------------------|
A|-------------------------------------------------|-------------------------------------------------|
E|-5--0--3--1--0--0--5--7--0--3--0--0--1--3--1--0--|-5--0--3--1--0--0--5--7--0--3--0--0--1--3--1--0--|


E|-------------------------------------------------|-------------------------------------------------|
B|-------------------------------------------------|-------------------------------------------------|
G|-------------------------------------------------|-------------------------------------------------|
D|-------------------------------------------------|-------------------------------------------------|
A|-------------------------------------------------|-------------------------------------------------|
E|-5--0--3--1--0--0--7--8--0--3--0--0--10-12-10-12-|-5--0--3--1--0--0--5--7--0--3--0--0--1--3--1--0--|


E|-------------------------------------------------|-------------------------------------------------|
B|-------------------------------------------------|-------------------------------------------------|
G|-------------------------------------------------|-------------------------------------------------|
D|-------------------------------------------------|-------------------------------------------------|
A|-------------------------------------------8--7--|-5--0--3--2--0--0--5--7--0--3--0--0--2--3--2--0--|
E|-0--5--7--0--3--0--3--10-12-0--13-12-0--0--------|-------------------------------------------------|


E|-------------------------------------------------|-------------------------------------------------|
B|-------------------------------------------------|-------------------------------------------------|
G|-------------------------------------------------|-------------------------------------------------|
D|-------------------------------------------------|-------------------------------------------------|
A|-5--0--3--2--0--0--5--7--0--3--0--0--2--3--2--0--|-5--0--3--2--0--0--5--7--0--3--0--0--2--3--2--0--|
E|-------------------------------------------------|-------------------------------------------------|


E|-------------------------------------------------|-------------------------------------------------|
B|-------------------------------------------------|-------------------------------------------------|
G|-------------------------------------------------|-------------------------------------------------|
D|-------------------------------------------------|-------------------------------------------------|
A|-5--0--3--2--0--0--5--7--0--3--0--0--2--3--2--0--|-5--0--3--2--0--0--5--7--0--3--0--0--2--3--2--0--|
E|-------------------------------------------------|-------------------------------------------------|


E|-------------------------------------------------|-------------------------------------------------|
B|-------------------------------------------------|-------------------------------------------------|
G|-------------------------------------------------|-------------------------------------------------|
D|----------------------7--5-----5-----------------|-------------------------------------------------|
A|-5--0--3--2--0--0--5--------7-----7--5--7--5-----|-5--0--3--2--0--0--5--7--0--3--0--0--2--3--2--0--|
E|----------------------------------------------8--|-------------------------------------------------|


E|-------------------------------------------------|-------------------------------------------------|
B|-------------------------------------------------|-------------------------------------------------|
G|-------------------------------------------------|-------------------------------------------------|
D|----------------------7-----5--------------------|-------------------------------------------------|
A|-5--0--3--2--0--0--5--------------7-----3--2--0--|-5--0--3--2--0--0--5--7--0--3--0--0--2--3--2--0--|
E|-------------------------------------------------|-------------------------------------------------|


E|-------------------------------------------------|-------------------------------------------------|
B|-------------------------------------------------|-------------------------------------------------|
G|-------------------------------------------------|-------------------------------------------------|
D|-------------------------------------------------|-------------------------------------------------|
A|-7--0--5--3--0--0--7--8--0--5--0--0--3--5--3--0--|-8--0--7--5--0--0--8--10-0--7--0--0--5--7--5--0--|
E|-------------------------------------------------|-------------------------------------------------|


E|-------------------------------------------------|-------------------------------------------------|
B|-------------------------------------------------|-------------------------------------------------|
G|-------------------------------------------------|-------------------------------------------------|
D|-------------------------------------------------|-------------------------------------------------|
A|-10-0--8--7--0--0--10-12-0--8--0--0--7--8--7--0--|-12-0--10-8--0--0--12-14-0--12-10-0--0--14-15-0--|
E|-------------------------------------------------|-------------------------------------------------|


E|-------------------------------------------------|-----------------------------------------------|
B|-------------------------------------------------|-----------------------------------------------|
G|-------------------------------------------------|-----------------------------------------------|
D|-------------------------------------------------|-----------------------------------------------|
A|-14-12-0--0--15-17-0--15-14-0--0--17-19-0--17-15-|-0--19-20-0--19-17-0--20-22-0--20-19-0--22-24--|
E|-------------------------------------------------|-----------------------------------------------|


E|---------------------------------|-------------------------------------------|-------------------8--7--7--8--13-12---12--|
B|---------------------------------|-------------------------------------------|----------6--5--6--------------------------|
G|---------------------------------|----------------------------------------5--|-4--4--5-----------------------------------|
D|---------------------------------|-------------------------------3--2--3-----|-------------------------------------------|
A|-0---22--24--0---22--24--0---22--|-24--0---22--------3--2--2--3--------------|-------------------------------------------|
E|---------------------------------|-------------0--1--------------------------|-------------------------------------------|


E|-----------------------------|-------------------------------------------------|
B|-----------------------------|-------------------------------------------------|
G|-----------------------------|-------------------------------------------------|
D|-----------7-----7--------7--|----7--------7-----7-----7--------7-----7--------|
A|--------------0-----0--0-----|-0-----0--0-----0-----0-----0--0-----0-----0--0--|
E|-----------------------------|-------------------------------------------------|


E|-------------------------------------------------|-------------------------17-12-13-15-13-12-------|
B|-------------------------------------------------|-------------------------------------------15-13-|
G|-------------------------------------------------|-------------------------------------------------|
D|-7-----7-----7--------7-----7--------7-----7-----|----7-----7-----7--------------------------------|
A|----0-----0-----0--0-----0-----0--0-----0-----0--|-0-----0-----0-----0--0--------------------------|
E|-------------------------------------------------|-------------------------------------------------|


E|------------------------------------------|--------------------|---------------------------------------------------|
B|-15-12------------------------------------|--------------------|-------13-15-13------------------------------------|
G|-------14-9--10-12-10-9-------------------|--------------------|-12-13----------13-12-10---------------------12-13-|
D|-------------------------12-10-12-9-------|--------------10-12-|-------------------------1210----------10-12-------|
A|------------------------------------------|--------10-11-------|-----------------------------131110-11-------------|
E|------------------------------------------|--------------------|---------------------------------------------------|


E|----------------------------------------------------|----------------------------------------------------|
B|-13-15-13-------------------------------------------|----------------------------13-15-13----------------|
G|----------13-12-10-------------------------15-13-11-|----------------------12-13----------13-12-10-------|
D|-------------------14-12-------16-14----------------|----------------10-12-------------------------12-10-|
A|-------------------------13-11-------15-13----------|-15-13-11-10-11-------------------------------------|
E|----------------------------------------------------|----------------------------------------------------|


E|---------------------------------------------------|---------------------------------|
B|-------------------------13-15-13------------------|---------------------------------|
G|-------------------12-13----------13-12-10---------|-------------10------9---9---10--|
D|-------------10-12-------------------------1210----|---------9-------12--------------|
A|-13-11-10-11-----------------------------------1311|-10--12--------------------------|
E|---------------------------------------------------|---------------------------------|


E|---------------------------------|---------------------------------|---------------------------------|
B|---------------------------------|---------------------------------|---------------------------------|
G|-9---9---------------------------|-------------------------10--12--|-------------10------9---9---10--|
D|---------12--10--9---10----------|-------------9---11--13----------|---------9-------12--------------|
A|-------------------------8---8---|-10--12--12----------------------|-----12--------------------------|
E|---------------------------------|---------------------------------|---------------------------------|


E|---------------------------------|-15--13--11----------------------|---------------------------------|
B|---------------------------------|-------------12--14--12----------|---------------------------------|
G|-9---9---------------------------|-------------------------14--12--|---------15----------------------|
D|---------12--10--9---10----------|---------------------------------|-12--13------13--11--------------|
A|-------------------------8-------|---------------------------------|---------------------11------12--|
E|---------------------------------|---------------------------------|-------------------------0-------|


E|---------------------------------|---------------------------------|---------------------------------|
B|---------------------------------|---------------------------------|---------------------------------|
G|-----10------9---9---10--9---9---|---------------------------------|-----------------10--12----------|
D|-9-------12----------------------|-12--10--9---10------------------|-----9---11--13------------------|
A|---------------------------------|-----------------8---8---10--12--|-12--------------------------12--|
E|---------------------------------|---------------------------------|---------------------------------|


E|---------------------------------|-------------------------15--13--|-11------------------------------|
B|---------------------------------|---------------------------------|-----12--14--12------------------|
G|-----10------9---9---10--9---9---|---------------------------------|-----------------14--12----------|
D|-9-------12----------------------|-12--10--9---10------------------|-------------------------12--13--|
A|---------------------------------|-----------------8---------------|---------------------------------|
E|---------------------------------|---------------------------------|---------------------------------|


E|---------------------------------|---------------------------------|---------------------------------|
B|---------------------------------|---------------------------------|---------------------------------|
G|-15------------------------------|---------------------------------|---------------------------------|
D|-----13--11----------------------|---------------------------------|---------------------------------|
A|-------------11--------------18--|-----17--17--------------14--15--|-15----------------------18------|
E|-----------------0---14--16------|-16----------18--19--19----------|-----16--17------14--16------16--|


E|---------------------------------|---------------------------------|---------------------------------|
B|---------------------------------|---------------------------------|---------------------------------|
G|---------------------------------|---------------------------------|---------------------------------|
D|---------------------------------|-----14--15--17--18--14--15------|---------------------------------|
A|-17--17--------------14--15--16--|-17------------------------------|---------18------17--17----------|
E|---------18--19--19--------------|-----------------------------0---|-14--16------16----------18--19--|


E|---------------------------------|---------------------------------|---------------------------------|
B|---------------------------------|---------------------------------|---------------------------------|
G|---------------------------------|---------------------------------|---------------------------------|
D|---------------------------------|---------------------------------|-----------------14--15--17--18--|
A|-----14--15--15------------------|-----18------17--17--------------|-14--15--16--17------------------|
E|-19--------------16--17------14--|-16------16----------18--19--19--|---------------------------------|


E|---------------------------------------------|-------------------------------------------------|
B|---------------------------------------------|-------------------------------------------------|
G|---------------------------------------------|-------------------------------------------------|
D|-14--15--------------------------------------|-------------------------------------------------|
A|------------------18----17-------14-15-------|----------18----17-------14-15-------13-14-------|
E|---------0--14-16----16----18-19-------16-17-|-0--14-16----16----18-19-------16-17-------15-16-|


E|-------------------------------------------------|-------------------------------------------------|
B|-------------------------------------------------|-------------------------------------------------|
G|-------------------------------------------------|-------------------------------------------------|
D|-------------------------------------------------|-------------------------14-16-17-18-------------|
A|----------18----17-------14-15----------------18-|----17-------14-15-16-17----------------------18-|
E|-0--14-16----16----18-19-------16-17-0--14-16----|-16----18-19-------------------------0--14-16----|


E|-------------------------------------------------|-------------------------------------------------|
B|-------------------------------------------------|-------------------------------------------------|
G|-------------------------------------------------|-------------------------------------------------|
D|-------------------------------------------------|-------------------------------------------------|
A|----17-------14-15----------------18----17-14-15-|----------------18----17-------14-15-------------|
E|-16----18-19-------16-17-0--14-16----16----------|-16-17-0--14-16----16----18-19-------16-17-0--14-|


E|-------------------------------------------------|-------------------------------------------------|
B|-------------------------------------------------|-------------------------------------------------|
G|-------------------------------------------------|-------------------------------------------------|
D|-------------------------------------------------|-------------------------------------------------|
A|----18----17-14-15-------13-14-------------------|-------------------------------------------14-16-|
E|-16----16----------16-17-------15-16-19-16-18-16-|-0--19-16-18-16-0--19-16-18-16-0--15-16-18-------|


E|-------------------------------------------------|-------------------------------------------------|
B|-------------------------------------------------|-------------------------------------------------|
G|-------------------------------------------------|-------------------------------------------------|
D|-------------------------------------------------|-------------------------------------------------|
A|-17----------6-----5--------2--3-----------------|-6-----5--------2--3--------1--2-----------------|
E|----0--2--4-----4-----6--7--------4--5--0--2--4--|----4-----6--7--------4--5--------3--4--0--2--4--|


E|-------------------------------------------------|-------------------------------------------------|
B|-------------------------------------------------|-------------------------------------------------|
G|-------------------------------------------------|-------------------------------------------------|
D|-------------------------------------------------|----------------2--4--5--6-----------------------|
A|-6-----5--------2--3-----------------6-----5-----|----2--3--4--5-----------------------6-----5-----|
E|----4-----6--7--------4--5--0--2--4-----4-----6--|-7--------------------------0--2--4-----4-----6--|


E|-------------------------------------------------|-------------------------------------------------|
B|-------------------------------------------------|-------------------------------------------------|
G|-------------------------------------------------|-------------------------------------------------|
D|-------------------------------------------------|-------------------------------------------------|
A|----2--3-----------------6-----5--2--3-----------|-------6-----5--------2--3-----------------6-----|
E|-7--------4--5--0--2--4-----4-----------4--5--0--|-2--4-----4-----6--7--------4--5--0--2--4-----4--|


E|-------------------------------------------------|-------------------------------------------------|
B|-------------------------------------------------|-------------------------------------------------|
G|-------------------------------------------------|-------------------------------------------------|
D|-------------------------------------------------|-------------------------------------------------|
A|-5--2--3--------1--2-----------------------------|----------------------------------2--4--5--7--4--|
E|----------4--5--------3--4--7--4--6--4--0--7--4--|-6--4--0--7--4--6--4--0--3--4--6-----------------|


E|-------------------------------------------------|-------------------------------------------------|
B|-------------------------------------------------|-------------------------------------------------|
G|-------------------------------------------------|-------------------------------------------------|
D|-------------------------------------------------|-2--4--5--2--4--2-----5--2--4--2--4--2-----5--2--|
A|-6--4--0--7--4--6--4--0--7--4--6--4--0--3--4--6--|-------------------3--------------------3--------|
E|-------------------------------------------------|-------------------------------------------------|


E|-------------------------------------------------|-------------------------------------------------|
B|-------------------------------------------------|-------------------------------------------------|
G|-------------------2--3--5--6--3--5--------6--3--|-5--------6--3--5--------------------------------|
D|-4--2-----2--4--5--------------------6--3--------|----6--3-----------6--3--5--6--5--3--------------|
A|-------3-----------------------------------------|-------------------------------------6--4--3--2--|
E|-------------------------------------------------|-------------------------------------------------|


E|---------------------------------|------------------------------------------|------------------------------------------|
B|---------------------------------|------------------------------------------|------------------------------------------|
G|---------------------------------|------------------------------------------|------------------------------------------|
D|-----4------3----------------4---|----3-4-3-------------------6------4---3--|-------------6------4-6-4--3--------------|
A|---------2------6---4---2--------|-2---------6--4--2-----4--------4---------|----6---4--------4------------6--4--2--4--|
E|---------------------------------|--------------------4---------------------|------------------------------------------|


E|---------------------------------|-----------------------------------------|-----------------------------------|
B|---------------------------------|-----------------------------------------|-----------------------------------|
G|---------------------------------|-----------------------------------------|-----------------------------------|
D|---------------------------------|-----------------------------------------|-----------------------------------|
A|-6-------7------6----------------|-7------9--7--6----------------4------3--|-----------------4------6---4---3--|
E|----5--------5------9---7---5----|-----5-----------9--7--5--2--------2-----|----6---4---2--------2-------------|


E|--------------------------------|------------------------|
B|--------------------------------|------------------------|
G|--------------------------------|----4----4----4---------|
D|---------------------2---2---2--|----4----4----4---------|
A|---------------------2---2---2--|----2----2----2---------|
E|----6---4---2---0----0---0---0--|------------------------|





Track 2: Untitled

E|--------|--------|--------|--------|--------|--------|--------|--------|--------|
B|--------|--------|--------|--------|--------|--------|--------|--------|--------|
G|--------|--------|--------|--------|--------|--------|--------|--------|--------|
D|--------|--------|--------|--------|--------|--------|--------|--------|--------|
A|--------|--------|--------|--------|--------|--------|--------|--------|--------|
E|--------|--------|--------|--------|--------|--------|--------|--------|--------|


E|--------|--------|--------|--------|--------|--------|--------|--------|--------|
B|--------|--------|--------|--------|--------|--------|--------|--------|--------|
G|--------|--------|--------|--------|--------|--------|--------|--------|--------|
D|--------|--------|--------|--------|--------|--------|--------|--------|--------|
A|--------|--------|--------|--------|--------|--------|--------|--------|--------|
E|--------|--------|--------|--------|--------|--------|--------|--------|--------|


E|--------|--------|--------|--------|--------|--------|--------|--------|--------|
B|--------|--------|--------|--------|--------|--------|--------|--------|--------|
G|--------|--------|--------|--------|--------|--------|--------|--------|--------|
D|--------|--------|--------|--------|--------|--------|--------|--------|--------|
A|--------|--------|--------|--------|--------|--------|--------|--------|--------|
E|--------|--------|--------|--------|--------|--------|--------|--------|--------|


E|--------|--------|--------|--------|--------|--------|--------|--------|--------|
B|--------|--------|--------|--------|--------|--------|--------|--------|--------|
G|--------|--------|--------|--------|--------|--------|--------|--------|--------|
D|--------|--------|--------|--------|--------|--------|--------|--------|--------|
A|--------|--------|--------|--------|--------|--------|--------|--------|--------|
E|--------|--------|--------|--------|--------|--------|--------|--------|--------|


E|--------|--------|--------|--------|--------|--------|--------|--------|--------|
B|--------|--------|--------|--------|--------|--------|--------|--------|--------|
G|--------|--------|--------|--------|--------|--------|--------|--------|--------|
D|--------|--------|--------|--------|--------|--------|--------|--------|--------|
A|--------|--------|--------|--------|--------|--------|--------|--------|--------|
E|--------|--------|--------|--------|--------|--------|--------|--------|--------|


E|--------|--------|--------|--------|--------|--------|--------|--------|--------|
B|--------|--------|--------|--------|--------|--------|--------|--------|--------|
G|--------|--------|--------|--------|--------|--------|--------|--------|--------|
D|--------|--------|--------|--------|--------|--------|--------|--------|--------|
A|--------|--------|--------|--------|--------|--------|--------|--------|--------|
E|--------|--------|--------|--------|--------|--------|--------|--------|--------|


E|--------|--------|--------|--------|--------|--------|--------|--------|--------|
B|--------|--------|--------|--------|--------|--------|--------|--------|--------|
G|--------|--------|--------|--------|--------|--------|--------|--------|--------|
D|--------|--------|--------|--------|--------|--------|--------|--------|--------|
A|--------|--------|--------|--------|--------|--------|--------|--------|--------|
E|--------|--------|--------|--------|--------|--------|--------|--------|--------|


E|--------|--------|--------|--------|--------|--------|--------|--------|--------|
B|--------|--------|--------|--------|--------|--------|--------|--------|--------|
G|--------|--------|--------|--------|--------|--------|--------|--------|--------|
D|--------|--------|--------|--------|--------|--------|--------|--------|--------|
A|--------|--------|--------|--------|--------|--------|--------|--------|--------|
E|--------|--------|--------|--------|--------|--------|--------|--------|--------|


E|--------|--------|--------|--------|--------|--------|--------|--------|--------|
B|--------|--------|--------|--------|--------|--------|--------|--------|--------|
G|--------|--------|--------|--------|--------|--------|--------|--------|--------|
D|--------|--------|--------|--------|--------|--------|--------|--------|--------|
A|--------|--------|--------|--------|--------|--------|--------|--------|--------|
E|--------|--------|--------|--------|--------|--------|--------|--------|--------|


E|--------|--------|--------|--------|--------|--------|--------|--------|--------|
B|--------|--------|--------|--------|--------|--------|--------|--------|--------|
G|--------|--------|--------|--------|--------|--------|--------|--------|--------|
D|--------|--------|--------|--------|--------|--------|--------|--------|--------|
A|--------|--------|--------|--------|--------|--------|--------|--------|--------|
E|--------|--------|--------|--------|--------|--------|--------|--------|--------|


E|--------|--------|--------|--------|--------|--------|--------|--------|--------|
B|--------|--------|--------|--------|--------|--------|--------|--------|--------|
G|--------|--------|--------|--------|--------|--------|--------|--------|--------|
D|--------|--------|--------|--------|--------|--------|--------|--------|--------|
A|--------|--------|--------|--------|--------|--------|--------|--------|--------|
E|--------|--------|--------|--------|--------|--------|--------|--------|--------|


E|--------|--------|--------|--------|--------|--------|--------|--------|--------|
B|--------|--------|--------|--------|--------|--------|--------|--------|--------|
G|--------|--------|--------|--------|--------|--------|--------|--------|--------|
D|--------|--------|--------|--------|--------|--------|--------|--------|--------|
A|--------|--------|--------|--------|--------|--------|--------|--------|--------|
E|--------|--------|--------|--------|--------|--------|--------|--------|--------|


E|--------|--------|--------|--------|--------|--------|--------|--------|--------|
B|--------|--------|--------|--------|--------|--------|--------|--------|--------|
G|--------|--------|--------|--------|--------|--------|--------|--------|--------|
D|--------|--------|--------|--------|--------|--------|--------|--------|--------|
A|--------|--------|--------|--------|--------|--------|--------|--------|--------|
E|--------|--------|--------|--------|--------|--------|--------|--------|--------|


E|--------|--------|--------|--------|--------|--------|--------|--------|--------|
B|--------|--------|--------|--------|--------|--------|--------|--------|--------|
G|--------|--------|--------|--------|--------|--------|--------|--------|--------|
D|--------|--------|--------|--------|--------|--------|--------|--------|--------|
A|--------|--------|--------|--------|--------|--------|--------|--------|--------|
E|--------|--------|--------|--------|--------|--------|--------|--------|--------|


E|--------|--------|--------|--------|--------|--------|--------|--------|--------|
B|--------|--------|--------|--------|--------|--------|--------|--------|--------|
G|--------|--------|--------|--------|--------|--------|--------|--------|--------|
D|--------|--------|--------|--------|--------|--------|--------|--------|--------|
A|--------|--------|--------|--------|--------|--------|--------|--------|--------|
E|--------|--------|--------|--------|--------|--------|--------|--------|--------|


E|--------|--------|--------|--------|--------|--------|--------|--------|--------|
B|--------|--------|--------|--------|--------|--------|--------|--------|--------|
G|--------|--------|--------|--------|--------|--------|--------|--------|--------|
D|--------|--------|--------|--------|--------|--------|--------|--------|--------|
A|--------|--------|--------|--------|--------|--------|--------|--------|--------|
E|--------|--------|--------|--------|--------|--------|--------|--------|--------|


E|--------|--------|--------|--------|--------|--------|--------|--------|--------|
B|--------|--------|--------|--------|--------|--------|--------|--------|--------|
G|--------|--------|--------|--------|--------|--------|--------|--------|--------|
D|--------|--------|--------|--------|--------|--------|--------|--------|--------|
A|--------|--------|--------|--------|--------|--------|--------|--------|--------|
E|--------|--------|--------|--------|--------|--------|--------|--------|--------|


E|--------|--------|-------------------------------------------------|-------------------------5-----------------------|
B|--------|--------|-10----10----10-------10----10-------10----10----|----10----10----10----------5--6--8--6--5--------|
G|--------|--------|-------------------------------------------------|-------------------------------------------7--5--|
D|--------|--------|-------------------------------------------------|-------------------------------------------------|
A|--------|--------|-------------------------------------------------|-------------------------------------------------|
E|--------|--------|-------------------------------------------------|-------------------------------------------------|


E|-------------------------------------------------|------------------------------------------|
B|-------------------------------------------------|-------13-15-13---------------------------|
G|-7--4--------------------------------------------|-12-13----------13-12-10------------------|
D|-------7--------7--------------------------10-12-|-------------------------12-10------------|
A|----------7--8-----8--7--5-----5-----10-11-------|-------------------------------13-11------|
E|----------------------------8-----7--------------|------------------------------------------|


E|--------|--------|--------|--------|--------|--------|--------|--------|--------|
B|--------|--------|--------|--------|--------|--------|--------|--------|--------|
G|--------|--------|--------|--------|--------|--------|--------|--------|--------|
D|--------|--------|--------|--------|--------|--------|--------|--------|--------|
A|--------|--------|--------|--------|--------|--------|--------|--------|--------|
E|--------|--------|--------|--------|--------|--------|--------|--------|--------|


E|--------|--------|--------|--------|--------|--------|--------|--------|--------|
B|--------|--------|--------|--------|--------|--------|--------|--------|--------|
G|--------|--------|--------|--------|--------|--------|--------|--------|--------|
D|--------|--------|--------|--------|--------|--------|--------|--------|--------|
A|--------|--------|--------|--------|--------|--------|--------|--------|--------|
E|--------|--------|--------|--------|--------|--------|--------|--------|--------|


E|--------|--------|--------|--------|--------|--------|--------|--------|--------|
B|--------|--------|--------|--------|--------|--------|--------|--------|--------|
G|--------|--------|--------|--------|--------|--------|--------|--------|--------|
D|--------|--------|--------|--------|--------|--------|--------|--------|--------|
A|--------|--------|--------|--------|--------|--------|--------|--------|--------|
E|--------|--------|--------|--------|--------|--------|--------|--------|--------|


E|--------|--------|--------|--------|--------|--------|--------|--------|--------|
B|--------|--------|--------|--------|--------|--------|--------|--------|--------|
G|--------|--------|--------|--------|--------|--------|--------|--------|--------|
D|--------|--------|--------|--------|--------|--------|--------|--------|--------|
A|--------|--------|--------|--------|--------|--------|--------|--------|--------|
E|--------|--------|--------|--------|--------|--------|--------|--------|--------|


E|--------|--------|--------|--------|--------|--------|--------|--------|--------|
B|--------|--------|--------|--------|--------|--------|--------|--------|--------|
G|--------|--------|--------|--------|--------|--------|--------|--------|--------|
D|--------|--------|--------|--------|--------|--------|--------|--------|--------|
A|--------|--------|--------|--------|--------|--------|--------|--------|--------|
E|--------|--------|--------|--------|--------|--------|--------|--------|--------|


E|--------|--------|--------|--------|--------|--------|--------|--------|--------|
B|--------|--------|--------|--------|--------|--------|--------|--------|--------|
G|--------|--------|--------|--------|--------|--------|--------|--------|--------|
D|--------|--------|--------|--------|--------|--------|--------|--------|--------|
A|--------|--------|--------|--------|--------|--------|--------|--------|--------|
E|--------|--------|--------|--------|--------|--------|--------|--------|--------|





Track 3: Untitled

E|--------|--------|--------|--------|--------|--------|--------|--------|--------|
B|--------|--------|--------|--------|--------|--------|--------|--------|--------|
G|--------|--------|--------|--------|--------|--------|--------|--------|--------|
D|--------|--------|--------|--------|--------|--------|--------|--------|--------|
A|--------|--------|--------|--------|--------|--------|--------|--------|--------|
E|--------|--------|--------|--------|--------|--------|--------|--------|--------|


E|--------|--------|--------|--------|--------|--------|--------|--------|--------|
B|--------|--------|--------|--------|--------|--------|--------|--------|--------|
G|--------|--------|--------|--------|--------|--------|--------|--------|--------|
D|--------|--------|--------|--------|--------|--------|--------|--------|--------|
A|--------|--------|--------|--------|--------|--------|--------|--------|--------|
E|--------|--------|--------|--------|--------|--------|--------|--------|--------|


E|--------|--------|--------|--------|--------|--------|--------|--------|--------|
B|--------|--------|--------|--------|--------|--------|--------|--------|--------|
G|--------|--------|--------|--------|--------|--------|--------|--------|--------|
D|--------|--------|--------|--------|--------|--------|--------|--------|--------|
A|--------|--------|--------|--------|--------|--------|--------|--------|--------|
E|--------|--------|--------|--------|--------|--------|--------|--------|--------|


E|--------|--------|--------|--------|--------|--------|--------|--------|--------|
B|--------|--------|--------|--------|--------|--------|--------|--------|--------|
G|--------|--------|--------|--------|--------|--------|--------|--------|--------|
D|--------|--------|--------|--------|--------|--------|--------|--------|--------|
A|--------|--------|--------|--------|--------|--------|--------|--------|--------|
E|--------|--------|--------|--------|--------|--------|--------|--------|--------|


E|--------|--------|--------|--------|--------|--------|--------|--------|--------|
B|--------|--------|--------|--------|--------|--------|--------|--------|--------|
G|--------|--------|--------|--------|--------|--------|--------|--------|--------|
D|--------|--------|--------|--------|--------|--------|--------|--------|--------|
A|--------|--------|--------|--------|--------|--------|--------|--------|--------|
E|--------|--------|--------|--------|--------|--------|--------|--------|--------|


E|--------|--------|--------|--------|--------|--------|--------|--------|--------|
B|--------|--------|--------|--------|--------|--------|--------|--------|--------|
G|--------|--------|--------|--------|--------|--------|--------|--------|--------|
D|--------|--------|--------|--------|--------|--------|--------|--------|--------|
A|--------|--------|--------|--------|--------|--------|--------|--------|--------|
E|--------|--------|--------|--------|--------|--------|--------|--------|--------|


E|--------|--------|--------|--------|--------|--------|--------|--------|--------|
B|--------|--------|--------|--------|--------|--------|--------|--------|--------|
G|--------|--------|--------|--------|--------|--------|--------|--------|--------|
D|--------|--------|--------|--------|--------|--------|--------|--------|--------|
A|--------|--------|--------|--------|--------|--------|--------|--------|--------|
E|--------|--------|--------|--------|--------|--------|--------|--------|--------|


E|--------|--------|--------|--------|--------|--------|--------|--------|--------|
B|--------|--------|--------|--------|--------|--------|--------|--------|--------|
G|--------|--------|--------|--------|--------|--------|--------|--------|--------|
D|--------|--------|--------|--------|--------|--------|--------|--------|--------|
A|--------|--------|--------|--------|--------|--------|--------|--------|--------|
E|--------|--------|--------|--------|--------|--------|--------|--------|--------|


E|--------|--------|--------|--------|--------|--------|--------|--------|--------|
B|--------|--------|--------|--------|--------|--------|--------|--------|--------|
G|--------|--------|--------|--------|--------|--------|--------|--------|--------|
D|--------|--------|--------|--------|--------|--------|--------|--------|--------|
A|--------|--------|--------|--------|--------|--------|--------|--------|--------|
E|--------|--------|--------|--------|--------|--------|--------|--------|--------|


E|--------|--------|--------|--------|--------|--------|--------|--------|--------|
B|--------|--------|--------|--------|--------|--------|--------|--------|--------|
G|--------|--------|--------|--------|--------|--------|--------|--------|--------|
D|--------|--------|--------|--------|--------|--------|--------|--------|--------|
A|--------|--------|--------|--------|--------|--------|--------|--------|--------|
E|--------|--------|--------|--------|--------|--------|--------|--------|--------|


E|--------|--------|--------|--------|--------|--------|--------|--------|--------|
B|--------|--------|--------|--------|--------|--------|--------|--------|--------|
G|--------|--------|--------|--------|--------|--------|--------|--------|--------|
D|--------|--------|--------|--------|--------|--------|--------|--------|--------|
A|--------|--------|--------|--------|--------|--------|--------|--------|--------|
E|--------|--------|--------|--------|--------|--------|--------|--------|--------|


E|--------|--------|--------|--------|--------|--------|--------|--------|--------|
B|--------|--------|--------|--------|--------|--------|--------|--------|--------|
G|--------|--------|--------|--------|--------|--------|--------|--------|--------|
D|--------|--------|--------|--------|--------|--------|--------|--------|--------|
A|--------|--------|--------|--------|--------|--------|--------|--------|--------|
E|--------|--------|--------|--------|--------|--------|--------|--------|--------|


E|--------|--------|--------|--------|--------|--------|--------|--------|--------|
B|--------|--------|--------|--------|--------|--------|--------|--------|--------|
G|--------|--------|--------|--------|--------|--------|--------|--------|--------|
D|--------|--------|--------|--------|--------|--------|--------|--------|--------|
A|--------|--------|--------|--------|--------|--------|--------|--------|--------|
E|--------|--------|--------|--------|--------|--------|--------|--------|--------|


E|--------|--------|--------|--------|--------|--------|--------|--------|--------|
B|--------|--------|--------|--------|--------|--------|--------|--------|--------|
G|--------|--------|--------|--------|--------|--------|--------|--------|--------|
D|--------|--------|--------|--------|--------|--------|--------|--------|--------|
A|--------|--------|--------|--------|--------|--------|--------|--------|--------|
E|--------|--------|--------|--------|--------|--------|--------|--------|--------|


E|--------|--------|--------|--------|--------|--------|--------|--------|--------|
B|--------|--------|--------|--------|--------|--------|--------|--------|--------|
G|--------|--------|--------|--------|--------|--------|--------|--------|--------|
D|--------|--------|--------|--------|--------|--------|--------|--------|--------|
A|--------|--------|--------|--------|--------|--------|--------|--------|--------|
E|--------|--------|--------|--------|--------|--------|--------|--------|--------|


E|--------|--------|--------|--------|--------|--------|--------|--------|--------|
B|--------|--------|--------|--------|--------|--------|--------|--------|--------|
G|--------|--------|--------|--------|--------|--------|--------|--------|--------|
D|--------|--------|--------|--------|--------|--------|--------|--------|--------|
A|--------|--------|--------|--------|--------|--------|--------|--------|--------|
E|--------|--------|--------|--------|--------|--------|--------|--------|--------|


E|--------|--------|--------|--------|--------|--------|--------|--------|--------|
B|--------|--------|--------|--------|--------|--------|--------|--------|--------|
G|--------|--------|--------|--------|--------|--------|--------|--------|--------|
D|--------|--------|--------|--------|--------|--------|--------|--------|--------|
A|--------|--------|--------|--------|--------|--------|--------|--------|--------|
E|--------|--------|--------|--------|--------|--------|--------|--------|--------|


E|--------|--------|-17----17----17-------17----17-------17----17----|----17----17----17-------------|
B|--------|--------|-------------------------------------------------|-------------------------------|
G|--------|--------|-------------------------------------------------|-------------------------------|
D|--------|--------|-------------------------------------------------|-------------------------------|
A|--------|--------|-------------------------------------------------|-------------------------------|
E|--------|--------|-------------------------------------------------|-------------------------------|


E|--------|--------|--------|--------|--------|--------|--------|--------|--------|
B|--------|--------|--------|--------|--------|--------|--------|--------|--------|
G|--------|--------|--------|--------|--------|--------|--------|--------|--------|
D|--------|--------|--------|--------|--------|--------|--------|--------|--------|
A|--------|--------|--------|--------|--------|--------|--------|--------|--------|
E|--------|--------|--------|--------|--------|--------|--------|--------|--------|


E|--------|--------|--------|--------|--------|--------|--------|--------|--------|
B|--------|--------|--------|--------|--------|--------|--------|--------|--------|
G|--------|--------|--------|--------|--------|--------|--------|--------|--------|
D|--------|--------|--------|--------|--------|--------|--------|--------|--------|
A|--------|--------|--------|--------|--------|--------|--------|--------|--------|
E|--------|--------|--------|--------|--------|--------|--------|--------|--------|


E|--------|--------|--------|--------|--------|--------|--------|--------|--------|
B|--------|--------|--------|--------|--------|--------|--------|--------|--------|
G|--------|--------|--------|--------|--------|--------|--------|--------|--------|
D|--------|--------|--------|--------|--------|--------|--------|--------|--------|
A|--------|--------|--------|--------|--------|--------|--------|--------|--------|
E|--------|--------|--------|--------|--------|--------|--------|--------|--------|


E|--------|--------|--------|--------|--------|--------|--------|--------|--------|
B|--------|--------|--------|--------|--------|--------|--------|--------|--------|
G|--------|--------|--------|--------|--------|--------|--------|--------|--------|
D|--------|--------|--------|--------|--------|--------|--------|--------|--------|
A|--------|--------|--------|--------|--------|--------|--------|--------|--------|
E|--------|--------|--------|--------|--------|--------|--------|--------|--------|


E|--------|--------|--------|--------|--------|--------|--------|--------|--------|
B|--------|--------|--------|--------|--------|--------|--------|--------|--------|
G|--------|--------|--------|--------|--------|--------|--------|--------|--------|
D|--------|--------|--------|--------|--------|--------|--------|--------|--------|
A|--------|--------|--------|--------|--------|--------|--------|--------|--------|
E|--------|--------|--------|--------|--------|--------|--------|--------|--------|


E|--------|--------|--------|--------|--------|--------|--------|--------|--------|
B|--------|--------|--------|--------|--------|--------|--------|--------|--------|
G|--------|--------|--------|--------|--------|--------|--------|--------|--------|
D|--------|--------|--------|--------|--------|--------|--------|--------|--------|
A|--------|--------|--------|--------|--------|--------|--------|--------|--------|
E|--------|--------|--------|--------|--------|--------|--------|--------|--------|


E|--------|--------|
B|--------|--------|
G|--------|--------|
D|--------|--------|
A|--------|--------|
E|--------|--------|





Track 4: Untitled

G|--------|--------|--------|--------|--------|--------|--------|--------|--------|
D|--------|--------|--------|--------|--------|--------|--------|--------|--------|
A|--------|--------|--------|--------|--------|--------|--------|--------|--------|
E|--------|--------|--------|--------|--------|--------|--------|--------|--------|


G|--------|--------|--------|--------|--------|--------|--------|--------|--------|
D|--------|--------|--------|--------|--------|--------|--------|--------|--------|
A|--------|--------|--------|--------|--------|--------|--------|--------|--------|
E|--------|--------|--------|--------|--------|--------|--------|--------|--------|


G|--------|--------|--------|--------|--------|--------|--------|--------|--------|
D|--------|--------|--------|--------|--------|--------|--------|--------|--------|
A|--------|--------|--------|--------|--------|--------|--------|--------|--------|
E|--------|--------|--------|--------|--------|--------|--------|--------|--------|


G|--------|--------|--------|--------|--------|--------|--------|--------|--------|
D|--------|--------|--------|--------|--------|--------|--------|--------|--------|
A|--------|--------|--------|--------|--------|--------|--------|--------|--------|
E|--------|--------|--------|--------|--------|--------|--------|--------|--------|


G|--------|--------|--------|--------|--------|--------|--------|--------|--------|
D|--------|--------|--------|--------|--------|--------|--------|--------|--------|
A|--------|--------|--------|--------|--------|--------|--------|--------|--------|
E|--------|--------|--------|--------|--------|--------|--------|--------|--------|


G|--------|--------|--------|--------|--------|--------|--------|--------|--------|
D|--------|--------|--------|--------|--------|--------|--------|--------|--------|
A|--------|--------|--------|--------|--------|--------|--------|--------|--------|
E|--------|--------|--------|--------|--------|--------|--------|--------|--------|


G|--------|--------|--------|--------|--------|--------|--------|--------|--------|
D|--------|--------|--------|--------|--------|--------|--------|--------|--------|
A|--------|--------|--------|--------|--------|--------|--------|--------|--------|
E|--------|--------|--------|--------|--------|--------|--------|--------|--------|


G|--------|--------|--------|--------|--------|--------|--------|--------|--------|
D|--------|--------|--------|--------|--------|--------|--------|--------|--------|
A|--------|--------|--------|--------|--------|--------|--------|--------|--------|
E|--------|--------|--------|--------|--------|--------|--------|--------|--------|


G|--------|--------|--------|--------|--------|--------|--------|--------|--------|
D|--------|--------|--------|--------|--------|--------|--------|--------|--------|
A|--------|--------|--------|--------|--------|--------|--------|--------|--------|
E|--------|--------|--------|--------|--------|--------|--------|--------|--------|


G|--------|--------|--------|--------|--------|--------|--------|--------|--------|
D|--------|--------|--------|--------|--------|--------|--------|--------|--------|
A|--------|--------|--------|--------|--------|--------|--------|--------|--------|
E|--------|--------|--------|--------|--------|--------|--------|--------|--------|


G|--------|--------|--------|--------|--------|--------|--------|--------|--------|
D|--------|--------|--------|--------|--------|--------|--------|--------|--------|
A|--------|--------|--------|--------|--------|--------|--------|--------|--------|
E|--------|--------|--------|--------|--------|--------|--------|--------|--------|


G|--------|--------|--------|--------|--------|--------|--------|--------|--------|
D|--------|--------|--------|--------|--------|--------|--------|--------|--------|
A|--------|--------|--------|--------|--------|--------|--------|--------|--------|
E|--------|--------|--------|--------|--------|--------|--------|--------|--------|


G|--------|--------|--------|--------|--------|--------|--------|--------|--------|
D|--------|--------|--------|--------|--------|--------|--------|--------|--------|
A|--------|--------|--------|--------|--------|--------|--------|--------|--------|
E|--------|--------|--------|--------|--------|--------|--------|--------|--------|


G|--------|--------|--------|--------|--------|--------|--------|--------|--------|
D|--------|--------|--------|--------|--------|--------|--------|--------|--------|
A|--------|--------|--------|--------|--------|--------|--------|--------|--------|
E|--------|--------|--------|--------|--------|--------|--------|--------|--------|


G|--------|--------|--------|--------|--------|--------|--------|--------|--------|
D|--------|--------|--------|--------|--------|--------|--------|--------|--------|
A|--------|--------|--------|--------|--------|--------|--------|--------|--------|
E|--------|--------|--------|--------|--------|--------|--------|--------|--------|


G|--------|--------|--------|--------|--------|--------|--------|--------|--------|
D|--------|--------|--------|--------|--------|--------|--------|--------|--------|
A|--------|--------|--------|--------|--------|--------|--------|--------|--------|
E|--------|--------|--------|--------|--------|--------|--------|--------|--------|


G|--------|--------|--------|--------|--------|--------|--------|--------|--------|
D|--------|--------|--------|--------|--------|--------|--------|--------|--------|
A|--------|--------|--------|--------|--------|--------|--------|--------|--------|
E|--------|--------|--------|--------|--------|--------|--------|--------|--------|


G|--------|--------|--------|--------|--------|--------|--------|--------|--------|
D|--------|--------|--------|--------|--------|--------|--------|--------|--------|
A|--------|--------|--------|--------|--------|--------|--------|--------|--------|
E|--------|--------|--------|--------|--------|--------|--------|--------|--------|


G|--------|--------|--------|--------|--------|--------|--------|--------|--------|
D|--------|--------|--------|--------|--------|--------|--------|--------|--------|
A|--------|--------|--------|--------|--------|--------|--------|--------|--------|
E|--------|--------|--------|--------|--------|--------|--------|--------|--------|


G|--------|--------|--------|--------|--------|--------|--------|--------|--------|
D|--------|--------|--------|--------|--------|--------|--------|--------|--------|
A|--------|--------|--------|--------|--------|--------|--------|--------|--------|
E|--------|--------|--------|--------|--------|--------|--------|--------|--------|


G|--------|--------|--------|--------|--------|--------|--------|--------|--------|
D|--------|--------|--------|--------|--------|--------|--------|--------|--------|
A|--------|--------|--------|--------|--------|--------|--------|--------|--------|
E|--------|--------|--------|--------|--------|--------|--------|--------|--------|


G|--------|--------|--------|--------|--------|--------|--------|--------|--------|
D|--------|--------|--------|--------|--------|--------|--------|--------|--------|
A|--------|--------|--------|--------|--------|--------|--------|--------|--------|
E|--------|--------|--------|--------|--------|--------|--------|--------|--------|


G|--------|--------|--------|--------|--------|--------|--------|--------|--------|
D|--------|--------|--------|--------|--------|--------|--------|--------|--------|
A|--------|--------|--------|--------|--------|--------|--------|--------|--------|
E|--------|--------|--------|--------|--------|--------|--------|--------|--------|


G|--------|--------|--------|--------|--------|--------|
D|--------|--------|--------|--------|--------|--------|
A|--------|--------|--------|--------|--------|--------|
E|--------|--------|--------|--------|--------|--------|