Menu:

 

Search:

 

dream theater - take away my pain:

 



Title: Take Away My Pain
Artist: 
Album: Falling Into Infinity
Author: Petrucci, Myung, Portnoy, Sherinian and LaBrie


Track 1: Muted Guitar

E|--------|--------|--------|-------------------------------------------------|-------------------------------------------------|
B|--------|--------|--------|----------7--------9--------7--------7-----------|----------7--------9--------7--------7-----------|
G|--------|--------|--------|-9-----------9--------9--------9--------9-----9--|-9-----------9--------9--------9--------9-----9--|
D|--------|--------|--------|----9-----------9--------9--------9--------9-----|----9-----------9--------9--------9--------9-----|
A|--------|--------|--------|-------7-----------------------------------------|-------7-----------------------------------------|
E|--------|--------|--------|-------------------------------------------------|-------------------------------------------------|


E|-------------------------------------------------|-------------------------------------------------|
B|----------7--------9--------7--------7-----------|----------7--------9--------7--------7-----------|
G|-9-----------9--------9--------9--------9-----9--|-9-----------9--------9--------9--------9-----9--|
D|----9-----------9--------9--------9--------9-----|----9-----------9--------9--------9--------9-----|
A|-------7-----------------------------------------|-------7-----------------------------------------|
E|-------------------------------------------------|-------------------------------------------------|


E|-------------------------------------------------|-------------------------------------------------|
B|----------7--------9--------7--------7-----------|----------7--------9--------7--------7-----------|
G|-9-----------9--------9--------9--------9-----9--|-9-----------9--------9--------9--------9-----9--|
D|----9-----------9--------9--------9--------9-----|----9-----------9--------9--------9--------9-----|
A|-------7-----------------------------------------|-------7-----------------------------------------|
E|-------------------------------------------------|-------------------------------------------------|


E|-------------------------------------------------|-------------------------------------------------|
B|----------7--------9--------7--------7-----------|----------7--------9--------7--------7-----------|
G|-9-----------9--------9--------9--------9-----9--|-9-----------9--------9--------9--------9-----9--|
D|----9-----------9--------9--------9--------9-----|----9-----------9--------9--------9--------9-----|
A|-------7-----------------------------------------|-------7-----------------------------------------|
E|-------------------------------------------------|-------------------------------------------------|


E|-------------------------------------------------|-------------------------------------------------|
B|----------7--------9--------7--------7-----------|----------7--------9--------7--------7-----------|
G|-9-----------9--------9--------9--------9-----9--|-9-----------9--------9--------9--------9-----9--|
D|----9-----------9--------9--------9--------9-----|----9-----------9--------9--------9--------9-----|
A|-------7-----------------------------------------|-------7-----------------------------------------|
E|-------------------------------------------------|-------------------------------------------------|


E|-------------------------------------------------|-------------------------------------------------|
B|----------7--------9--------7--------7-----------|----------7--------9--------7--------7-----------|
G|-9-----------9--------9--------9--------9-----9--|-9-----------9--------9--------9--------9-----9--|
D|----9-----------9--------9--------9--------9-----|----9-----------9--------9--------9--------9-----|
A|-------7-----------------------------------------|-------7-----------------------------------------|
E|-------------------------------------------------|-------------------------------------------------|


E|-------------------------------------------------|-------------------------------------------------|
B|----------7--------9--------7--------7-----------|----------7--------9--------7--------7-----------|
G|-9-----------9--------9--------9--------9-----9--|-9-----------9--------9--------9--------9-----9--|
D|----9-----------9--------9--------9--------9-----|----9-----------9--------9--------9--------9-----|
A|-------7-----------------------------------------|-------7-----------------------------------------|
E|-------------------------------------------------|-------------------------------------------------|


E|-------------------------------------------------|-------------------------------------------------|
B|----------7--------9--------7--------7-----------|----------7--------9--------7--------7-----------|
G|-9-----------9--------9--------9--------9-----9--|-9-----------9--------9--------9--------9-----9--|
D|----9-----------9--------9--------9--------9-----|----9-----------9--------9--------9--------9-----|
A|-------7-----------------------------------------|-------7-----------------------------------------|
E|-------------------------------------------------|-------------------------------------------------|


E|-------------------------------------------------|-------------------------------------------------|
B|----------7--------9--------7--------7-----------|----------7--------9--------7--------7-----------|
G|-9-----------9--------9--------9--------9-----9--|-9-----------9--------9--------9--------9-----9--|
D|----9-----------9--------9--------9--------9-----|----9-----------9--------9--------9--------9-----|
A|-------7-----------------------------------------|-------7-----------------------------------------|
E|-------------------------------------------------|-------------------------------------------------|


E|-------------------------------------------------|-------------------------------------------------|
B|----------7--------9--------7--------7-----------|----------7--------9--------7--------7-----------|
G|-9-----------9--------9--------9--------9-----9--|-9-----------9--------9--------9--------9-----9--|
D|----9-----------9--------9--------9--------9-----|----9-----------9--------9--------9--------9-----|
A|-------7-----------------------------------------|-------7-----------------------------------------|
E|-------------------------------------------------|-------------------------------------------------|


E|-------------------------------------------------|-------------------------------------------------|
B|----------7--------9--------7--------7-----------|----------7--------9--------7--------7-----------|
G|-9-----------9--------9--------9--------9-----9--|-9-----------9--------9--------9--------9-----9--|
D|----9-----------9--------9--------9--------9-----|----9-----------9--------9--------9--------9-----|
A|-------7-----------------------------------------|-------7-----------------------------------------|
E|-------------------------------------------------|-------------------------------------------------|


E|-------------------------------------------------|-------------------------------------------------|
B|----------7--------9--------7--------7-----------|----------7--------9--------7--------7-----------|
G|-9-----------9--------9--------9--------9-----9--|-9-----------9--------9--------9--------9-----9--|
D|----9-----------9--------9--------9--------9-----|----9-----------9--------9--------9--------9-----|
A|-------7-----------------------------------------|-------7-----------------------------------------|
E|-------------------------------------------------|-------------------------------------------------|


E|-------------------------------------------------|-------------------------------------------------|
B|----------7--------9--------7--------7-----------|----------7--------9--------7--------7-----------|
G|-9-----------9--------9--------9--------9-----9--|-9-----------9--------9--------9--------9-----9--|
D|----9-----------9--------9--------9--------9-----|----9-----------9--------9--------9--------9-----|
A|-------7-----------------------------------------|-------7-----------------------------------------|
E|-------------------------------------------------|-------------------------------------------------|


E|-------------------------------------------------|-------------------------------------------------|
B|----------7--------9--------7--------7-----------|----------7--------9--------7--------7-----------|
G|-9-----------9--------9--------9--------9-----9--|-9-----------9--------9--------9--------9-----9--|
D|----9-----------9--------9--------9--------9-----|----9-----------9--------9--------9--------9-----|
A|-------7-----------------------------------------|-------7-----------------------------------------|
E|-------------------------------------------------|-------------------------------------------------|


E|-------------------------------------------------|-------------------------------------------------|
B|----------7--------9--------7--------7-----------|----------7--------9--------7--------7-----------|
G|-9-----------9--------9--------9--------9-----9--|-9-----------9--------9--------9--------9-----9--|
D|----9-----------9--------9--------9--------9-----|----9-----------9--------9--------9--------9-----|
A|-------7-----------------------------------------|-------7-----------------------------------------|
E|-------------------------------------------------|-------------------------------------------------|


E|-------------------------------------------------|-------------------------------------------------|
B|----------7--------9--------7--------7-----------|----------7--------9--------7--------7-----------|
G|-9-----------9--------9--------9--------9-----9--|-9-----------9--------9--------9--------9-----9--|
D|----9-----------9--------9--------9--------9-----|----9-----------9--------9--------9--------9-----|
A|-------7-----------------------------------------|-------7-----------------------------------------|
E|-------------------------------------------------|-------------------------------------------------|


E|-------------------------------------------------|-------------------------------------------------|
B|----------7--------9--------7--------7-----------|----------7--------9--------7--------7-----------|
G|-9-----------9--------9--------9--------9-----9--|-9-----------9--------9--------9--------9-----9--|
D|----9-----------9--------9--------9--------9-----|----9-----------9--------9--------9--------9-----|
A|-------7-----------------------------------------|-------7-----------------------------------------|
E|-------------------------------------------------|-------------------------------------------------|


E|-------------------------------------------------|-------------------------------------------------|
B|----------7--------9--------7--------7-----------|----------7--------9--------7--------7-----------|
G|-9-----------9--------9--------9--------9-----9--|-9-----------9--------9--------9--------9-----9--|
D|----9-----------9--------9--------9--------9-----|----9-----------9--------9--------9--------9-----|
A|-------7-----------------------------------------|-------7-----------------------------------------|
E|-------------------------------------------------|-------------------------------------------------|


E|-------------------------------------------------|-------------------------------------------------|
B|----------7--------9--------7--------7-----------|----------7--------9--------7--------7-----------|
G|-9-----------9--------9--------9--------9-----9--|-9-----------9--------9--------9--------9-----9--|
D|----9-----------9--------9--------9--------9-----|----9-----------9--------9--------9--------9-----|
A|-------7-----------------------------------------|-------7-----------------------------------------|
E|-------------------------------------------------|-------------------------------------------------|


E|-------------------------------------------------|-------------------------------------------------|
B|----------7--------9--------7--------7-----------|----------7--------9--------7--------7-----------|
G|-9-----------9--------9--------9--------9-----9--|-9-----------9--------9--------9--------9-----9--|
D|----9-----------9--------9--------9--------9-----|----9-----------9--------9--------9--------9-----|
A|-------7-----------------------------------------|-------7-----------------------------------------|
E|-------------------------------------------------|-------------------------------------------------|


E|-------------------------------------------------|-------------------------------------------------|
B|----------7--------9--------7--------7-----------|----------7--------9--------7--------7-----------|
G|-9-----------9--------9--------9--------9-----9--|-9-----------9--------9--------9--------9-----9--|
D|----9-----------9--------9--------9--------9-----|----9-----------9--------9--------9--------9-----|
A|-------7-----------------------------------------|-------7-----------------------------------------|
E|-------------------------------------------------|-------------------------------------------------|


E|-------------------------------------------------|-------------------------------------------------|
B|----------7--------9--------7--------7-----------|----------7--------9--------7--------7-----------|
G|-9-----------9--------9--------9--------9-----9--|-9-----------9--------9--------9--------9-----9--|
D|----9-----------9--------9--------9--------9-----|----9-----------9--------9--------9--------9-----|
A|-------7-----------------------------------------|-------7-----------------------------------------|
E|-------------------------------------------------|-------------------------------------------------|


E|-------------------------------------------------|-------------------------------------------------|
B|----------7--------9--------7--------7-----------|----------7--------9--------7--------7-----------|
G|-9-----------9--------9--------9--------9-----9--|-9-----------9--------9--------9--------9-----9--|
D|----9-----------9--------9--------9--------9-----|----9-----------9--------9--------9--------9-----|
A|-------7-----------------------------------------|-------7-----------------------------------------|
E|-------------------------------------------------|-------------------------------------------------|


E|-------------------------------------------------|-------------------------------------------------|
B|----------7--------9--------7--------7-----------|----------7--------9--------7--------7-----------|
G|-9-----------9--------9--------9--------9-----9--|-9-----------9--------9--------9--------9-----9--|
D|----9-----------9--------9--------9--------9-----|----9-----------9--------9--------9--------9-----|
A|-------7-----------------------------------------|-------7-----------------------------------------|
E|-------------------------------------------------|-------------------------------------------------|


E|-------------------------------------------------|-------------------------------------------------|
B|----------7--------9--------7--------7-----------|----------7--------9--------7--------7-----------|
G|-9-----------9--------9--------9--------9-----9--|-9-----------9--------9--------9--------9-----9--|
D|----9-----------9--------9--------9--------9-----|----9-----------9--------9--------9--------9-----|
A|-------7-----------------------------------------|-------7-----------------------------------------|
E|-------------------------------------------------|-------------------------------------------------|


E|-------------------------------------------------|-------------------------------------------------|
B|----------7--------9--------7--------7-----------|----------7--------9--------7--------7-----------|
G|-9-----------9--------9--------9--------9-----9--|-9-----------9--------9--------9--------9-----9--|
D|----9-----------9--------9--------9--------9-----|----9-----------9--------9--------9--------9-----|
A|-------7-----------------------------------------|-------7-----------------------------------------|
E|-------------------------------------------------|-------------------------------------------------|


E|-------------------------------------------------|-------------------------------------------------|
B|----------7--------9--------7--------7-----------|----------7--------9--------7--------7-----------|
G|-9-----------9--------9--------9--------9-----9--|-9-----------9--------9--------9--------9-----9--|
D|----9-----------9--------9--------9--------9-----|----9-----------9--------9--------9--------9-----|
A|-------7-----------------------------------------|-------7-----------------------------------------|
E|-------------------------------------------------|-------------------------------------------------|


E|-------------------------------------------------|-------------------------------------------------|
B|----------7--------9--------7--------7-----------|----------7--------9--------7--------7-----------|
G|-9-----------9--------9--------9--------9-----9--|-9-----------9--------9--------9--------9-----9--|
D|----9-----------9--------9--------9--------9-----|----9-----------9--------9--------9--------9-----|
A|-------7-----------------------------------------|-------7-----------------------------------------|
E|-------------------------------------------------|-------------------------------------------------|


E|-------------------------------------------------|-------------------------------------------------|
B|----------7--------9--------7--------7-----------|----------7--------9--------7--------7-----------|
G|-9-----------9--------9--------9--------9-----9--|-9-----------9--------9--------9--------9-----9--|
D|----9-----------9--------9--------9--------9-----|----9-----------9--------9--------9--------9-----|
A|-------7-----------------------------------------|-------7-----------------------------------------|
E|-------------------------------------------------|-------------------------------------------------|


E|-------------------------------------------------|--------|--------|--------|--------|
B|----------7--------9--------7--------7-----------|--------|--------|--------|--------|
G|-9-----------9--------9--------9--------9-----9--|--------|--------|--------|--------|
D|----9-----------9--------9--------9--------9-----|--------|--------|--------|--------|
A|-------7-----------------------------------------|--------|--------|--------|--------|
E|-------------------------------------------------|--------|--------|--------|--------|


E|--------|--------|--------|--------|--------|--------|--------|--------|--------|
B|--------|--------|--------|--------|--------|--------|--------|--------|--------|
G|--------|--------|--------|--------|--------|--------|--------|--------|--------|
D|--------|--------|--------|--------|--------|--------|--------|--------|--------|
A|--------|--------|--------|--------|--------|--------|--------|--------|--------|
E|--------|--------|--------|--------|--------|--------|--------|--------|--------|


E|--------|-------------------------------------------------|-------------------------------------------------|
B|--------|----------7--------9--------7--------7-----------|----------7--------9--------7--------7-----------|
G|--------|-9-----------9--------9--------9--------9-----9--|-9-----------9--------9--------9--------9-----9--|
D|--------|----9-----------9--------9--------9--------9-----|----9-----------9--------9--------9--------9-----|
A|--------|-------7-----------------------------------------|-------7-----------------------------------------|
E|--------|-------------------------------------------------|-------------------------------------------------|


E|-------------------------------------------------|-------------------------------------------------|
B|----------7--------9--------7--------7-----------|----------7--------9--------7--------7-----------|
G|-9-----------9--------9--------9--------9-----9--|-9-----------9--------9--------9--------9-----9--|
D|----9-----------9--------9--------9--------9-----|----9-----------9--------9--------9--------9-----|
A|-------7-----------------------------------------|-------7-----------------------------------------|
E|-------------------------------------------------|-------------------------------------------------|


E|-------------------------------------------------|-------------------------------------------------|
B|----------7--------9--------7--------7-----------|----------7--------9--------7--------7-----------|
G|-9-----------9--------9--------9--------9-----9--|-9-----------9--------9--------9--------9-----9--|
D|----9-----------9--------9--------9--------9-----|----9-----------9--------9--------9--------9-----|
A|-------7-----------------------------------------|-------7-----------------------------------------|
E|-------------------------------------------------|-------------------------------------------------|


E|-------------------------------------------------|-------------------------------------------------|
B|----------7--------9--------7--------7-----------|----------7--------9--------7--------7-----------|
G|-9-----------9--------9--------9--------9-----9--|-9-----------9--------9--------9--------9-----9--|
D|----9-----------9--------9--------9--------9-----|----9-----------9--------9--------9--------9-----|
A|-------7-----------------------------------------|-------7-----------------------------------------|
E|-------------------------------------------------|-------------------------------------------------|


E|-------------------------------------------------|-------------------------------------------------|
B|----------7--------9--------7--------7-----------|----------7--------9--------7--------7-----------|
G|-9-----------9--------9--------9--------9-----9--|-9-----------9--------9--------9--------9-----9--|
D|----9-----------9--------9--------9--------9-----|----9-----------9--------9--------9--------9-----|
A|-------7-----------------------------------------|-------7-----------------------------------------|
E|-------------------------------------------------|-------------------------------------------------|


E|-------------------------------------------------|-------------------------------------------------|
B|----------7--------9--------7--------7-----------|----------7--------9--------7--------7-----------|
G|-9-----------9--------9--------9--------9-----9--|-9-----------9--------9--------9--------9-----9--|
D|----9-----------9--------9--------9--------9-----|----9-----------9--------9--------9--------9-----|
A|-------7-----------------------------------------|-------7-----------------------------------------|
E|-------------------------------------------------|-------------------------------------------------|


E|-------------------------------------------------|-------------------------------------------------|
B|----------7--------9--------7--------7-----------|----------7--------9--------7--------7-----------|
G|-9-----------9--------9--------9--------9-----9--|-9-----------9--------9--------9--------9-----9--|
D|----9-----------9--------9--------9--------9-----|----9-----------9--------9--------9--------9-----|
A|-------7-----------------------------------------|-------7-----------------------------------------|
E|-------------------------------------------------|-------------------------------------------------|


E|-------------------------------------------------|-------------------------------------------------|
B|----------7--------9--------7--------7-----------|----------7--------9--------7--------7-----------|
G|-9-----------9--------9--------9--------9-----9--|-9-----------9--------9--------9--------9-----9--|
D|----9-----------9--------9--------9--------9-----|----9-----------9--------9--------9--------9-----|
A|-------7-----------------------------------------|-------7-----------------------------------------|
E|-------------------------------------------------|-------------------------------------------------|


E|-------------------------------------------------|-------------------------------------------------|
B|----------7--------9--------7--------7-----------|----------7--------9--------7--------7-----------|
G|-9-----------9--------9--------9--------9-----9--|-9-----------9--------9--------9--------9-----9--|
D|----9-----------9--------9--------9--------9-----|----9-----------9--------9--------9--------9-----|
A|-------7-----------------------------------------|-------7-----------------------------------------|
E|-------------------------------------------------|-------------------------------------------------|


E|-------------------------------------------------|-------------------------------------------------|
B|----------7--------9--------7--------7-----------|----------7--------9--------7--------7-----------|
G|-9-----------9--------9--------9--------9-----9--|-9-----------9--------9--------9--------9-----9--|
D|----9-----------9--------9--------9--------9-----|----9-----------9--------9--------9--------9-----|
A|-------7-----------------------------------------|-------7-----------------------------------------|
E|-------------------------------------------------|-------------------------------------------------|


E|-------------------------------------------------|-------------------------------------------------|
B|----------7--------9--------7--------7-----------|----------7--------9--------7--------7-----------|
G|-9-----------9--------9--------9--------9-----9--|-9-----------9--------9--------9--------9-----9--|
D|----9-----------9--------9--------9--------9-----|----9-----------9--------9--------9--------9-----|
A|-------7-----------------------------------------|-------7-----------------------------------------|
E|-------------------------------------------------|-------------------------------------------------|


E|-------------------------------------------------|-------------------------------------------------|
B|----------7--------9--------7--------7-----------|----------7--------9--------7--------7-----------|
G|-9-----------9--------9--------9--------9-----9--|-9-----------9--------9--------9--------9-----9--|
D|----9-----------9--------9--------9--------9-----|----9-----------9--------9--------9--------9-----|
A|-------7-----------------------------------------|-------7-----------------------------------------|
E|-------------------------------------------------|-------------------------------------------------|


E|-------------------------------------------------|-------------------------------------------------|
B|----------7--------9--------7--------7-----------|----------7--------9--------7--------7-----------|
G|-9-----------9--------9--------9--------9-----9--|-9-----------9--------9--------9--------9-----9--|
D|----9-----------9--------9--------9--------9-----|----9-----------9--------9--------9--------9-----|
A|-------7-----------------------------------------|-------7-----------------------------------------|
E|-------------------------------------------------|-------------------------------------------------|


E|-------------------------------------------------|-------------------------------------------------|
B|----------7--------9--------7--------7-----------|----------7--------9--------7--------7-----------|
G|-9-----------9--------9--------9--------9-----9--|-9-----------9--------9--------9--------9-----9--|
D|----9-----------9--------9--------9--------9-----|----9-----------9--------9--------9--------9-----|
A|-------7-----------------------------------------|-------7-----------------------------------------|
E|-------------------------------------------------|-------------------------------------------------|


E|-------------------------------------------------|-------------------------------------------------|
B|----------7--------9--------7--------7-----------|----------7--------9--------7--------7-----------|
G|-9-----------9--------9--------9--------9-----9--|-9-----------9--------9--------9--------9-----9--|
D|----9-----------9--------9--------9--------9-----|----9-----------9--------9--------9--------9-----|
A|-------7-----------------------------------------|-------7-----------------------------------------|
E|-------------------------------------------------|-------------------------------------------------|


E|-------------------------------------------------|-------------------------------------------------|
B|----------7--------9--------7--------7-----------|----------7--------9--------7--------7-----------|
G|-9-----------9--------9--------9--------9-----9--|-9-----------9--------9--------9--------9-----9--|
D|----9-----------9--------9--------9--------9-----|----9-----------9--------9--------9--------9-----|
A|-------7-----------------------------------------|-------7-----------------------------------------|
E|-------------------------------------------------|-------------------------------------------------|


E|-------------------------------------------------|-------------------------------------------------|
B|----------7--------9--------7--------7-----------|----------7--------9--------7--------7-----------|
G|-9-----------9--------9--------9--------9-----9--|-9-----------9--------9--------9--------9-----9--|
D|----9-----------9--------9--------9--------9-----|----9-----------9--------9--------9--------9-----|
A|-------7-----------------------------------------|-------7-----------------------------------------|
E|-------------------------------------------------|-------------------------------------------------|


E|-------------------------------------------------|-------------------------------------------------|
B|----------7--------9--------7--------7-----------|----------7--------9--------7--------7-----------|
G|-9-----------9--------9--------9--------9-----9--|-9-----------9--------9--------9--------9-----9--|
D|----9-----------9--------9--------9--------9-----|----9-----------9--------9--------9--------9-----|
A|-------7-----------------------------------------|-------7-----------------------------------------|
E|-------------------------------------------------|-------------------------------------------------|


E|-------------------------------------------------|-------------------------------------------------|
B|----------7--------9--------7--------7-----------|----------7--------9--------7--------7-----------|
G|-9-----------9--------9--------9--------9-----9--|-9-----------9--------9--------9--------9-----9--|
D|----9-----------9--------9--------9--------9-----|----9-----------9--------9--------9--------9-----|
A|-------7-----------------------------------------|-------7-----------------------------------------|
E|-------------------------------------------------|-------------------------------------------------|


E|--------|--------|
B|--------|--------|
G|--------|--------|
D|--------|--------|
A|--------|--------|
E|--------|--------|





Track 2: Keyboard

E|--------|--------|--------|-----------------|-----------------|-----------------|
B|--------|--------|--------|-----------------|-----------------|-----------------|
G|--------|--------|--------|-13----14----14--|-13----14----14--|-13----14----14--|
D|--------|--------|--------|-----------------|-----------------|-----------------|
A|--------|--------|--------|-----------------|-----------------|-----------------|
E|--------|--------|--------|-----------------|-----------------|-----------------|


E|-----------------|-----------------|-----------------|-----------------|-----------------|
B|-----------------|-----------------|-----------------|-----------------|-----------------|
G|-13----14----14--|-13----14----14--|-13----14----14--|-13----14----14--|-13----14----14--|
D|-----------------|-----------------|-----------------|-----------------|-----------------|
A|-----------------|-----------------|-----------------|-----------------|-----------------|
E|-----------------|-----------------|-----------------|-----------------|-----------------|


E|--------|--------|------------------|------------------|--------|--------|-------------|
B|-14-----|-16-----|-------------12---|------------------|--------|--------|-------------|
G|--------|--------|-13----14---------|-13----14----13---|-11-----|-14-----|-9-----11----|
D|--------|--------|------------------|------------------|--------|--------|-------------|
A|--------|--------|------------------|------------------|--------|--------|-------------|
E|--------|--------|------------------|------------------|--------|--------|-------------|


E|-------------|------------------|------------------|------------------|------------------|
B|-10----12----|-------------12---|-------------12---|-------------12---|-------------12---|
G|-------------|-13----14---------|-13----14---------|-13----14---------|-13----14---------|
D|-------------|------------------|------------------|------------------|------------------|
A|-------------|------------------|------------------|------------------|------------------|
E|-------------|------------------|------------------|------------------|------------------|


E|------------------|------------------|--------|--------|--------|--------|--------|
B|-------------12---|-------------12---|--------|--------|--------|--------|--------|
G|-13----14---------|-13----14---------|--------|--------|--------|--------|--------|
D|------------------|------------------|--------|--------|--------|--------|--------|
A|------------------|------------------|--------|--------|--------|--------|--------|
E|------------------|------------------|--------|--------|--------|--------|--------|


E|--------|--------|--------|--------|--------|--------|--------|--------|--------|
B|--------|--------|--------|--------|--------|--------|--------|--------|--------|
G|--------|--------|--------|--------|--------|--------|--------|--------|--------|
D|--------|--------|--------|--------|--------|--------|--------|--------|--------|
A|--------|--------|--------|--------|--------|--------|--------|--------|--------|
E|--------|--------|--------|--------|--------|--------|--------|--------|--------|


E|--------|--------|--------|--------|--------|--------|-------------|-------------|
B|--------|--------|--------|--------|--------|--------|-------------|-10----12----|
G|--------|--------|--------|--------|--------|--------|-9-----11----|-------------|
D|--------|--------|--------|--------|--------|--------|-------------|-------------|
A|--------|--------|--------|--------|--------|--------|-------------|-------------|
E|--------|--------|--------|--------|--------|--------|-------------|-------------|


E|------------------|------------------|------------------|------------------|------------------|
B|-------------12---|-------------12---|-------------12---|-------------12---|-------------12---|
G|-13----14---------|-13----14---------|-13----14---------|-13----14---------|-13----14---------|
D|------------------|------------------|------------------|------------------|------------------|
A|------------------|------------------|------------------|------------------|------------------|
E|------------------|------------------|------------------|------------------|------------------|


E|------------------|--------|--------|--------|--------|--------|--------|--------|
B|-------------12---|--------|--------|--------|--------|--------|--------|--------|
G|-13----14---------|--------|--------|--------|--------|--------|--------|--------|
D|------------------|--------|--------|--------|--------|--------|--------|--------|
A|------------------|--------|--------|--------|--------|--------|--------|--------|
E|------------------|--------|--------|--------|--------|--------|--------|--------|


E|--------|--------|--------|--------|-3------|-3------|--------|--------|------------------------|
B|--------|--------|-5------|-5------|-0------|-0------|-5------|-5------|------------------------|
G|--------|--------|-4------|-4------|--------|--------|-4------|-4------|-9----9---7----7---7----|
D|--------|--------|-5------|-5------|-2------|-2------|-5------|-5------|-9----9---7----7---7----|
A|--------|--------|-3------|-3------|-2------|-2------|-3------|-3------|-7----7---5----5---5----|
E|--------|--------|--------|--------|-0------|-0------|--------|--------|------------------------|


E|------------------------|------------------------|------------------------|------------------------|
B|------------------------|------------------------|------------------------|------------------------|
G|-9----9---7----7---7----|-5----5---7----7---7----|-5----5---7----7---7----|-9----9---7----7---7----|
D|-9----9---7----7---7----|-5----5---7----7---7----|-5----5---7----7---7----|-9----9---7----7---7----|
A|-7----7---5----5---5----|-3----3---5----5---5----|-3----3---5----5---5----|-7----7---5----5---5----|
E|------------------------|------------------------|------------------------|------------------------|


E|------------------------|------------------------|------------------------|-----------------|
B|------------------------|------------------------|------------------------|-----------------|
G|-9----9---7----7---7----|-5----5---7----7---7----|-5----5---7----7---7----|-13----14----14--|
D|-9----9---7----7---7----|-5----5---7----7---7----|-5----5---7----7---7----|-----------------|
A|-7----7---5----5---5----|-3----3---5----5---5----|-3----3---5----5---5----|-----------------|
E|------------------------|------------------------|------------------------|-----------------|


E|-----------------|-----------------|-----------------|-----------------|-----------------|
B|-----------------|-----------------|-----------------|-----------------|-----------------|
G|-13----14----14--|-13----14----14--|-13----14----14--|-13----14----14--|-13----14----14--|
D|-----------------|-----------------|-----------------|-----------------|-----------------|
A|-----------------|-----------------|-----------------|-----------------|-----------------|
E|-----------------|-----------------|-----------------|-----------------|-----------------|


E|-----------------|-----------------|--------|--------|------------------|------------------|
B|-----------------|-----------------|-14-----|-16-----|-------------12---|------------------|
G|-13----14----14--|-13----14----14--|--------|--------|-13----14---------|-13----14----13---|
D|-----------------|-----------------|--------|--------|------------------|------------------|
A|-----------------|-----------------|--------|--------|------------------|------------------|
E|-----------------|-----------------|--------|--------|------------------|------------------|


E|--------|--------|-------------|-------------|--------|--------|--------|--------|
B|--------|--------|-------------|-10----12----|--------|--------|--------|--------|
G|-11-----|-14-----|-9-----11----|-------------|--------|--------|--------|--------|
D|--------|--------|-------------|-------------|--------|--------|--------|--------|
A|--------|--------|-------------|-------------|--------|--------|--------|--------|
E|--------|--------|-------------|-------------|--------|--------|--------|--------|


E|--------|--------|--------|--------|--------|--------|--------|--------|--------|
B|--------|--------|--------|--------|--------|--------|--------|--------|--------|
G|--------|--------|--------|--------|--------|--------|--------|--------|--------|
D|--------|--------|--------|--------|--------|--------|--------|--------|--------|
A|--------|--------|--------|--------|--------|--------|--------|--------|--------|
E|--------|--------|--------|--------|--------|--------|--------|--------|--------|


E|--------|-5------|-5-----5-----|-5------|-5-----5-----|-5-----9-----|-12----12----|
B|--------|-12-----|-12----12----|-12-----|-12----10----|-12----12----|-12----12----|
G|--------|--------|-------21----|-21-----|-21----21----|-21----21----|-21----21----|
D|--------|--------|-------------|--------|-------------|-------------|-------------|
A|--------|--------|-------------|--------|-------------|-------------|-------------|
E|--------|--------|-------------|--------|-------------|-------------|-------------|


E|-12-----|-12----12----|--------|--------|
B|-12-----|-12----12----|--------|--------|
G|-21-----|-21----21----|--------|--------|
D|--------|-------------|--------|--------|
A|--------|-------------|--------|--------|
E|--------|-------------|--------|--------|





Track 3: Nice

E|--------|--------|--------|--------|--------|------------12-12-12-12-|-12----------------------------|
B|--------|--------|--------|--------|--------|------------12-12-12-12-|-12-------3--------5--5--5--5--|
G|--------|--------|--------|--------|--------|------------------------|-------------------------------|
D|--------|--------|--------|--------|--------|------------------------|-------------------------------|
A|--------|--------|--------|--------|--------|------------------------|-------------------------------|
E|--------|--------|--------|--------|--------|------------------------|-------------------------------|


E|-----------------|----------0--0--0--0--0--0--0--|-0----------------------|-----------------|
B|-5---------------|----------9--9--9--10-10-10-10-|-12------------7--7--7--|-5---------------|
G|-----------------|-------------------------------|------------------------|-----------------|
D|-----------------|-------------------------------|------------------------|-----------------|
A|-----------------|-------------------------------|------------------------|-----------------|
E|-----------------|-------------------------------|------------------------|-----------------|


E|--------|--------|--------|---------------12-12-12-|-12-12--------------|--------|
B|--------|--------|--------|---------------12-12-12-|-12-12--------------|--------|
G|--------|--------|--------|------------------------|--------------------|--------|
D|--------|--------|--------|------------------------|--------------------|--------|
A|--------|--------|--------|------------------------|--------------------|--------|
E|--------|--------|--------|------------------------|--------------------|--------|


E|--------|--------|--------|--------|--------|--------|--------|--------|--------|
B|--------|--------|--------|--------|--------|--------|--------|--------|--------|
G|--------|--------|--------|--------|--------|--------|--------|--------|--------|
D|--------|--------|--------|--------|--------|--------|--------|--------|--------|
A|--------|--------|--------|--------|--------|--------|--------|--------|--------|
E|--------|--------|--------|--------|--------|--------|--------|--------|--------|


E|--------|--------|--------|--------|--------|--------|--------|--------|--------|
B|--------|--------|--------|--------|--------|--------|--------|--------|--------|
G|--------|--------|--------|--------|--------|--------|--------|--------|--------|
D|--------|--------|--------|--------|--------|--------|--------|--------|--------|
A|--------|--------|--------|--------|--------|--------|--------|--------|--------|
E|--------|--------|--------|--------|--------|--------|--------|--------|--------|


E|--------|--------|--------|--------|--------|--------|--------|---------------12-12-12-|
B|--------|--------|--------|--------|--------|--------|--------|---------------12-12-12-|
G|--------|--------|--------|--------|--------|--------|--------|------------------------|
D|--------|--------|--------|--------|--------|--------|--------|------------------------|
A|--------|--------|--------|--------|--------|--------|--------|------------------------|
E|--------|--------|--------|--------|--------|--------|--------|------------------------|


E|-12-12--------------|--------|--------|--------|--------|--------|--------|--------|
B|-12-12--------------|--------|--------|--------|--------|--------|--------|--------|
G|--------------------|--------|--------|--------|--------|--------|--------|--------|
D|--------------------|--------|--------|--------|--------|--------|--------|--------|
A|--------------------|--------|--------|--------|--------|--------|--------|--------|
E|--------------------|--------|--------|--------|--------|--------|--------|--------|


E|--------|--------|--------|--------|--------|--------|--------|--------|--------|
B|--------|--------|--------|--------|--------|--------|--------|--------|--------|
G|--------|--------|--------|--------|--------|--------|--------|--------|--------|
D|--------|--------|--------|--------|--------|--------|--------|--------|--------|
A|--------|--------|--------|--------|--------|--------|--------|--------|--------|
E|--------|--------|--------|--------|--------|--------|--------|--------|--------|


E|--------|--------|---------------------------------------------------------------------|
B|--------|--------|-8-7-----8-7-----8-7-----8-7-----8-7-----8-7-----107-8-7-----8-7-----|
G|--------|--------|-----9-7-----9-7-----9-7-----9-7-----9-7-----9-7---------9-7-----9-7-|
D|--------|--------|---------------------------------------------------------------------|
A|--------|--------|---------------------------------------------------------------------|
E|--------|--------|---------------------------------------------------------------------|


E|---------------------------------------------------------------------|-----------------------------------------------------------------|
B|-8-7-----8-7-----8-7-----8-7-----8-7-----8-7-----107-8-7-----8-7-----|-----107-----8-7-8-7-----8-7-----107-----8-7-8-7-----8-7---------|
G|-----9-7-----9-7-----9-7-----9-7-----9-7-----9-7---------9-7-----9-7-|-9-7-----9-7---------9-7-----9-7-----9-7---------9-7-----9-7-9-7-|
D|---------------------------------------------------------------------|-----------------------------------------------------------------|
A|---------------------------------------------------------------------|-----------------------------------------------------------------|
E|---------------------------------------------------------------------|-----------------------------------------------------------------|


E|---------------------------------------------------------------------|-----------------------------------------------------------------|
B|-----------------------------8-7-8-----8-7-8-----7-8---7-------------|---------8-7-----8-7-----8-7-8-7-----8-7-----8-7-----8-7---------|
G|-9-------9---------9-----7-9-------9-7-------9-7-----9---9-7-5-7-----|-5-7---------9-7-----9-7---------9-7-----9-7-----9-7-----9-7-9-7-|
D|---7-9-10------9-10--9-10----------------------------------------9-5-|-----9-10--------------------------------------------------------|
A|-----------9-10------------------------------------------------------|-----------------------------------------------------------------|
E|---------------------------------------------------------------------|-----------------------------------------------------------------|


E|---------12------12------12------12------12----12--------12------|--------|--------|
B|-------12------12------8-------10------12--------------12------12|--------|--------|
G|-9---------119-----129-----129-----119-----9-9---9---------119---|--------|--------|
D|---9-10--------------------------------------------9-10----------|--------|--------|
A|-----------------------------------------------------------------|--------|--------|
E|-----------------------------------------------------------------|--------|--------|


E|--------|--------|--------|--------|--------|--------|--------|--------|--------|
B|--------|--------|--------|--------|--------|--------|--------|--------|--------|
G|--------|--------|--------|--------|--------|--------|--------|--------|--------|
D|--------|--------|--------|--------|--------|--------|--------|--------|--------|
A|--------|--------|--------|--------|--------|--------|--------|--------|--------|
E|--------|--------|--------|--------|--------|--------|--------|--------|--------|


E|--------|--------|--------|--------|-12--------------|-12--------------|--------|
B|--------|--------|--------|--------|-12--------------|-10--------------|--------|
G|--------|--------|--------|--------|-----------------|-----------------|--------|
D|--------|--------|--------|--------|-----------------|-----------------|--------|
A|--------|--------|--------|--------|-----------------|-----------------|--------|
E|--------|--------|--------|--------|-----------------|-----------------|--------|


E|--------|--------|--------|-16----------|--------|--------|--------|--------|--------|
B|--------|--------|-12-----|------17-----|--------|--------|--------|--------|--------|
G|--------|--------|--------|-------------|--------|--------|--------|--------|--------|
D|--------|--------|--------|-------------|--------|--------|--------|--------|--------|
A|--------|--------|--------|-------------|--------|--------|--------|--------|--------|
E|--------|--------|--------|-------------|--------|--------|--------|--------|--------|


E|--------|--------|--------|--------|--------|--------|--------|--------|--------|
B|--------|--------|--------|--------|--------|--------|--------|--------|--------|
G|--------|--------|--------|--------|--------|--------|--------|--------|--------|
D|--------|--------|--------|--------|--------|--------|--------|--------|--------|
A|--------|--------|--------|--------|--------|--------|--------|--------|--------|
E|--------|--------|--------|--------|--------|--------|--------|--------|--------|


E|--------|--------|--------|--------|--------|--------|--------|--------|--------|
B|--------|--------|--------|--------|--------|--------|--------|--------|--------|
G|--------|--------|--------|--------|--------|--------|--------|--------|--------|
D|--------|--------|--------|--------|--------|--------|--------|--------|--------|
A|--------|--------|--------|--------|--------|--------|--------|--------|--------|
E|--------|--------|--------|--------|--------|--------|--------|--------|--------|


E|--------|--------|--------|
B|--------|--------|--------|
G|--------|-9------|--------|
D|--------|--------|--------|
A|--------|--------|--------|
E|--------|--------|--------|





Track 4: Akk

E|--------|--------|--------|--------|--------|--------|--------|--------|--------|
B|--------|--------|--------|--------|--------|--------|--------|--------|--------|
G|--------|--------|--------|--------|--------|--------|--------|--------|--------|
D|--------|--------|--------|--------|--------|--------|--------|--------|--------|
A|--------|--------|--------|--------|--------|--------|--------|--------|--------|
E|--------|--------|--------|--------|--------|--------|--------|--------|--------|


E|--------|--------|--------|--------|--------|--------|--------|--------|---------0---------------0-------|
B|--------|--------|--------|--------|--------|--------|--------|--------|-----0-------0---------------0---|
G|--------|--------|--------|--------|--------|--------|--------|--------|---------------------3-----------|
D|--------|--------|--------|--------|--------|--------|--------|--------|-2---------------4---------------|
A|--------|--------|--------|--------|--------|--------|--------|--------|---------------------------------|
E|--------|--------|--------|--------|--------|--------|--------|--------|---------------------------------|


E|---------0---------------0-------|--------|--------|--------|--------|--------|--------|
B|-------------0---------------0---|--------|--------|--------|--------|--------|--------|
G|-----6---------------8-----------|--------|--------|--------|--------|--------|--------|
D|-7---------------9---------------|--------|--------|--------|--------|--------|--------|
A|---------------------------------|--------|--------|--------|--------|--------|--------|
E|---------------------------------|--------|--------|--------|--------|--------|--------|


E|--------|--------|--------|--------|--------|--------|--------|--------|--------|
B|--------|--------|--------|--------|--------|--------|--------|--------|--------|
G|--------|--------|--------|--------|--------|--------|--------|--------|--------|
D|--------|--------|--------|--------|--------|--------|--------|--------|--------|
A|--------|--------|--------|--------|--------|--------|--------|--------|--------|
E|--------|--------|--------|--------|--------|--------|--------|--------|--------|


E|--------|--------|--------|--------|--------|--------|--------|--------|--------|
B|--------|--------|--------|--------|--------|--------|--------|--------|--------|
G|--------|--------|--------|--------|--------|--------|--------|--------|--------|
D|--------|--------|--------|--------|--------|--------|--------|--------|--------|
A|--------|--------|--------|--------|--------|--------|--------|--------|--------|
E|--------|--------|--------|--------|--------|--------|--------|--------|--------|


E|--------|--------|---------0---------------0-------|---------0---------------0-------|
B|--------|--------|-----0-------0---------------0---|-------------0---------------0---|
G|--------|--------|---------------------3-----------|-----6---------------8-----------|
D|--------|--------|-2---------------4---------------|-7---------------9---------------|
A|--------|--------|---------------------------------|---------------------------------|
E|--------|--------|---------------------------------|---------------------------------|


E|--------|--------|--------|--------|--------|--------|--------|--------|--------|
B|--------|--------|--------|--------|--------|--------|--------|--------|--------|
G|--------|--------|--------|--------|--------|--------|--------|--------|--------|
D|--------|--------|--------|--------|--------|--------|--------|--------|--------|
A|--------|--------|--------|--------|--------|--------|--------|--------|--------|
E|--------|--------|--------|--------|--------|--------|--------|--------|--------|


E|--------|--------|--------|--------|--------|--------|-----3----------|-----3----------|
B|--------|--------|--------|--------|--------|--------|---------3------|---------3------|
G|--------|--------|--------|--------|--------|--------|----------------|----------------|
D|--------|--------|--------|--------|--------|--------|----------------|----------------|
A|--------|--------|--------|--------|--------|--------|-3--------------|-3--------------|
E|--------|--------|--------|--------|--------|--------|----------------|----------------|


E|-----3----------|-----3----------|-----3----------|-----3----------|--------|--------|
B|---------3------|---------3------|---------3------|---------3------|--------|--------|
G|----------------|----------------|----------------|----------------|--------|--------|
D|----------------|----------------|----------------|----------------|--------|--------|
A|----------------|----------------|-3--------------|-3--------------|--------|--------|
E|-0--------------|-0--------------|----------------|----------------|--------|--------|


E|--------|--------|--------|--------|--------|--------|--------|--------|--------|
B|--------|--------|--------|--------|--------|--------|--------|--------|--------|
G|--------|--------|--------|--------|--------|--------|--------|--------|--------|
D|--------|--------|--------|--------|--------|--------|--------|--------|--------|
A|--------|--------|--------|--------|--------|--------|--------|--------|--------|
E|--------|--------|--------|--------|--------|--------|--------|--------|--------|


E|--------|--------|--------|--------|--------|--------|--------|--------|--------|
B|--------|--------|--------|--------|--------|--------|--------|--------|--------|
G|--------|--------|--------|--------|--------|--------|--------|--------|--------|
D|--------|--------|--------|--------|--------|--------|--------|--------|--------|
A|--------|--------|--------|--------|--------|--------|--------|--------|--------|
E|--------|--------|--------|--------|--------|--------|--------|--------|--------|


E|--------|--------|---------0---------------0-------|---------0---------------0-------|
B|--------|--------|-----0-------0---------------0---|-------------0---------------0---|
G|--------|--------|---------------------3-----------|-----6---------------8-----------|
D|--------|--------|-2---------------4---------------|-7---------------9---------------|
A|--------|--------|---------------------------------|---------------------------------|
E|--------|--------|---------------------------------|---------------------------------|


E|--------|--------|--------|--------|--------|--------|--------|--------|--------|
B|--------|--------|--------|--------|--------|--------|--------|--------|--------|
G|--------|--------|--------|--------|--------|--------|--------|--------|--------|
D|--------|--------|--------|--------|--------|--------|--------|--------|--------|
A|--------|--------|--------|--------|--------|--------|--------|--------|--------|
E|--------|--------|--------|--------|--------|--------|--------|--------|--------|


E|--------|--------|--------|--------|--------|--------|--------|--------|--------|
B|--------|--------|--------|--------|--------|--------|--------|--------|--------|
G|--------|--------|--------|--------|--------|--------|--------|--------|--------|
D|--------|--------|--------|--------|--------|--------|--------|--------|--------|
A|--------|--------|--------|--------|--------|--------|--------|--------|--------|
E|--------|--------|--------|--------|--------|--------|--------|--------|--------|


E|--------|--------|--------|--------|--------|--------|
B|--------|--------|--------|--------|--------|--------|
G|--------|--------|--------|--------|--------|--------|
D|--------|--------|--------|--------|--------|--------|
A|--------|--------|--------|--------|--------|--------|
E|--------|--------|--------|--------|--------|--------|





Track 5: Distortion

E|--------|--------|--------|--------|--------|--------|--------|--------|--------|
B|--------|--------|--------|--------|--------|--------|--------|--------|--------|
G|--------|--------|--------|--------|--------|--------|--------|--------|--------|
D|--------|--------|--------|--------|--------|--------|--------|--------|--------|
A|--------|--------|--------|--------|--------|--------|--------|--------|--------|
E|--------|--------|--------|--------|--------|--------|--------|--------|--------|


E|--------|--------|--------|--------|--------|--------|--------|--------|--------|
B|--------|--------|--------|--------|--------|--------|--------|--------|--------|
G|--------|--------|--------|--------|--------|--------|--------|--------|--------|
D|--------|--------|--------|--------|--------|--------|--------|--------|--------|
A|--------|--------|--------|--------|--------|--------|--------|--------|--------|
E|--------|--------|--------|--------|--------|--------|--------|--------|--------|


E|--------|-0--0--0--0--0--0--0--0--0--0--0--0--0--0--12-12-|-0--0--0--0--0--0--0--0--0--0--0--0--0--0--12-12-|
B|--------|-9--9--9--9--9--9--10-10-10-12-12-12-9--9--12-12-|-9--9--9--9--9--9--10-10-10-12-12-12-9--9--12-12-|
G|--------|-------------------------------------------------|-------------------------------------------------|
D|--------|-------------------------------------------------|-------------------------------------------------|
A|--------|-------------------------------------------------|-------------------------------------------------|
E|--------|-------------------------------------------------|-------------------------------------------------|


E|-0--0--0--0--0--0--0--0--0--0--0--0--0--0--12-12-|-0--0--0--0--0--0--0--0--0--0--0--0--0--0--12-12-|
B|-9--9--9--9--9--9--10-10-10-12-12-12-9--9--12-12-|-9--9--9--9--9--9--10-10-10-12-12-12-9--9--12-12-|
G|-------------------------------------------------|-------------------------------------------------|
D|-------------------------------------------------|-------------------------------------------------|
A|-------------------------------------------------|-------------------------------------------------|
E|-------------------------------------------------|-------------------------------------------------|


E|-0--0--0--0--0--0--0--0--0--0--0--0--0--0--12-12-|-0--0--0--0--0--0--0--0--0--0--0--0--0--0--12-12-|
B|-9--9--9--9--9--9--10-10-10-12-12-12-9--9--12-12-|-9--9--9--9--9--9--10-10-10-12-12-12-9--9--12-12-|
G|-------------------------------------------------|-------------------------------------------------|
D|-------------------------------------------------|-------------------------------------------------|
A|-------------------------------------------------|-------------------------------------------------|
E|-------------------------------------------------|-------------------------------------------------|


E|-----------------------------------------|-----------------------------------------|
B|-17-----19-----21-----19-----19-17----17-|-17-----19-----21-----19-----19-17----17-|
G|-----16-----16-----16-----16-------16----|-----16-----16-----16-----16-------16----|
D|-----------------------------------------|-----------------------------------------|
A|-----------------------------------------|-----------------------------------------|
E|-----------------------------------------|-----------------------------------------|


E|-----------------------------------------|-----------------------------------------|
B|-17-----19-----21-----19-----19-17----17-|-17-----19-----21-----19-----19-17----17-|
G|-----16-----16-----16-----16-------16----|-----16-----16-----16-----16-------16----|
D|-----------------------------------------|-----------------------------------------|
A|-----------------------------------------|-----------------------------------------|
E|-----------------------------------------|-----------------------------------------|


E|-----------------------------------------|-----------------------------------------|
B|-17-----19-----21-----19-----19-17----17-|-17-----19-----21-----19-----19-17----17-|
G|-----16-----16-----16-----16-------16----|-----16-----16-----16-----16-------16----|
D|-----------------------------------------|-----------------------------------------|
A|-----------------------------------------|-----------------------------------------|
E|-----------------------------------------|-----------------------------------------|


E|-----------------------------------------|-----------------------------------------|
B|-17-----19-----21-----19-----19-17----17-|-17-----19-----21-----19-----19-17----17-|
G|-----16-----16-----16-----16-------16----|-----16-----16-----16-----16-------16----|
D|-----------------------------------------|-----------------------------------------|
A|-----------------------------------------|-----------------------------------------|
E|-----------------------------------------|-----------------------------------------|


E|--------|--------|-----------------|-----------------|-----------------|-----------------|
B|--------|--------|-----------------|-----------------|-----------------|-----------------|
G|--------|--------|-13----14----14--|-13----14----14--|-13----14----14--|-13----14----14--|
D|--------|--------|-----------------|-----------------|-----------------|-----------------|
A|--------|--------|-----------------|-----------------|-----------------|-----------------|
E|--------|--------|-----------------|-----------------|-----------------|-----------------|


E|--------|--------|------------------|------------------|--------|--------|--------|
B|-14-----|-16-----|-------------12---|------------------|--------|--------|--------|
G|--------|--------|-13----14---------|-13----14----13---|-11-----|-14-----|--------|
D|--------|--------|------------------|------------------|--------|--------|--------|
A|--------|--------|------------------|------------------|--------|--------|--------|
E|--------|--------|------------------|------------------|--------|--------|--------|


E|--------|-0--0--0--0--0--0--0--0--0--0--0--0--0--0--12-12-|-0--0--0--0--0--0--0--0--0--0--0--0--0--0--12-12-|
B|--------|-9--9--9--9--9--9--10-10-10-12-12-12-9--9--12-12-|-9--9--9--9--9--9--10-10-10-12-12-12-9--9--12-12-|
G|--------|-------------------------------------------------|-------------------------------------------------|
D|--------|-------------------------------------------------|-------------------------------------------------|
A|--------|-------------------------------------------------|-------------------------------------------------|
E|--------|-------------------------------------------------|-------------------------------------------------|


E|-0--0--0--0--0--0--0--0--0--0--0--0--0--0--12-12-|-0--0--0--0--0--0--0--0--0--0--0--0--0--0--12-12-|
B|-9--9--9--9--9--9--10-10-10-12-12-12-9--9--12-12-|-9--9--9--9--9--9--10-10-10-12-12-12-9--9--12-12-|
G|-------------------------------------------------|-------------------------------------------------|
D|-------------------------------------------------|-------------------------------------------------|
A|-------------------------------------------------|-------------------------------------------------|
E|-------------------------------------------------|-------------------------------------------------|


E|-0--0--0--0--0--0--0--0--0--0--0--0--0--0--12-12-|-0--0--0--0--0--0--0--0--0--0--0--0--0--0--12-12-|
B|-9--9--9--9--9--9--10-10-10-12-12-12-9--9--12-12-|-9--9--9--9--9--9--10-10-10-12-12-12-9--9--12-12-|
G|-------------------------------------------------|-------------------------------------------------|
D|-------------------------------------------------|-------------------------------------------------|
A|-------------------------------------------------|-------------------------------------------------|
E|-------------------------------------------------|-------------------------------------------------|


E|-----------------------------------------|-----------------------------------------|
B|-17-----19-----21-----19-----19-17----17-|-17-----19-----21-----19-----19-17----17-|
G|-----16-----16-----16-----16-------16----|-----16-----16-----16-----16-------16----|
D|-----------------------------------------|-----------------------------------------|
A|-----------------------------------------|-----------------------------------------|
E|-----------------------------------------|-----------------------------------------|


E|-----------------------------------------|-----------------------------------------|
B|-17-----19-----21-----19-----19-17----17-|-17-----19-----21-----19-----19-17----17-|
G|-----16-----16-----16-----16-------16----|-----16-----16-----16-----16-------16----|
D|-----------------------------------------|-----------------------------------------|
A|-----------------------------------------|-----------------------------------------|
E|-----------------------------------------|-----------------------------------------|


E|-----------------------------------------|-----------------------------------------|
B|-17-----19-----21-----19-----19-17----17-|-17-----19-----21-----19-----19-17----17-|
G|-----16-----16-----16-----16-------16----|-----16-----16-----16-----16-------16----|
D|-----------------------------------------|-----------------------------------------|
A|-----------------------------------------|-----------------------------------------|
E|-----------------------------------------|-----------------------------------------|


E|-----------------------------------------|-----------------------------------------|
B|-17-----19-----21-----19-----19-17----17-|-17-----19-----21-----19-----19-17----17-|
G|-----16-----16-----16-----16-------16----|-----16-----16-----16-----16-------16----|
D|-----------------------------------------|-----------------------------------------|
A|-----------------------------------------|-----------------------------------------|
E|-----------------------------------------|-----------------------------------------|


E|--------|--------|--------|--------|--------|--------|--------|-------------------------|
B|--------|--------|--------|--------|--------|--------|--------|------17---------15---15-|
G|--------|--------|--------|--------|--------|--------|--------|-16--------14------------|
D|--------|--------|--------|--------|--------|--------|--------|-------------------------|
A|--------|--------|--------|--------|--------|--------|--------|-------------------------|
E|--------|--------|--------|--------|--------|--------|--------|-------------------------|


E|-----------------------------------|-------------------------|-------------------14--15--17--|
B|------17---------------------------|------17---------15---15-|------17-----17----------------|
G|-16--------14----------------11-12-|-16--------14------------|-16-------14-------------------|
D|-----------------------9--12-------|-------------------------|-------------------------------|
A|-----------------9--10-------------|-------------------------|-------------------------------|
E|-----------------------------------|-------------------------|-------------------------------|


E|-17----17---17----------|----------------------------------------------------------------|
B|---------------17---18--|----20-19-17-20-19-17-201917201917201917------------------------|
G|------------------------|----------------------------------------1716-----------17-19-21-|
D|------------------------|--------------------------------------------1917-19-21----------|
A|------------------------|----------------------------------------------------------------|
E|------------------------|----------------------------------------------------------------|


E|-------------------------|---------------------------|--------|--------|--------|
B|-19---20-17----17--------|---------------------------|--------|--------|--------|
G|----------------------9--|-12--14-11---12-9----------|-9------|-9------|--------|
D|-------------------9-----|---------------------------|-9------|-9------|--------|
A|-------------------------|---------------------14----|-7------|-7------|--------|
E|-------------------------|---------------------------|--------|--------|--------|


E|--------|--------|--------|--------|--------|--------|--------|--------|--------|
B|--------|--------|--------|--------|--------|--------|--------|--------|--------|
G|--------|--------|--------|--------|--------|--------|--------|--------|--------|
D|--------|--------|--------|--------|--------|--------|--------|--------|--------|
A|--------|--------|--------|--------|--------|--------|--------|--------|--------|
E|--------|--------|--------|--------|--------|--------|--------|--------|--------|


E|--------|--------|--------|--------|-0--0--0--0--0--0--0--0--0--0--0--0--0--0--12-12-|
B|--------|--------|--------|--------|-9--9--9--9--9--9--10-10-10-12-12-12-9--9--12-12-|
G|--------|--------|--------|--------|-------------------------------------------------|
D|--------|--------|--------|--------|-------------------------------------------------|
A|--------|--------|--------|--------|-------------------------------------------------|
E|--------|--------|--------|--------|-------------------------------------------------|


E|-0--0--0--0--0--0--0--0--0--0--0--0--0--0--12-12-|-0--0--0--0--0--0--0--0--0--0--0--0--0--0--12-12-|
B|-9--9--9--9--9--9--10-10-10-12-12-12-9--9--12-12-|-9--9--9--9--9--9--10-10-10-12-12-12-9--9--12-12-|
G|-------------------------------------------------|-------------------------------------------------|
D|-------------------------------------------------|-------------------------------------------------|
A|-------------------------------------------------|-------------------------------------------------|
E|-------------------------------------------------|-------------------------------------------------|


E|-0--0--0--0--0--0--0--0--0--0--0--0--0--0--12-12-|-0--0--0--0--0--0--0--0--0--0--0--0--0--0--12-12-|
B|-9--9--9--9--9--9--10-10-10-12-12-12-9--9--12-12-|-9--9--9--9--9--9--10-10-10-12-12-12-9--9--12-12-|
G|-------------------------------------------------|-------------------------------------------------|
D|-------------------------------------------------|-------------------------------------------------|
A|-------------------------------------------------|-------------------------------------------------|
E|-------------------------------------------------|-------------------------------------------------|


E|-0--0--0--0--0--0--0--0--0--0--0--0--0--0--12-12-|-----------------------------------------|
B|-9--9--9--9--9--9--10-10-10-12-12-12-9--9--12-12-|-17-----19-----21-----19-----19-17----17-|
G|-------------------------------------------------|-----16-----16-----16-----16-------16----|
D|-------------------------------------------------|-----------------------------------------|
A|-------------------------------------------------|-----------------------------------------|
E|-------------------------------------------------|-----------------------------------------|


E|-----------------------------------------|-----------------------------------------|
B|-17-----19-----21-----19-----19-17----17-|-17-----19-----21-----19-----19-17----17-|
G|-----16-----16-----16-----16-------16----|-----16-----16-----16-----16-------16----|
D|-----------------------------------------|-----------------------------------------|
A|-----------------------------------------|-----------------------------------------|
E|-----------------------------------------|-----------------------------------------|


E|-----------------------------------------|-----------------------------------------|
B|-17-----19-----21-----19-----19-17----17-|-17-----19-----21-----19-----19-17----17-|
G|-----16-----16-----16-----16-------16----|-----16-----16-----16-----16-------16----|
D|-----------------------------------------|-----------------------------------------|
A|-----------------------------------------|-----------------------------------------|
E|-----------------------------------------|-----------------------------------------|


E|-----------------------------------------|-----------------------------------------|
B|-17-----19-----21-----19-----19-17----17-|-17-----19-----21-----19-----19-17----17-|
G|-----16-----16-----16-----16-------16----|-----16-----16-----16-----16-------16----|
D|-----------------------------------------|-----------------------------------------|
A|-----------------------------------------|-----------------------------------------|
E|-----------------------------------------|-----------------------------------------|


E|-----------------------------------------|--------|--------|--------|--------|--------|
B|-17-----19-----21-----19-----19-17----17-|--------|--------|--------|--------|--------|
G|-----16-----16-----16-----16-------16----|--------|--------|--------|--------|--------|
D|-----------------------------------------|--------|--------|--------|--------|--------|
A|-----------------------------------------|--------|--------|--------|--------|--------|
E|-----------------------------------------|--------|--------|--------|--------|--------|


E|--------|--------|--------|--------|--------|
B|--------|--------|--------|--------|--------|
G|--------|--------|--------|--------|--------|
D|--------|--------|--------|--------|--------|
A|--------|--------|--------|--------|--------|
E|--------|--------|--------|--------|--------|





Track 6: Muted Guitar

E|--------|--------|--------|--------|--------|--------|--------|--------|--------|
B|--------|--------|--------|--------|--------|--------|--------|--------|--------|
G|--------|--------|--------|--------|--------|--------|--------|--------|--------|
D|--------|--------|--------|--------|--------|--------|--------|--------|--------|
A|--------|--------|--------|--------|--------|--------|--------|--------|--------|
E|--------|--------|--------|--------|--------|--------|--------|--------|--------|


E|--------|--------|--------|--------|--------|--------|--------|--------|--------|
B|--------|--------|--------|--------|--------|--------|--------|--------|--------|
G|--------|--------|--------|--------|--------|--------|--------|--------|--------|
D|--------|--------|--------|--------|--------|--------|--------|--------|--------|
A|--------|--------|--------|--------|--------|--------|--------|--------|--------|
E|--------|--------|--------|--------|--------|--------|--------|--------|--------|


E|--------|--------|--------|--------|--------|--------|--------|------------------|
B|--------|--------|--------|--------|--------|--------|--------|-------------12---|
G|--------|--------|--------|--------|--------|--------|--------|-13----14---------|
D|--------|--------|--------|--------|--------|--------|--------|------------------|
A|--------|--------|--------|--------|--------|--------|--------|------------------|
E|--------|--------|--------|--------|--------|--------|--------|------------------|


E|------------------|------------------|------------------|------------------|------------------|
B|-------------12---|-------------12---|-------------12---|-------------12---|-------------12---|
G|-13----14---------|-13----14---------|-13----14---------|-13----14---------|-13----14---------|
D|------------------|------------------|------------------|------------------|------------------|
A|------------------|------------------|------------------|------------------|------------------|
E|------------------|------------------|------------------|------------------|------------------|


E|------------------|------------------|-24-----|--------|-----------------|----------0--0--0--0--0--0--0--|
B|-------------12---|-------------12---|--------|--------|-5---------------|----------9--9--9--10-10-10-10-|
G|-13----14---------|-13----14---------|--------|--------|-----------------|-------------------------------|
D|------------------|------------------|--------|--------|-----------------|-------------------------------|
A|------------------|------------------|--------|--------|-----------------|-------------------------------|
E|------------------|------------------|--------|--------|-----------------|-------------------------------|


E|-0----------------------|-----------------|--------|--------|--------|--------|--------|
B|-12------------7--7--7--|-5---------------|--------|--------|--------|--------|--------|
G|------------------------|-----------------|--------|--------|--------|--------|--------|
D|------------------------|-----------------|--------|--------|--------|--------|--------|
A|------------------------|-----------------|--------|--------|--------|--------|--------|
E|------------------------|-----------------|--------|--------|--------|--------|--------|


E|--------|--------|--------|--------|--------|--------|--------|--------|--------|
B|--------|--------|--------|--------|--------|--------|--------|--------|--------|
G|--------|--------|--------|--------|--------|--------|--------|--------|--------|
D|--------|--------|--------|--------|--------|--------|--------|--------|--------|
A|--------|--------|--------|--------|--------|--------|--------|--------|--------|
E|--------|--------|--------|--------|--------|--------|--------|--------|--------|


E|--------|--------|--------|--------|--------|--------|--------|--------|--------|
B|--------|--------|--------|--------|--------|--------|--------|--------|--------|
G|--------|--------|--------|--------|--------|--------|--------|--------|--------|
D|--------|--------|--------|--------|--------|--------|--------|--------|--------|
A|--------|--------|--------|--------|--------|--------|--------|--------|--------|
E|--------|--------|--------|--------|--------|--------|--------|--------|--------|


E|--------|--------|--------|--------|--------|--------|--------|--------|--------|
B|--------|--------|--------|--------|--------|--------|--------|--------|--------|
G|--------|--------|--------|--------|--------|--------|--------|--------|--------|
D|--------|--------|--------|--------|--------|--------|--------|--------|--------|
A|--------|--------|--------|--------|--------|--------|--------|--------|--------|
E|--------|--------|--------|--------|--------|--------|--------|--------|--------|


E|--------|--------|--------|--------|--------|--------|--------|--------|--------|
B|--------|--------|--------|--------|--------|--------|--------|--------|--------|
G|--------|--------|--------|--------|--------|--------|--------|--------|--------|
D|--------|--------|--------|--------|--------|--------|--------|--------|--------|
A|--------|--------|--------|--------|--------|--------|--------|--------|--------|
E|--------|--------|--------|--------|--------|--------|--------|--------|--------|


E|--------|--------|--------|--------|--------|--------|--------|--------|--------|
B|--------|--------|--------|--------|--------|--------|--------|--------|--------|
G|--------|--------|--------|--------|--------|--------|--------|--------|--------|
D|--------|--------|--------|--------|--------|--------|--------|--------|--------|
A|--------|--------|--------|--------|--------|--------|--------|--------|--------|
E|--------|--------|--------|--------|--------|--------|--------|--------|--------|


E|--------|--------|--------|--------|--------|--------|--------|--------|--------|
B|--------|--------|--------|--------|--------|--------|--------|--------|--------|
G|--------|--------|--------|--------|--------|--------|--------|--------|--------|
D|--------|--------|--------|--------|--------|--------|--------|--------|--------|
A|--------|--------|--------|--------|--------|--------|--------|--------|--------|
E|--------|--------|--------|--------|--------|--------|--------|--------|--------|


E|--------|--------|--------|--------|--------|--------|--------|--------|--------|
B|--------|--------|--------|--------|--------|--------|--------|--------|--------|
G|--------|--------|--------|--------|--------|--------|--------|--------|--------|
D|--------|--------|--------|--------|--------|--------|--------|--------|--------|
A|--------|--------|--------|--------|--------|--------|--------|--------|--------|
E|--------|--------|--------|--------|--------|--------|--------|--------|--------|


E|--------|--------|--------|--------|--------|--------|--------|--------|--------|
B|--------|--------|--------|--------|--------|--------|--------|--------|--------|
G|--------|--------|--------|--------|--------|--------|--------|--------|--------|
D|--------|--------|--------|--------|--------|--------|--------|--------|--------|
A|--------|--------|--------|--------|--------|--------|--------|--------|--------|
E|--------|--------|--------|--------|--------|--------|--------|--------|--------|





Track 7: Muted Guitar

E|--------|--------|--------|--------|--------|--------|--------|--------|--------|
B|--------|--------|--------|--------|--------|--------|--------|--------|--------|
G|--------|--------|--------|--------|--------|--------|--------|--------|--------|
D|--------|--------|--------|--------|--------|--------|--------|--------|--------|
A|--------|--------|--------|--------|--------|--------|--------|--------|--------|
E|--------|--------|--------|--------|--------|--------|--------|--------|--------|


E|--------|--------|--------|--------|--------|--------|--------|--------|--------|
B|--------|--------|--------|--------|--------|--------|--------|--------|--------|
G|--------|--------|--------|--------|--------|--------|--------|--------|--------|
D|--------|--------|--------|--------|--------|--------|--------|--------|--------|
A|--------|--------|--------|--------|--------|--------|--------|--------|--------|
E|--------|--------|--------|--------|--------|--------|--------|--------|--------|


E|--------|--------|--------|--------|--------|--------|--------|--------|--------|
B|--------|--------|--------|--------|--------|--------|--------|--------|--------|
G|--------|--------|--------|--------|--------|--------|--------|--------|--------|
D|--------|--------|--------|--------|--------|--------|--------|--------|--------|
A|--------|--------|--------|--------|--------|--------|--------|--------|--------|
E|--------|--------|--------|--------|--------|--------|--------|--------|--------|


E|--------|--------|--------|--------|--------|--------|--------|--------|--------|
B|--------|--------|--------|--------|--------|--------|--------|--------|--------|
G|--------|--------|--------|--------|--------|--------|--------|--------|--------|
D|--------|--------|--------|--------|--------|--------|--------|--------|--------|
A|--------|--------|--------|--------|--------|--------|--------|--------|--------|
E|--------|--------|--------|--------|--------|--------|--------|--------|--------|


E|--------|--------|--------|--------|--------|--------|--------|--------|--------|
B|--------|--------|--------|--------|--------|--------|--------|--------|--------|
G|--------|--------|--------|--------|--------|--------|--------|--------|--------|
D|--------|--------|--------|--------|--------|--------|--------|--------|--------|
A|--------|--------|--------|--------|--------|--------|--------|--------|--------|
E|--------|--------|--------|--------|--------|--------|--------|--------|--------|


E|--------|--------|--------|--------|--------|--------|--------|--------|------------------|
B|--------|--------|--------|--------|--------|--------|--------|--------|-------------12---|
G|--------|--------|--------|--------|--------|--------|--------|--------|-13----14---------|
D|--------|--------|--------|--------|--------|--------|--------|--------|------------------|
A|--------|--------|--------|--------|--------|--------|--------|--------|------------------|
E|--------|--------|--------|--------|--------|--------|--------|--------|------------------|


E|------------------|------------------|------------------|------------------|------------------|
B|-------------12---|-------------12---|-------------12---|-------------12---|-------------12---|
G|-13----14---------|-13----14---------|-13----14---------|-13----14---------|-13----14---------|
D|------------------|------------------|------------------|------------------|------------------|
A|------------------|------------------|------------------|------------------|------------------|
E|------------------|------------------|------------------|------------------|------------------|


E|------------------|------------------|-24-----|--------|--------|--------|--------|
B|-------------12---|-------------12---|--------|--------|--------|--------|--------|
G|-13----14---------|-13----14---------|--------|--------|--------|--------|--------|
D|------------------|------------------|--------|--------|--------|--------|--------|
A|------------------|------------------|--------|--------|--------|--------|--------|
E|------------------|------------------|--------|--------|--------|--------|--------|


E|--------|--------|--------|--------|--------|--------|--------|--------|--------|
B|--------|--------|--------|--------|--------|--------|--------|--------|--------|
G|--------|--------|--------|--------|--------|--------|--------|--------|--------|
D|--------|--------|--------|--------|--------|--------|--------|--------|--------|
A|--------|--------|--------|--------|--------|--------|--------|--------|--------|
E|--------|--------|--------|--------|--------|--------|--------|--------|--------|


E|--------|--------|--------|--------|--------|--------|--------|--------|--------|
B|--------|--------|--------|--------|--------|--------|--------|--------|--------|
G|--------|--------|--------|--------|--------|--------|--------|--------|--------|
D|--------|--------|--------|--------|--------|--------|--------|--------|--------|
A|--------|--------|--------|--------|--------|--------|--------|--------|--------|
E|--------|--------|--------|--------|--------|--------|--------|--------|--------|


E|--------|--------|--------|--------|--------|--------|--------|--------|--------|
B|--------|--------|--------|--------|--------|--------|--------|--------|--------|
G|--------|--------|--------|--------|--------|--------|--------|--------|--------|
D|--------|--------|--------|--------|--------|--------|--------|--------|--------|
A|--------|--------|--------|--------|--------|--------|--------|--------|--------|
E|--------|--------|--------|--------|--------|--------|--------|--------|--------|


E|--------|--------|--------|--------|--------|--------|--------|--------|--------|
B|--------|--------|--------|--------|--------|--------|--------|--------|--------|
G|--------|--------|--------|--------|--------|--------|--------|--------|--------|
D|--------|--------|--------|--------|--------|--------|--------|--------|--------|
A|--------|--------|--------|--------|--------|--------|--------|--------|--------|
E|--------|--------|--------|--------|--------|--------|--------|--------|--------|


E|--------|--------|--------|--------|--------|--------|--------|--------|--------|
B|--------|--------|--------|--------|--------|--------|--------|--------|--------|
G|--------|--------|--------|--------|--------|--------|--------|--------|--------|
D|--------|--------|--------|--------|--------|--------|--------|--------|--------|
A|--------|--------|--------|--------|--------|--------|--------|--------|--------|
E|--------|--------|--------|--------|--------|--------|--------|--------|--------|


E|--------|--------|--------|--------|--------|
B|--------|--------|--------|--------|--------|
G|--------|--------|--------|--------|--------|
D|--------|--------|--------|--------|--------|
A|--------|--------|--------|--------|--------|
E|--------|--------|--------|--------|--------|





Track 8: Muted Guitar

E|--------|--------|--------|--------|--------|--------|--------|--------|--------|
B|--------|--------|--------|--------|--------|--------|--------|--------|--------|
G|--------|--------|--------|--------|--------|--------|--------|--------|--------|
D|--------|--------|--------|--------|--------|--------|--------|--------|--------|
A|--------|--------|--------|--------|--------|--------|--------|--------|--------|
E|--------|--------|--------|--------|--------|--------|--------|--------|--------|


E|--------|--------|--------|--------|--------|--------|--------|--------|--------|
B|--------|--------|--------|--------|--------|--------|--------|--------|--------|
G|--------|--------|--------|--------|--------|--------|--------|--------|--------|
D|--------|--------|--------|--------|--------|--------|--------|--------|--------|
A|--------|--------|--------|--------|--------|--------|--------|--------|--------|
E|--------|--------|--------|--------|--------|--------|--------|--------|--------|


E|--------|--------|--------|--------|--------|--------|--------|--------|--------|
B|--------|--------|--------|--------|--------|--------|--------|--------|--------|
G|--------|--------|--------|--------|--------|--------|--------|--------|--------|
D|--------|--------|--------|--------|--------|--------|--------|--------|--------|
A|--------|--------|--------|--------|--------|--------|--------|--------|--------|
E|--------|--------|--------|--------|--------|--------|--------|--------|--------|


E|--------|--------|--------|--------|--------|--------|--------|--------|--------|
B|--------|--------|--------|--------|--------|--------|--------|--------|--------|
G|--------|--------|--------|--------|--------|--------|--------|--------|--------|
D|--------|--------|--------|--------|--------|--------|--------|--------|--------|
A|--------|--------|--------|--------|--------|--------|--------|--------|--------|
E|--------|--------|--------|--------|--------|--------|--------|--------|--------|


E|--------|--------|--------|--------|--------|--------|--------|--------|--------|
B|--------|--------|--------|--------|--------|--------|--------|--------|--------|
G|--------|--------|--------|--------|--------|--------|--------|--------|--------|
D|--------|--------|--------|--------|--------|--------|--------|--------|--------|
A|--------|--------|--------|--------|--------|--------|--------|--------|--------|
E|--------|--------|--------|--------|--------|--------|--------|--------|--------|


E|--------|--------|--------|--------|--------|--------|--------|--------|--------|
B|--------|--------|--------|--------|--------|--------|--------|--------|--------|
G|--------|--------|--------|--------|--------|--------|--------|--------|--------|
D|--------|--------|--------|--------|--------|--------|--------|--------|--------|
A|--------|--------|--------|--------|--------|--------|--------|--------|--------|
E|--------|--------|--------|--------|--------|--------|--------|--------|--------|


E|--------|--------|--------|--------|--------|--------|--------|--------|--------|
B|--------|--------|--------|--------|--------|--------|--------|--------|--------|
G|--------|--------|--------|--------|--------|--------|--------|--------|--------|
D|--------|--------|--------|--------|--------|--------|--------|--------|--------|
A|--------|--------|--------|--------|--------|--------|--------|--------|--------|
E|--------|--------|--------|--------|--------|--------|--------|--------|--------|


E|--------|--------|--------|--------|--------|-7-----5-----5---|-7-----5-----5---|
B|--------|--------|--------|--------|--------|-5-----3-----3---|-5-----3-----3---|
G|--------|--------|--------|--------|--------|-4-----2-----2---|-4-----2-----2---|
D|--------|--------|--------|--------|--------|-2-----0-----0---|-2-----0-----0---|
A|--------|--------|--------|--------|--------|-----------------|-----------------|
E|--------|--------|--------|--------|--------|-0---------------|-0---------------|


E|-8-----5-----5---|-8-----5-----5---|-7-----5-----5---|-7-----5-----5---|-8-----5-----5---|
B|-8-----3-----3---|-8-----3-----3---|-5-----3-----3---|-5-----3-----3---|-8-----3-----3---|
G|-5-----2-----2---|-5-----2-----2---|-4-----2-----2---|-4-----2-----2---|-5-----2-----2---|
D|-2-----0-----0---|-2-----0-----0---|-2-----0-----0---|-2-----0-----0---|-2-----0-----0---|
A|-3---------------|-3---------------|-----------------|-----------------|-3---------------|
E|-----------------|-----------------|-0---------------|-0---------------|-----------------|


E|-8-----5-----5---|--------|--------|--------|--------|--------|--------|--------|
B|-8-----3-----3---|--------|--------|--------|--------|--------|--------|--------|
G|-5-----2-----2---|--------|--------|--------|--------|--------|--------|--------|
D|-2-----0-----0---|--------|--------|--------|--------|--------|--------|--------|
A|-3---------------|--------|--------|--------|--------|--------|--------|--------|
E|-----------------|--------|--------|--------|--------|--------|--------|--------|


E|--------|--------|--------|--------|--------|--------|--------|--------|--------|
B|--------|--------|--------|--------|--------|--------|--------|--------|--------|
G|--------|--------|--------|--------|--------|--------|--------|--------|--------|
D|--------|--------|--------|--------|--------|--------|--------|--------|--------|
A|--------|--------|--------|--------|--------|--------|--------|--------|--------|
E|--------|--------|--------|--------|--------|--------|--------|--------|--------|


E|--------|--------|--------|--------|--------|--------|--------|--------|--------|
B|--------|--------|--------|--------|--------|--------|--------|--------|--------|
G|--------|--------|--------|--------|--------|--------|--------|--------|--------|
D|--------|--------|--------|--------|--------|--------|--------|--------|--------|
A|--------|--------|--------|--------|--------|--------|--------|--------|--------|
E|--------|--------|--------|--------|--------|--------|--------|--------|--------|


E|--------|--------|--------|--------|--------|--------|--------|--------|--------|
B|--------|--------|--------|--------|--------|--------|--------|--------|--------|
G|--------|--------|--------|--------|--------|--------|--------|--------|--------|
D|--------|--------|--------|--------|--------|--------|--------|--------|--------|
A|--------|--------|--------|--------|--------|--------|--------|--------|--------|
E|--------|--------|--------|--------|--------|--------|--------|--------|--------|


E|--------|--------|--------|--------|--------|--------|
B|--------|--------|--------|--------|--------|--------|
G|--------|--------|--------|--------|--------|--------|
D|--------|--------|--------|--------|--------|--------|
A|--------|--------|--------|--------|--------|--------|
E|--------|--------|--------|--------|--------|--------|





Track 9: Muted Guitar

E|--------|--------|--------|--------|--------|--------|--------|--------|--------|
B|--------|--------|--------|--------|--------|--------|--------|--------|--------|
G|--------|--------|--------|--------|--------|--------|--------|--------|--------|
D|--------|--------|--------|--------|--------|--------|--------|--------|--------|
A|--------|--------|--------|--------|--------|--------|--------|--------|--------|
E|--------|--------|--------|--------|--------|--------|--------|--------|--------|


E|--------|--------|--------|--------|--------|--------|--------|--------|--------|
B|--------|--------|--------|--------|--------|--------|--------|--------|--------|
G|--------|--------|--------|--------|--------|--------|--------|--------|--------|
D|--------|--------|--------|--------|--------|--------|--------|--------|--------|
A|--------|--------|--------|--------|--------|--------|--------|--------|--------|
E|--------|--------|--------|--------|--------|--------|--------|--------|--------|


E|--------|--------|--------|--------|--------|--------|--------|--------|--------|
B|--------|--------|--------|--------|--------|--------|--------|--------|--------|
G|--------|--------|--------|--------|--------|--------|--------|--------|--------|
D|--------|--------|--------|--------|--------|--------|--------|--------|--------|
A|--------|--------|--------|--------|--------|--------|--------|--------|--------|
E|--------|--------|--------|--------|--------|--------|--------|--------|--------|


E|--------|--------|--------|--------|--------|--------|--------|--------|--------|
B|--------|--------|--------|--------|--------|--------|--------|--------|--------|
G|--------|--------|--------|--------|--------|--------|--------|--------|--------|
D|--------|--------|--------|--------|--------|--------|--------|--------|--------|
A|--------|--------|--------|--------|--------|--------|--------|--------|--------|
E|--------|--------|--------|--------|--------|--------|--------|--------|--------|


E|--------|--------|--------|--------|--------|--------|--------|--------|--------|
B|--------|--------|--------|--------|--------|--------|--------|--------|--------|
G|--------|--------|--------|--------|--------|--------|--------|--------|--------|
D|--------|--------|--------|--------|--------|--------|--------|--------|--------|
A|--------|--------|--------|--------|--------|--------|--------|--------|--------|
E|--------|--------|--------|--------|--------|--------|--------|--------|--------|


E|--------|--------|--------|--------|--------|--------|--------|--------|--------|
B|--------|--------|--------|--------|--------|--------|--------|--------|--------|
G|--------|--------|--------|--------|--------|--------|--------|--------|--------|
D|--------|--------|--------|--------|--------|--------|--------|--------|--------|
A|--------|--------|--------|--------|--------|--------|--------|--------|--------|
E|--------|--------|--------|--------|--------|--------|--------|--------|--------|


E|--------|--------|--------|--------|--------|--------|--------|--------|--------|
B|--------|--------|--------|--------|--------|--------|--------|--------|--------|
G|--------|--------|--------|--------|--------|--------|--------|--------|--------|
D|--------|--------|--------|--------|--------|--------|--------|--------|--------|
A|--------|--------|--------|--------|--------|--------|--------|--------|--------|
E|--------|--------|--------|--------|--------|--------|--------|--------|--------|


E|--------|--------|--------|--------|--------|--------|--------|--------|--------|
B|--------|--------|--------|--------|--------|--------|--------|--------|--------|
G|--------|--------|--------|--------|--------|--------|--------|--------|--------|
D|--------|--------|--------|--------|--------|--------|--------|--------|--------|
A|--------|--------|--------|--------|--------|--------|--------|--------|--------|
E|--------|--------|--------|--------|--------|--------|--------|--------|--------|


E|--------|--------|--------|--------|--------|--------|--------|--------|--------|
B|--------|--------|--------|--------|--------|--------|--------|--------|--------|
G|--------|--------|--------|--------|--------|--------|--------|--------|--------|
D|--------|--------|--------|--------|--------|--------|--------|--------|--------|
A|--------|--------|--------|--------|--------|--------|--------|--------|--------|
E|--------|--------|--------|--------|--------|--------|--------|--------|--------|


E|--------|--------|--------|--------|--------|--------|--------|--------|--------|
B|--------|--------|--------|--------|--------|--------|--------|--------|--------|
G|--------|--------|--------|--------|--------|--------|--------|--------|--------|
D|--------|--------|--------|--------|--------|--------|--------|--------|--------|
A|--------|--------|--------|--------|--------|--------|--------|--------|--------|
E|--------|--------|--------|--------|--------|--------|--------|--------|--------|


E|--------|--------|------------------|------------------|------------------|------------------|
B|--------|--------|-------------12---|-------------12---|-------------12---|-------------12---|
G|--------|--------|-13----14---------|-13----14---------|-13----14---------|-13----14---------|
D|--------|--------|------------------|------------------|------------------|------------------|
A|--------|--------|------------------|------------------|------------------|------------------|
E|--------|--------|------------------|------------------|------------------|------------------|


E|------------------|------------------|------------------|------------------|------------------|
B|-------------12---|-------------12---|-------------12---|-------------12---|-------------12---|
G|-13----14---------|-13----14---------|-13----14---------|-13----14---------|-13----14---------|
D|------------------|------------------|------------------|------------------|------------------|
A|------------------|------------------|------------------|------------------|------------------|
E|------------------|------------------|------------------|------------------|------------------|


E|------------------|------------------|------------------|------------------|------------------|
B|-------------12---|-------------12---|-------------12---|-------------12---|-------------12---|
G|-13----14---------|-13----14---------|-13----14---------|-13----14---------|-13----14---------|
D|------------------|------------------|------------------|------------------|------------------|
A|------------------|------------------|------------------|------------------|------------------|
E|------------------|------------------|------------------|------------------|------------------|


E|--------|--------|--------|--------|--------|--------|--------|--------|--------|
B|--------|--------|--------|--------|--------|--------|--------|--------|--------|
G|--------|--------|--------|--------|--------|--------|--------|--------|--------|
D|--------|--------|--------|--------|--------|--------|--------|--------|--------|
A|--------|--------|--------|--------|--------|--------|--------|--------|--------|
E|--------|--------|--------|--------|--------|--------|--------|--------|--------|


E|--------|
B|--------|
G|--------|
D|--------|
A|--------|
E|--------|





Track 10: Muted Guitar

E|--------|--------|--------|--------|--------|--------|--------|--------|--------|
B|--------|--------|--------|--------|--------|--------|--------|--------|--------|
G|--------|--------|--------|--------|--------|--------|--------|--------|--------|
D|--------|--------|--------|--------|--------|--------|--------|--------|--------|
A|--------|--------|--------|--------|--------|--------|--------|--------|--------|
E|--------|--------|--------|--------|--------|--------|--------|--------|--------|


E|--------|--------|--------|--------|--------|--------|--------|--------|--------|
B|--------|--------|--------|--------|--------|--------|--------|--------|--------|
G|--------|--------|--------|--------|--------|--------|--------|--------|--------|
D|--------|--------|--------|--------|--------|--------|--------|--------|--------|
A|--------|--------|--------|--------|--------|--------|--------|--------|--------|
E|--------|--------|--------|--------|--------|--------|--------|--------|--------|


E|--------|--------|--------|--------|--------|--------|--------|--------|--------|
B|--------|--------|--------|--------|--------|--------|--------|--------|--------|
G|--------|--------|--------|--------|--------|--------|--------|--------|--------|
D|--------|--------|--------|--------|--------|--------|--------|--------|--------|
A|--------|--------|--------|--------|--------|--------|--------|--------|--------|
E|--------|--------|--------|--------|--------|--------|--------|--------|--------|


E|--------|--------|--------|--------|--------|--------|--------|--------|--------|
B|--------|--------|--------|--------|--------|--------|--------|--------|--------|
G|--------|--------|--------|--------|--------|--------|--------|--------|--------|
D|--------|--------|--------|--------|--------|--------|--------|--------|--------|
A|--------|--------|--------|--------|--------|--------|--------|--------|--------|
E|--------|--------|--------|--------|--------|--------|--------|--------|--------|


E|--------|--------|--------|--------|--------|--------|--------|--------|--------|
B|--------|--------|--------|--------|--------|--------|--------|--------|--------|
G|--------|--------|--------|--------|--------|--------|--------|--------|--------|
D|--------|--------|--------|--------|--------|--------|--------|--------|--------|
A|--------|--------|--------|--------|--------|--------|--------|--------|--------|
E|--------|--------|--------|--------|--------|--------|--------|--------|--------|


E|--------|--------|--------|--------|--------|--------|--------|--------|--------|
B|--------|--------|--------|--------|--------|--------|--------|--------|--------|
G|--------|--------|--------|--------|--------|--------|--------|--------|--------|
D|--------|--------|--------|--------|--------|--------|--------|--------|--------|
A|--------|--------|--------|--------|--------|--------|--------|--------|--------|
E|--------|--------|--------|--------|--------|--------|--------|--------|--------|


E|--------|--------|--------|--------|--------|--------|--------|--------|--------|
B|--------|--------|--------|--------|--------|--------|--------|--------|--------|
G|--------|--------|--------|--------|--------|--------|--------|--------|--------|
D|--------|--------|--------|--------|--------|--------|--------|--------|--------|
A|--------|--------|--------|--------|--------|--------|--------|--------|--------|
E|--------|--------|--------|--------|--------|--------|--------|--------|--------|


E|--------|--------|--------|--------|--------|--------|--------|--------|--------|
B|--------|--------|--------|--------|--------|--------|--------|--------|--------|
G|--------|--------|--------|--------|--------|--------|--------|--------|--------|
D|--------|--------|--------|--------|--------|--------|--------|--------|--------|
A|--------|--------|--------|--------|--------|--------|--------|--------|--------|
E|--------|--------|--------|--------|--------|--------|--------|--------|--------|


E|--------|--------|--------|--------|--------|--------|--------|--------|--------|
B|--------|--------|--------|--------|--------|--------|--------|--------|--------|
G|--------|--------|--------|--------|--------|--------|--------|--------|--------|
D|--------|--------|--------|--------|--------|--------|--------|--------|--------|
A|--------|--------|--------|--------|--------|--------|--------|--------|--------|
E|--------|--------|--------|--------|--------|--------|--------|--------|--------|


E|--------|--------|--------|--------|--------|--------|--------|--------|--------|
B|--------|--------|--------|--------|--------|--------|--------|--------|--------|
G|--------|--------|--------|--------|--------|--------|--------|--------|--------|
D|--------|--------|--------|--------|--------|--------|--------|--------|--------|
A|--------|--------|--------|--------|--------|--------|--------|--------|--------|
E|--------|--------|--------|--------|--------|--------|--------|--------|--------|


E|--------|--------|--------|--------|--------|--------|--------|--------|--------|
B|--------|--------|--------|--------|--------|--------|--------|--------|--------|
G|--------|--------|--------|--------|--------|--------|--------|--------|--------|
D|--------|--------|--------|--------|--------|--------|--------|--------|--------|
A|--------|--------|--------|--------|--------|--------|--------|--------|--------|
E|--------|--------|--------|--------|--------|--------|--------|--------|--------|


E|--------|--------|--------|--------|--------|--------|--------|--------|--------|
B|--------|--------|--------|--------|--------|--------|--------|--------|--------|
G|--------|--------|--------|--------|--------|--------|--------|--------|--------|
D|--------|--------|--------|--------|--------|--------|--------|--------|--------|
A|--------|--------|--------|--------|--------|--------|--------|--------|--------|
E|--------|--------|--------|--------|--------|--------|--------|--------|--------|


E|--------|--------|--------|--------|--------|--------|--------|--------|
B|--------|--------|--------|--------|--------|--------|--------|--------|
G|--------|--------|--------|--------|--------|--------|--------|--------|
D|--------|--------|--------|--------|--------|--------|--------|--------|
A|--------|--------|--------|--------|--------|--------|--------|--------|
E|--------|--------|--------|--------|--------|--------|--------|--------|





Track 11: Verse

B|--------|--------|--------|------------------------|------------------------|------------------------|
G|--------|--------|--------|------------------------|------------------------|------------------------|
D|--------|--------|--------|------------------------|------------------------|------------------------|
A|--------|--------|--------|---------------7--------|---------------7--------|---------------7--------|
E|--------|--------|--------|------------------------|------------------------|------------------------|
B|--------|--------|--------|-12-5----5--5-----------|-12-5----5--5-----------|-12-5----5--5-----------|


B|------------------------|------------------------|------------------------|------------------------|
G|------------------------|------------------------|------------------------|------------------------|
D|------------------------|------------------------|------------------------|------------------------|
A|---------------7--------|---------------7--------|---------------7--------|---------------7--------|
E|------------------------|------------------------|------------------------|------------------------|
B|-12-5----5--5-----------|-12-5----5--5-----------|-12-5----5--5-----------|-12-5----5--5-----------|


B|------------------------|------------------------|------------------------|------------------------|
G|------------------------|------------------------|------------------------|------------------------|
D|------------------------|------------------------|------------------------|------------------------|
A|---------------7--------|---------------7--------|---------------7--------|---------------7--------|
E|------------------------|-12-5----5--------------|-7--7----7--------------|------------------------|
B|-12-5----5--5-----------|------------5-----------|------------5-----------|-12-5----5--5-----------|


B|------------------------|------------------------|------------------------|--------|
G|------------------------|------------------------|------------------------|--------|
D|------------------------|------------------------|------------------------|--------|
A|---------------7--------|---------------7--------|---------------7--------|--------|
E|------------------------|-7--7----7--------------|-5--5----5--------------|--------|
B|-12-5----5--5-----------|------------5-----------|------------5-----------|--------|


B|--------|--------|--------|--------|--------|--------|--------|--------|--------|
G|--------|--------|--------|--------|--------|--------|--------|--------|--------|
D|--------|--------|--------|--------|--------|--------|--------|--------|--------|
A|--------|--------|--------|--------|--------|--------|--------|--------|--------|
E|--------|--------|--------|--------|--------|--------|--------|--------|--------|
B|--------|--------|--------|--------|--------|--------|--------|--------|--------|


B|--------|--------|--------|--------|--------|--------|------------------------|------------------------|
G|--------|--------|--------|--------|--------|--------|------------------------|------------------------|
D|--------|--------|--------|--------|--------|--------|------------------------|------------------------|
A|--------|--------|--------|--------|--------|--------|---------------7--------|---------------7--------|
E|--------|--------|--------|--------|--------|--------|-7----------------------|------------------------|
B|--------|--------|--------|--------|--------|--------|----5----5--5-----------|-12-5----5--5-----------|


B|------------------------|------------------------|------------------------|------------------------|
G|------------------------|------------------------|------------------------|------------------------|
D|------------------------|------------------------|------------------------|------------------------|
A|---------------7--------|---------------7--------|---------------7--------|---------------7--------|
E|------------------------|------------------------|------------------------|------------------------|
B|-12-5----5--5-----------|-12-5----5--5-----------|-12-5----5--5-----------|-12-5----5--5-----------|


B|------------------------|------------------------|------------------------|------------------------|
G|------------------------|------------------------|------------------------|------------------------|
D|------------------------|------------------------|------------------------|------------------------|
A|---------------7--------|---------------7--------|---------------7--------|---------------7--------|
E|-12-5----5--------------|-7--7----7--------------|------------------------|------------------------|
B|------------5-----------|------------5-----------|-12-5----5--5-----------|-12-5----5--5-----------|


B|------------------------|------------------------|--------|--------|--------|--------|
G|------------------------|------------------------|--------|--------|--------|--------|
D|------------------------|------------------------|--------|--------|--------|--------|
A|---------------7--------|---------------7--------|--------|--------|--------|--------|
E|-7--7----7--------------|-5--5----5--------------|--------|--------|--------|--------|
B|------------5-----------|------------5-----------|--------|--------|--------|--------|


B|--------|--------|--------|--------|--------|--------|--------|--------|--------|
G|--------|--------|--------|--------|--------|--------|--------|--------|--------|
D|--------|--------|--------|--------|--------|--------|--------|--------|--------|
A|--------|--------|--------|--------|--------|--------|--------|--------|--------|
E|--------|--------|--------|--------|--------|--------|--------|--------|--------|
B|--------|--------|--------|--------|--------|--------|--------|--------|--------|


B|--------|--------|--------|------------------------|--------|--------|--------|--------|
G|--------|--------|--------|------------------------|--------|--------|--------|--------|
D|--------|--------|--------|------------------------|--------|--------|--------|--------|
A|--------|--------|--------|---------------7--------|--------|--------|--------|--------|
E|--------|--------|--------|-7----------------------|--------|--------|--------|--------|
B|--------|--------|--------|----5----5--5-----------|--------|--------|--------|--------|


B|--------|--------|--------|--------|--------|--------|--------|--------|--------|
G|--------|--------|--------|--------|--------|--------|--------|--------|--------|
D|--------|--------|--------|--------|--------|--------|--------|--------|--------|
A|--------|--------|--------|--------|--------|--------|--------|--------|--------|
E|--------|--------|--------|--------|--------|--------|--------|--------|--------|
B|--------|--------|--------|--------|--------|--------|--------|--------|--------|


B|--------|--------|--------|--------|--------|------------------------|------------------------|
G|--------|--------|--------|--------|--------|------------------------|------------------------|
D|--------|--------|--------|--------|--------|------------------------|------------------------|
A|--------|--------|--------|--------|--------|---------------7--------|---------------7--------|
E|--------|--------|--------|--------|--------|------------------------|------------------------|
B|--------|--------|--------|--------|--------|-12-5----5--5-----------|-12-5----5--5-----------|


B|------------------------|------------------------|------------------------|------------------------|
G|------------------------|------------------------|------------------------|------------------------|
D|------------------------|------------------------|------------------------|------------------------|
A|---------------7--------|---------------7--------|---------------7--------|---------------7--------|
E|------------------------|------------------------|-12-5----5--------------|-7--7----7--------------|
B|-12-5----5--5-----------|-12-5----5--5-----------|------------5-----------|------------5-----------|


B|------------------------|------------------------|------------------------|------------------------|
G|------------------------|------------------------|------------------------|------------------------|
D|------------------------|------------------------|------------------------|------------------------|
A|---------------7--------|---------------7--------|---------------7--------|---------------7--------|
E|------------------------|------------------------|-7--7----7--------------|-5--5----5--------------|
B|-12-5----5--5-----------|-12-5----5--5-----------|------------5-----------|------------5-----------|


B|--------|--------|--------|--------|--------|--------|--------|--------|--------|
G|--------|--------|--------|--------|--------|--------|--------|--------|--------|
D|--------|--------|--------|--------|--------|--------|--------|--------|--------|
A|--------|--------|--------|--------|--------|--------|--------|--------|--------|
E|--------|--------|--------|--------|--------|--------|--------|--------|--------|
B|--------|--------|--------|--------|--------|--------|--------|--------|--------|


B|--------|--------|--------|--------|--------|--------|--------|--------|--------|
G|--------|--------|--------|--------|--------|--------|--------|--------|--------|
D|--------|--------|--------|--------|--------|--------|--------|--------|--------|
A|--------|--------|--------|--------|--------|--------|--------|--------|--------|
E|--------|--------|--------|--------|--------|--------|--------|--------|--------|
B|--------|--------|--------|--------|--------|--------|--------|--------|--------|


B|--------|--------|--------|--------|--------|--------|--------|--------|
G|--------|--------|--------|--------|--------|--------|--------|--------|
D|--------|--------|--------|--------|--------|--------|--------|--------|
A|--------|--------|--------|--------|--------|--------|--------|--------|
E|--------|--------|--------|--------|--------|--------|--------|--------|
B|--------|--------|--------|--------|--------|--------|--------|--------|





Track 12: Bass

B|--------|--------|--------|--------|--------|--------|--------|--------|--------|
G|--------|--------|--------|--------|--------|--------|--------|--------|--------|
D|--------|--------|--------|--------|--------|--------|--------|--------|--------|
A|--------|--------|--------|--------|--------|--------|--------|--------|--------|
E|--------|--------|--------|--------|--------|--------|--------|--------|--------|
B|--------|--------|--------|--------|--------|--------|--------|--------|--------|


B|--------|--------|--------|--------|--------|--------|--------|--------|---------------------------------|
G|--------|--------|--------|--------|--------|--------|--------|--------|---------------------------------|
D|--------|--------|--------|--------|--------|--------|--------|--------|---------------------------------|
A|--------|--------|--------|--------|--------|--------|--------|--------|---------------------------------|
E|--------|--------|--------|--------|--------|--------|--------|--------|---------------------------------|
B|--------|--------|--------|--------|--------|--------|--------|--------|-5---5---5---5---7---7---7---7---|


B|---------------------------------|---------------------------------|---------------------------------|
G|---------------------------------|---------------------------------|---------------------------------|
D|---------------------------------|---------------------------------|---------------------------------|
A|---------------------------------|---------------------------------|---------------------------------|
E|-5---5---5---5---7---7---7---7---|---------------------------------|---------------------------------|
B|---------------------------------|-5----5--5-------5----5--5-------|-5----5--5-------5----5--5-------|


B|---------------------------------|---------------------------------|---------------------------------|
G|---------------------------------|---------------------------------|---------------------------------|
D|---------------------------------|---------------------------------|---------------------------------|
A|---------------------------------|---------------------------------|---------------------------------|
E|---------------------------------|---------------------------------|------0--0------------0--0-------|
B|-3----3--3-------3----3--3-------|-3----3--3-------3----3--3-------|-2---------------2---------------|


B|---------------------------------|---------------------------------|---------------------------------|
G|---------------------------------|---------------------------------|---------------------------------|
D|---------------------------------|---------------------------------|---------------------------------|
A|---------------------------------|---------------------------------|---------------------------------|
E|-5----0--0-------5----0--0-------|---------------------------------|---------------------------------|
B|---------------------------------|-5----3--3-------5----3--3-------|-5----3--3-------5----3--3-------|


B|---------------------------------|---------------------------------|---------------------------------|
G|---------------------------------|---------------------------------|---------------------------------|
D|---------------------------------|---------------------------------|---------------------------------|
A|---------------------------------|---------------------------------|---------------------------------|
E|---------------------------------|---------------------------------|---------------------------------|
B|-5----5--5-------5----5--5-------|-5----5--5-------5----5--5-------|-3----3--3-------3----3--3-------|


B|---------------------------------|---------------------------------|---------------------------------|
G|---------------------------------|---------------------------------|---------------------------------|
D|---------------------------------|---------------------------------|---------------------------------|
A|---------------------------------|---------------------------------|---------------------------------|
E|---------------------------------|---------------------------------|-5----0--0-------5----0--0-------|
B|-3----3--3-------3----3--3-------|-2----5--5-------2----5--5-------|---------------------------------|


B|--------|--------|--------|--------|--------|--------|--------|--------|--------|
G|--------|--------|--------|--------|--------|--------|--------|--------|--------|
D|--------|--------|--------|--------|--------|--------|--------|--------|--------|
A|--------|--------|--------|--------|--------|--------|--------|--------|--------|
E|--------|--------|--------|--------|--------|--------|--------|--------|--------|
B|--------|--------|--------|--------|--------|--------|--------|--------|--------|


B|--------|--------|--------|---------------------------------|---------------------------------|
G|--------|--------|--------|---------------------------------|---------------------------------|
D|--------|--------|--------|---------------------------------|---------------------------------|
A|--------|--------|--------|---------------------------------|---------------------------------|
E|--------|--------|--------|---------------------------------|-5---5---5---5---7---7---7---7---|
B|--------|--------|--------|-5---5---5---5---7---7---7---7---|---------------------------------|


B|---------------------------------|---------------------------------|---------------------------------|
G|---------------------------------|---------------------------------|---------------------------------|
D|---------------------------------|---------------------------------|---------------------------------|
A|---------------------------------|---------------------------------|---------------------------------|
E|---------------------------------|---------------------------------|---------------------------------|
B|-5----5--5-------5----5--5-------|-5----5--5-------5----5--5-------|-3----3--3-------3----3--3-------|


B|---------------------------------|---------------------------------|---------------------------------|
G|---------------------------------|---------------------------------|---------------------------------|
D|---------------------------------|---------------------------------|---------------------------------|
A|---------------------------------|---------------------------------|---------------------------------|
E|---------------------------------|------0--0------------0--0-------|-5----0--0-------5----0--0-------|
B|-3----3--3-------3----3--3-------|-2---------------2---------------|---------------------------------|


B|---------------------------------|---------------------------------|---------------------------------|
G|---------------------------------|---------------------------------|---------------------------------|
D|---------------------------------|---------------------------------|---------------------------------|
A|---------------------------------|---------------------------------|---------------------------------|
E|---------------------------------|---------------------------------|---------------------------------|
B|-5----3--3-------5----3--3-------|-5----3--3-------5----3--3-------|-5----5--5-------5----5--5-------|


B|---------------------------------|---------------------------------|---------------------------------|
G|---------------------------------|---------------------------------|---------------------------------|
D|---------------------------------|---------------------------------|---------------------------------|
A|---------------------------------|---------------------------------|---------------------------------|
E|---------------------------------|---------------------------------|---------------------------------|
B|-5----5--5-------5----5--5-------|-3----3--3-------3----3--3-------|-3----3--3-------3----3--3-------|


B|---------------------------------|---------------------------------|--------|-------------------------------|
G|---------------------------------|---------------------------------|--------|-------------------------------|
D|---------------------------------|---------------------------------|--------|-------------------------------|
A|---------------------------------|---------------------------------|--------|-3--------3-----------3--5-----|
E|---------------------------------|-5----0--0-------5----0--0-------|--------|----------------------------2--|
B|-2----5--5-------2----5--5-------|---------------------------------|--------|-------------------5-----------|


B|-------------------------------|-------------------------------|-------------------------------|
G|-------------------------------|-------------------------------|-------------------------------|
D|-------------------------------|-------------------------------|-------------------------------|
A|-3--------3-----------------2--|----------------------------2--|----------------------3--5-----|
E|-------------------2--3--5-----|-------------------2--3--5-----|----------------------------2--|
B|-------------------------------|-5--------5--------------------|-5--------5--------5-----------|


B|-------------------------------|-------------------------------|---------------------------|
G|-------------------------------|-------------------------------|---------------------------|
D|-------------------------------|-------------------------------|---------------------------|
A|-3--------3-----------3--5-----|-3--------3-----------------2--|-------------5----5---5----|
E|----------------------------2--|-------------------2--3--5-----|---------------------------|
B|-------------------5-----------|-------------------------------|-5----5--5-----------------|


B|---------------------------|---------------------------|---------------------------|
G|---------------------------|---------------------------|---------------------------|
D|---------------------------|---------------------------|---------------------------|
A|-------------5----5---5----|---------------------------|---------------------------|
E|---------------------------|---------------------------|---------------------------|
B|-5----5--5-----------------|-1----1--1---3----3---3----|-1----1--1---3----3---3----|


B|---------------------------|---------------------------|---------------------------|
G|---------------------------|---------------------------|---------------------------|
D|---------------------------|---------------------------|---------------------------|
A|-------------5----5---5----|-------------5----5---5----|---------------------------|
E|---------------------------|---------------------------|---------------------------|
B|-5----5--5-----------------|-5----5--5-----------------|-1----1--1---3----3---3----|


B|---------------------------|--------|--------|--------|--------|--------|--------|
G|---------------------------|--------|--------|--------|--------|--------|--------|
D|---------------------------|--------|--------|--------|--------|--------|--------|
A|---------------------------|--------|--------|--------|--------|--------|--------|
E|---------------------------|--------|--------|--------|--------|--------|--------|
B|-1----1--1---3----3---3----|-5------|-5------|--------|--------|--------|--------|


B|--------|--------|--------|--------|--------|--------|--------|--------|---------------------------------|
G|--------|--------|--------|--------|--------|--------|--------|--------|---------------------------------|
D|--------|--------|--------|--------|--------|--------|--------|--------|---------------------------------|
A|--------|--------|--------|--------|--------|--------|--------|--------|---------------------------------|
E|--------|--------|--------|--------|--------|--------|--------|--------|---------------------------------|
B|--------|--------|--------|--------|--------|--------|--------|--------|-5---5---5---5---7---7---7---7---|


B|---------------------------------|---------------------------------|---------------------------------|
G|---------------------------------|---------------------------------|---------------------------------|
D|---------------------------------|---------------------------------|---------------------------------|
A|---------------------------------|---------------------------------|---------------------------------|
E|-5---5---5---5---7---7---7---7---|---------------------------------|---------------------------------|
B|---------------------------------|-5----5--5-------5----5--5-------|-5----5--5-------5----5--5-------|


B|---------------------------------|---------------------------------|---------------------------------|
G|---------------------------------|---------------------------------|---------------------------------|
D|---------------------------------|---------------------------------|---------------------------------|
A|---------------------------------|---------------------------------|---------------------------------|
E|---------------------------------|---------------------------------|------0--0------------0--0-------|
B|-3----3--3-------3----3--3-------|-3----3--3-------3----3--3-------|-2---------------2---------------|


B|---------------------------------|---------------------------------|---------------------------------|
G|---------------------------------|---------------------------------|---------------------------------|
D|---------------------------------|-------------------------2-------|-------------------------2-------|
A|---------------------------------|----------------------2----------|----------------------2----------|
E|-5----0--0-------5----0--0-------|---------------------------------|---------------------------------|
B|---------------------------------|-5----3--3-------5---------------|-5----3--3-------5---------------|


B|---------------------------------|---------------------------------|---------------------------------|
G|---------------------------------|---------------------------------|---------------------------------|
D|---------------------------------|---------------------------------|---------------------------------|
A|------7--7------------7--7-------|------7--7------------7--7-------|------5--5------------5--5-------|
E|---------------------------------|---------------------------------|---------------------------------|
B|-5---------------5---------------|-5---------------5---------------|-3---------------3---------------|


B|---------------------------------|---------------------------------|---------------------------------|
G|---------------------------------|---------------------------------|---------------------------------|
D|---------------------------------|---------------------------------|------7--7------------7--7-------|
A|------5--5------------5--5-------|------4--4------------4--4-------|---------------------------------|
E|---------------------------------|---------------------------------|-5---------------5---------------|
B|-3---------------3---------------|-2---------------2---------------|---------------------------------|


B|--------|--------|--------|--------|---------------------------|--------|--------|
G|--------|--------|--------|--------|-------7--9-----7--9-------|--------|--------|
D|--------|--------|--------|--------|---------------------------|--------|--------|
A|--------|--------|--------|--------|---------------------------|--------|--------|
E|--------|--------|--------|--------|---------------------------|--------|--------|
B|-5------|-5------|-5------|-5------|---------------------------|--------|--------|


B|--------|--------|--------|
G|--------|--------|--------|
D|--------|--------|--------|
A|--------|--------|--------|
E|--------|--------|--------|
B|--------|--------|--------|