Menu:

 

Search:

 

dream theater - stream of consciousness:

 



Title: Stream Of Consciousness
Artist: 
Album: Train Of Thought
Author: John Myung, John Petrucci, Mike Portnoy & Jordan Rudess


Track 1: Clean Guitar - John Petrucci

D#|---------------------------------|---------------------------------|---------------------------------|
A#|---------------------------------|---------------------------------|---------------------------------|
F#|-----3---2---3---2-------3-------|-2---3-------3---2---3---2-------|-3-------2---3-------3---2---3---|
C#|-0-------------------0-------0---|---------------------------------|-----------------0---------------|
G#|---------------------------------|---------3-------------------3---|-----3---------------------------|
D#|---------------------------------|---------------------------------|---------------------------------|


D#|---------------------------------|---------------------------------|---------------------------------|
A#|---------------------------------|---------------------------------|---------------------------------|
F#|-2-------3-------2---3-------3---|-2---3---2-------3-------2---3---|-----3---2---3---2-------3-------|
C#|-----0-------0-------------------|---------------------------------|-0-------------------0-------0---|
G#|-------------------------3-------|-------------3-------3-----------|---------------------------------|
D#|---------------------------------|---------------------------------|---------------------------------|


D#|---------------------------------|---------------------------------|---------------------------------|
A#|---------------------------------|---------------------------------|---------------------------------|
F#|-2---3-------3---2---3---2-------|-3-------2---3-------3---2---3---|-2-------3-------2---3-------3---|
C#|---------------------------------|-----------------0---------------|-----0-------0-------------------|
G#|---------3-------------------3---|-----3---------------------------|-------------------------3-------|
D#|---------------------------------|---------------------------------|---------------------------------|


D#|---------------------------------|--------|--------|--------|--------|--------|
A#|---------------------------------|--------|--------|--------|--------|--------|
F#|-2---3---2-------3-------2---3---|--------|--------|--------|--------|--------|
C#|---------------------------------|--------|--------|--------|--------|--------|
G#|-------------3-------3-----------|--------|--------|--------|--------|--------|
D#|---------------------------------|--------|--------|--------|--------|--------|


D#|--------|--------|--------|--------|--------|--------|--------|--------|--------|
A#|--------|--------|--------|--------|--------|--------|--------|--------|--------|
F#|--------|--------|--------|--------|--------|--------|--------|--------|--------|
C#|--------|--------|--------|--------|--------|--------|--------|--------|--------|
G#|--------|--------|--------|--------|--------|--------|--------|--------|--------|
D#|--------|--------|--------|--------|--------|--------|--------|--------|--------|


D#|--------|--------|--------|--------|--------|--------|--------|--------|--------|
A#|--------|--------|--------|--------|--------|--------|--------|--------|--------|
F#|--------|--------|--------|--------|--------|--------|--------|--------|--------|
C#|--------|--------|--------|--------|--------|--------|--------|--------|--------|
G#|--------|--------|--------|--------|--------|--------|--------|--------|--------|
D#|--------|--------|--------|--------|--------|--------|--------|--------|--------|


D#|--------|--------|--------|--------|--------|--------|--------|--------|--------|
A#|--------|--------|--------|--------|--------|--------|--------|--------|--------|
F#|--------|--------|--------|--------|--------|--------|--------|--------|--------|
C#|--------|--------|--------|--------|--------|--------|--------|--------|--------|
G#|--------|--------|--------|--------|--------|--------|--------|--------|--------|
D#|--------|--------|--------|--------|--------|--------|--------|--------|--------|


D#|--------|--------|--------|--------|--------|--------|--------|--------|--------|
A#|--------|--------|--------|--------|--------|--------|--------|--------|--------|
F#|--------|--------|--------|--------|--------|--------|--------|--------|--------|
C#|--------|--------|--------|--------|--------|--------|--------|--------|--------|
G#|--------|--------|--------|--------|--------|--------|--------|--------|--------|
D#|--------|--------|--------|--------|--------|--------|--------|--------|--------|


D#|--------|--------|--------|--------|--------|--------|--------|--------|--------|
A#|--------|--------|--------|--------|--------|--------|--------|--------|--------|
F#|--------|--------|--------|--------|--------|--------|--------|--------|--------|
C#|--------|--------|--------|--------|--------|--------|--------|--------|--------|
G#|--------|--------|--------|--------|--------|--------|--------|--------|--------|
D#|--------|--------|--------|--------|--------|--------|--------|--------|--------|


D#|--------|--------|--------|--------|--------|--------|--------|--------|--------|
A#|--------|--------|--------|--------|--------|--------|--------|--------|--------|
F#|--------|--------|--------|--------|--------|--------|--------|--------|--------|
C#|--------|--------|--------|--------|--------|--------|--------|--------|--------|
G#|--------|--------|--------|--------|--------|--------|--------|--------|--------|
D#|--------|--------|--------|--------|--------|--------|--------|--------|--------|


D#|--------|--------|--------|--------|--------|--------|--------|--------|--------|
A#|--------|--------|--------|--------|--------|--------|--------|--------|--------|
F#|--------|--------|--------|--------|--------|--------|--------|--------|--------|
C#|--------|--------|--------|--------|--------|--------|--------|--------|--------|
G#|--------|--------|--------|--------|--------|--------|--------|--------|--------|
D#|--------|--------|--------|--------|--------|--------|--------|--------|--------|


D#|--------|--------|--------|--------|--------|--------|--------|--------|--------|
A#|--------|--------|--------|--------|--------|--------|--------|--------|--------|
F#|--------|--------|--------|--------|--------|--------|--------|--------|--------|
C#|--------|--------|--------|--------|--------|--------|--------|--------|--------|
G#|--------|--------|--------|--------|--------|--------|--------|--------|--------|
D#|--------|--------|--------|--------|--------|--------|--------|--------|--------|


D#|--------|--------|--------|--------|--------|--------|--------|--------|--------|
A#|--------|--------|--------|--------|--------|--------|--------|--------|--------|
F#|--------|--------|--------|--------|--------|--------|--------|--------|--------|
C#|--------|--------|--------|--------|--------|--------|--------|--------|--------|
G#|--------|--------|--------|--------|--------|--------|--------|--------|--------|
D#|--------|--------|--------|--------|--------|--------|--------|--------|--------|


D#|-------------------------------------|-----------------------------------------|
A#|-10---------10-11--11----------------|-----------------------------------------|
F#|------12---------------------9-------|----9--10--10-9---10-12--10-9------------|
C#|----------------------11--12------12-|----------------------------------12--11-|
G#|-------------------------------------|-----------------------------------------|
D#|-------------------------------------|-----------------------------------------|


D#|-------------------------------------|-----------------------------------------|
A#|-10---------10-11--11----------------|----------------------------------11-----|
F#|------12---------------------9-------|----9--10--10-9---10-12--10-9--------12--|
C#|----------------------11--12------12-|-----------------------------------------|
G#|-------------------------------------|-----------------------------------------|
D#|-------------------------------------|-----------------------------------------|


D#|-------------------------------------|-----------------------------------------|
A#|-10---------10-11--11----------------|-----------------------------------------|
F#|------12---------------------9-------|----9--10--10-9---10-12--10-9------------|
C#|----------------------11--12------12-|----------------------------------12--11-|
G#|-------------------------------------|-----------------------------------------|
D#|-------------------------------------|-----------------------------------------|


D#|-------------------------------------|-----------------------------------------|
A#|-10---------10-11--11----------------|----------------------------------11-----|
F#|------12---------------------9-------|----9--10--10-9---10-12--10-9--------12--|
C#|----------------------11--12------12-|-----------------------------------------|
G#|-------------------------------------|-----------------------------------------|
D#|-------------------------------------|-----------------------------------------|


D#|-------------------------------------|-----------------------------------------|
A#|-10---------10-11--11----------------|-----------------------------------------|
F#|------12---------------------9-------|----9--10--10-9---10-12--10-9------------|
C#|----------------------11--12------12-|----------------------------------12--11-|
G#|-------------------------------------|-----------------------------------------|
D#|-------------------------------------|-----------------------------------------|


D#|-------------------------------------|-----------------------------------------|
A#|-10---------10-11--11----------------|----------------------------------11-----|
F#|------12---------------------9-------|----9--10--10-9---10-12--10-9--------12--|
C#|----------------------11--12------12-|-----------------------------------------|
G#|-------------------------------------|-----------------------------------------|
D#|-------------------------------------|-----------------------------------------|


D#|-------------------------------------|-----------------------------------------|
A#|-10---------10-11--11----------------|-----------------------------------------|
F#|------12---------------------9-------|----9--10--10-9---10-12--10-9------------|
C#|----------------------11--12------12-|----------------------------------12--11-|
G#|-------------------------------------|-----------------------------------------|
D#|-------------------------------------|-----------------------------------------|


D#|-------------------------------------|-----------------------------------------|
A#|-10---------10-11--11----------------|----------------------------------11-----|
F#|------12---------------------9-------|----9--10--10-9---10-12--10-9--------12--|
C#|----------------------11--12------12-|-----------------------------------------|
G#|-------------------------------------|-----------------------------------------|
D#|-------------------------------------|-----------------------------------------|


D#|--------|--------|--------|--------|--------|--------|--------|--------|--------|
A#|--------|--------|--------|--------|--------|--------|--------|--------|--------|
F#|--------|--------|--------|--------|--------|--------|--------|--------|--------|
C#|--------|--------|--------|--------|--------|--------|--------|--------|--------|
G#|--------|--------|--------|--------|--------|--------|--------|--------|--------|
D#|--------|--------|--------|--------|--------|--------|--------|--------|--------|


D#|--------|--------|--------|--------|--------|--------|--------|--------|--------|
A#|--------|--------|--------|--------|--------|--------|--------|--------|--------|
F#|--------|--------|--------|--------|--------|--------|--------|--------|--------|
C#|--------|--------|--------|--------|--------|--------|--------|--------|--------|
G#|--------|--------|--------|--------|--------|--------|--------|--------|--------|
D#|--------|--------|--------|--------|--------|--------|--------|--------|--------|


D#|--------|--------|--------|--------|--------|--------|--------|--------|--------|
A#|--------|--------|--------|--------|--------|--------|--------|--------|--------|
F#|--------|--------|--------|--------|--------|--------|--------|--------|--------|
C#|--------|--------|--------|--------|--------|--------|--------|--------|--------|
G#|--------|--------|--------|--------|--------|--------|--------|--------|--------|
D#|--------|--------|--------|--------|--------|--------|--------|--------|--------|


D#|--------|--------|--------|--------|--------|--------|--------|--------|--------|
A#|--------|--------|--------|--------|--------|--------|--------|--------|--------|
F#|--------|--------|--------|--------|--------|--------|--------|--------|--------|
C#|--------|--------|--------|--------|--------|--------|--------|--------|--------|
G#|--------|--------|--------|--------|--------|--------|--------|--------|--------|
D#|--------|--------|--------|--------|--------|--------|--------|--------|--------|


D#|--------|--------|--------|--------|--------|--------|--------|--------|--------|
A#|--------|--------|--------|--------|--------|--------|--------|--------|--------|
F#|--------|--------|--------|--------|--------|--------|--------|--------|--------|
C#|--------|--------|--------|--------|--------|--------|--------|--------|--------|
G#|--------|--------|--------|--------|--------|--------|--------|--------|--------|
D#|--------|--------|--------|--------|--------|--------|--------|--------|--------|


D#|--------|--------|--------|--------|--------|--------|--------|--------|--------|
A#|--------|--------|--------|--------|--------|--------|--------|--------|--------|
F#|--------|--------|--------|--------|--------|--------|--------|--------|--------|
C#|--------|--------|--------|--------|--------|--------|--------|--------|--------|
G#|--------|--------|--------|--------|--------|--------|--------|--------|--------|
D#|--------|--------|--------|--------|--------|--------|--------|--------|--------|


D#|--------|--------|--------|--------|--------|--------|--------|--------|--------|
A#|--------|--------|--------|--------|--------|--------|--------|--------|--------|
F#|--------|--------|--------|--------|--------|--------|--------|--------|--------|
C#|--------|--------|--------|--------|--------|--------|--------|--------|--------|
G#|--------|--------|--------|--------|--------|--------|--------|--------|--------|
D#|--------|--------|--------|--------|--------|--------|--------|--------|--------|


D#|-------9----------9--7---|-7--------7------------------------------|-----------12-----------12-10--10-----10-|
A#|-------------------------|-------9-----9---------8----------8--6---|-6------6-------------------------9------|
F#|------------9--9---------|----10-----------9--10-------------------|----6-------------12-12------------------|
C#|-------------------------|----------------------------9--9---------|---------------12------------------------|
G#|-------------------------|-----------------------------------------|-----------------------------------------|
D#|-------------------------|-----------------------------------------|-----------------------------------------|


D#|-7-----------6--------------6--4---------------|-------------------------------10----------|
A#|----------------------3--3--------------5------|-8----------8--9---9-----------------------|
F#|-------7-----------4---------------------------|------6--6------------9-----9--------10-12-|
C#|----9-----8-----5-----------------6--6------6--|-------------------------9--------12-------|
G#|-----------------------------------------------|-------------------------------------------|
D#|-----------------------------------------------|-------------------------------------------|


D#|--------------------9----------------------|--------|--------|--------|--------|
A#|-------12----------------------------------|--------|--------|--------|--------|
F#|----13----12-12--10----10-9----------7-----|--------|--------|--------|--------|
C#|-11----------------------------6--5-----6--|--------|--------|--------|--------|
G#|-------------------------------------------|--------|--------|--------|--------|
D#|-------------------------------------------|--------|--------|--------|--------|


D#|--------|--------|--------|--------|--------|--------|--------|--------|--------|
A#|--------|--------|--------|--------|--------|--------|--------|--------|--------|
F#|--------|--------|--------|--------|--------|--------|--------|--------|--------|
C#|--------|--------|--------|--------|--------|--------|--------|--------|--------|
G#|--------|--------|--------|--------|--------|--------|--------|--------|--------|
D#|--------|--------|--------|--------|--------|--------|--------|--------|--------|


D#|--------|------9----------9--7---7-------|-----------------------------------------|
A#|--------|--------------------------------|-9-----------8----------8--6---6---------|
F#|--------|-----------9--9------------10---|----------6-----------------------6---7--|
C#|--------|--------------------------------|----6--9----------9--9-------------------|
G#|--------|--------------------------------|-----------------------------------------|
D#|--------|--------------------------------|-----------------------------------------|


D#|-12-------------12-10--10-----10-7-----------|-6--------------6--4-----------------------|
A#|--------------------------9------------------|----------3--3--------------5------8-------|
F#|----12----12-12------------------------7-----|-------0--------------------------------6--|
C#|-------12---------------------------9-----8--|----5-----------------6--6------6----------|
G#|---------------------------------------------|-------------------------------------------|
D#|---------------------------------------------|-------------------------------------------|


D#|-----------------------10----------------------|-----------------------------|--------|
A#|----8--9---9-----------------11----------12----|-----------------------------|--------|
F#|-6------------9-----9-----10----12----13----12-|-12-----10-10-9----9---------|--------|
C#|-----------------9-----------------11----------|-----9-----------------------|--------|
G#|-----------------------------------------------|-----------------------------|--------|
D#|-----------------------------------------------|-----------------------------|--------|


D#|--------|--------|--------|--------|--------|--------|--------|--------|--------|
A#|--------|--------|--------|--------|--------|--------|--------|--------|--------|
F#|--------|--------|--------|--------|--------|--------|--------|--------|--------|
C#|--------|--------|--------|--------|--------|--------|--------|--------|--------|
G#|--------|--------|--------|--------|--------|--------|--------|--------|--------|
D#|--------|--------|--------|--------|--------|--------|--------|--------|--------|


D#|--------|--------|--------|--------|--------|--------|--------|--------|--------|
A#|--------|--------|--------|--------|--------|--------|--------|--------|--------|
F#|--------|--------|--------|--------|--------|--------|--------|--------|--------|
C#|--------|--------|--------|--------|--------|--------|--------|--------|--------|
G#|--------|--------|--------|--------|--------|--------|--------|--------|--------|
D#|--------|--------|--------|--------|--------|--------|--------|--------|--------|


D#|--------|--------|--------|--------|--------|--------|--------|--------|--------|
A#|--------|--------|--------|--------|--------|--------|--------|--------|--------|
F#|--------|--------|--------|--------|--------|--------|--------|--------|--------|
C#|--------|--------|--------|--------|--------|--------|--------|--------|--------|
G#|--------|--------|--------|--------|--------|--------|--------|--------|--------|
D#|--------|--------|--------|--------|--------|--------|--------|--------|--------|


D#|--------|--------|--------|--------|--------|--------|--------|--------|--------|
A#|--------|--------|--------|--------|--------|--------|--------|--------|--------|
F#|--------|--------|--------|--------|--------|--------|--------|--------|--------|
C#|--------|--------|--------|--------|--------|--------|--------|--------|--------|
G#|--------|--------|--------|--------|--------|--------|--------|--------|--------|
D#|--------|--------|--------|--------|--------|--------|--------|--------|--------|


D#|--------|--------|--------|--------|--------|--------|--------|--------|--------|
A#|--------|--------|--------|--------|--------|--------|--------|--------|--------|
F#|--------|--------|--------|--------|--------|--------|--------|--------|--------|
C#|--------|--------|--------|--------|--------|--------|--------|--------|--------|
G#|--------|--------|--------|--------|--------|--------|--------|--------|--------|
D#|--------|--------|--------|--------|--------|--------|--------|--------|--------|


D#|--------|--------|--------|--------|--------|--------|--------|--------|--------|
A#|--------|--------|--------|--------|--------|--------|--------|--------|--------|
F#|--------|--------|--------|--------|--------|--------|--------|--------|--------|
C#|--------|--------|--------|--------|--------|--------|--------|--------|--------|
G#|--------|--------|--------|--------|--------|--------|--------|--------|--------|
D#|--------|--------|--------|--------|--------|--------|--------|--------|--------|


D#|--------|--------|--------|--------|--------|--------|--------|--------|--------|
A#|--------|--------|--------|--------|--------|--------|--------|--------|--------|
F#|--------|--------|--------|--------|--------|--------|--------|--------|--------|
C#|--------|--------|--------|--------|--------|--------|--------|--------|--------|
G#|--------|--------|--------|--------|--------|--------|--------|--------|--------|
D#|--------|--------|--------|--------|--------|--------|--------|--------|--------|


D#|--------|--------|--------|--------|--------|--------|--------|--------|--------|
A#|--------|--------|--------|--------|--------|--------|--------|--------|--------|
F#|--------|--------|--------|--------|--------|--------|--------|--------|--------|
C#|--------|--------|--------|--------|--------|--------|--------|--------|--------|
G#|--------|--------|--------|--------|--------|--------|--------|--------|--------|
D#|--------|--------|--------|--------|--------|--------|--------|--------|--------|


D#|--------|--------|--------|--------|--------|--------|--------|--------|--------|
A#|--------|--------|--------|--------|--------|--------|--------|--------|--------|
F#|--------|--------|--------|--------|--------|--------|--------|--------|--------|
C#|--------|--------|--------|--------|--------|--------|--------|--------|--------|
G#|--------|--------|--------|--------|--------|--------|--------|--------|--------|
D#|--------|--------|--------|--------|--------|--------|--------|--------|--------|


D#|--------|--------|--------|--------|--------|--------|--------|--------|--------|
A#|--------|--------|--------|--------|--------|--------|--------|--------|--------|
F#|--------|--------|--------|--------|--------|--------|--------|--------|--------|
C#|--------|--------|--------|--------|--------|--------|--------|--------|--------|
G#|--------|--------|--------|--------|--------|--------|--------|--------|--------|
D#|--------|--------|--------|--------|--------|--------|--------|--------|--------|


D#|--------|--------|--------|--------|--------|--------|--------|--------|--------|
A#|--------|--------|--------|--------|--------|--------|--------|--------|--------|
F#|--------|--------|--------|--------|--------|--------|--------|--------|--------|
C#|--------|--------|--------|--------|--------|--------|--------|--------|--------|
G#|--------|--------|--------|--------|--------|--------|--------|--------|--------|
D#|--------|--------|--------|--------|--------|--------|--------|--------|--------|


D#|--------|--------|--------|--------|--------|--------|--------|--------|--------|
A#|--------|--------|--------|--------|--------|--------|--------|--------|--------|
F#|--------|--------|--------|--------|--------|--------|--------|--------|--------|
C#|--------|--------|--------|--------|--------|--------|--------|--------|--------|
G#|--------|--------|--------|--------|--------|--------|--------|--------|--------|
D#|--------|--------|--------|--------|--------|--------|--------|--------|--------|


D#|--------|--------|--------|--------|--------|--------|--------|--------|--------|
A#|--------|--------|--------|--------|--------|--------|--------|--------|--------|
F#|--------|--------|--------|--------|--------|--------|--------|--------|--------|
C#|--------|--------|--------|--------|--------|--------|--------|--------|--------|
G#|--------|--------|--------|--------|--------|--------|--------|--------|--------|
D#|--------|--------|--------|--------|--------|--------|--------|--------|--------|


D#|--------|--------|--------|----------------|---------------------------------|---------------------------------|
A#|--------|--------|--------|----------------|---------------------------------|---------------------------------|
F#|--------|--------|--------|------------3---|-2---3---2-------3-------2---3---|-----3---2---3---2-------3-------|
C#|--------|--------|--------|--------0-------|-------------0-------0-----------|---------------------------------|
G#|--------|--------|--------|----------------|---------------------------------|-3-------------------3-------3---|
D#|--------|--------|--------|----------------|---------------------------------|---------------------------------|


D#|---------------------------------|---------------------------------|---------------------------------|
A#|---------------------------------|---------------------------------|---------------------------------|
F#|-2---3-------3---2---3---2-------|-3-------2---3-------3---2---3---|-2-------3-------2---3-------3---|
C#|---------0-------------------0---|-----0---------------------------|-------------------------0-------|
G#|---------------------------------|-----------------3---------------|-----3-------3-------------------|
D#|---------------------------------|---------------------------------|---------------------------------|


D#|---------------------------------|---------------------------------|---------------------------------|
A#|---------------------------------|---------------------------------|---------------------------------|
F#|-2---3---2-------3-------2---3---|-----3---2---3---2-------3-------|-2---3-------3---2---3---2-------|
C#|-------------0-------0-----------|---------------------------------|---------0-------------------0---|
G#|---------------------------------|-3-------------------3-------3---|---------------------------------|
D#|---------------------------------|---------------------------------|---------------------------------|


D#|---------------------------------|------------------------------|
A#|---------------------------------|------------------------------|
F#|-3-------2---3-------3---2---3---|-2-------3-------2---3--------|
C#|-----0---------------------------|------------------------------|
G#|-----------------3---------------|-----3-------3----------------|
D#|---------------------------------|------------------------------|





Track 2: Distorted Guitar 1 - John Petrucci

D#|--------|--------|--------|--------|--------|--------|--------|--------|--------|
A#|--------|--------|--------|--------|--------|--------|--------|--------|--------|
F#|--------|--------|--------|--------|--------|--------|--------|--------|--------|
C#|--------|--------|--------|--------|--------|--------|--------|--------|--------|
G#|--------|--------|--------|--------|--------|--------|--------|--------|--------|
D#|--------|--------|--------|--------|--------|--------|--------|--------|--------|


D#|--------|-------------|------3------|-3-----------|------------3----|-------3------------|
A#|--------|-3------3----|------3------|-3-----3-----|------3-----3----|-------3------------|
F#|--------|-2------2----|------5------|-5-----2-----|------2-----5----|-------5------------|
C#|--------|-0------0----|------5------|-5-----0-----|------0-----5----|-------5----5---5---|
G#|--------|-0------0----|------3------|-3-----0-----|------0-----3----|-------3----3---3---|
D#|--------|-------------|-------------|-------------|-----------------|--------------------|


D#|-1------1----|-------------|------------------------|--------------------|--------------------|
A#|-1------1----|-------------|------------------------|--------------------|--------------------|
F#|-3------3----|------2------|-2----------------------|--------------------|----------2---2-----|
C#|-3------3----|------2------|-2----2---2---5-----5---|-----3---3-----2----|-----2----2---2-----|
G#|-1------1----|------0------|-0----0---0---5-----5---|-----3---3-----2----|-----2----0---0-----|
D#|-------------|-------------|--------------3-----3---|-----1---1-----0----|-----0--------------|


D#|---------------------------------|------------------------------|------------------------------|
A#|---------------------------------|------------------------------|------------------------------|
F#|---------------------------------|------------------------------|------------------------------|
C#|-----7-------8-----------7-------|-8--------8-------7-----------|-8-------7--------7-------8---|
G#|-5---5---5---5---5---5---5---5---|-5----3---3---3---3---3---3---|-3---3---3----5---5---5---5---|
D#|---------------------------------|------------------------------|------------------------------|


D#|------------------------------|------------------------------|---------------------------------|
A#|------------------------------|------------------------------|---------------------------------|
F#|------------------------------|------------------------------|---------------------------------|
C#|---------7-------8--------8---|-----7-----------8-------7----|---------------------------------|
G#|-5---5---5---5---5----3---3---|-3---3---3---3---3---3---3----|-----12------10----------12------|
D#|------------------------------|------------------------------|-6---6---6---6---6---6---6---6---|


D#|------------------------------|------------------------------|------------------------------|
A#|------------------------------|------------------------------|------------------------------|
F#|------------------------------|------------------------------|------------------------------|
C#|------------------------------|------------------------------|---------2--------------------|
G#|-10-------10------8-----------|-10------8--------8-------7---|-----------------5--------5---|
D#|-6----5---5---5---5---5---5---|-5---5---5----3---3---3---3---|-3---1---1---1---1----0---0---|


D#|------------------------------|---------------------------------|------------------------------|
A#|------------------------------|---------------------------------|------------------------------|
F#|------------------------------|---------------------------------|------------------------------|
C#|-----------------2-------2----|-----7-------8-----------7-------|-8--------8-------7-----------|
G#|-----4-----------0-------0----|-5---5---5---5---5---5---5---5---|-5----3---3---3---3---3---3---|
D#|-0---0---0---0-------0--------|---------------------------------|------------------------------|


D#|------------------------------|------------------------------|------------------------------|
A#|------------------------------|------------------------------|------------------------------|
F#|------------------------------|------------------------------|------------------------------|
C#|-8-------7--------7-------8---|---------7-------8--------8---|-----7-----------8-------7----|
G#|-3---3---3----5---5---5---5---|-5---5---5---5---5----3---3---|-3---3---3---3---3---3---3----|
D#|------------------------------|------------------------------|------------------------------|


D#|---------------------------------|------------------------------|------------------------------|
A#|---------------------------------|------------------------------|------------------------------|
F#|---------------------------------|------------------------------|------------------------------|
C#|---------------------------------|------------------------------|------------------------------|
G#|-----12------10----------12------|-10-------10------8-----------|-10------8--------8-------7---|
D#|-6---6---6---6---6---6---6---6---|-6----5---5---5---5---5---5---|-5---5---5----3---3---3---3---|


D#|------------------------------|------------------------------|---------------------------------|
A#|------------------------------|------------------------------|---------------------------------|
F#|------------------------------|------------------------------|-----3---2---3---2-------3-------|
C#|---------2--------------------|-----------------2-------2----|-0-------------------0-------0---|
G#|-----------------5--------5---|-----4-----------0-------0----|---------------------------------|
D#|-3---1---1---1---1----0---0---|-0---0---0---0-------0--------|---------------------------------|


D#|---------------------------------|---------------------------------|---------------------------------|
A#|---------------------------------|---------------------------------|---------------------------------|
F#|-2---3---2-----------3---2---3---|-2-------3-------2---3-------3---|-2---3---2-------3-------2---3---|
C#|-------------0-------------------|-------------------------0-------|-------------0-------0-----------|
G#|-----------------3---------------|-----3-------3-------------------|---------------------------------|
D#|---------------------------------|---------------------------------|---------------------------------|


D#|---------------------------------|---------------------------------|---------------------------------|
A#|---------------------------------|---------------------------------|---------------------------------|
F#|-2-----------3---2---3---2-------|-3-------2---3-------------------|---------------------------------|
C#|-----0---------------------------|---------------------3---2---3---|-2-----------3---2---3---2-------|
G#|---------3-------------------3---|-----3-----------0---------------|-----0---1-------------------1---|
D#|---------------------------------|---------------------------------|---------------------------------|


D#|---------------------------------|---------------------------------|---------------------------------|
A#|---------------------------------|---------------------------------|---------------------------------|
F#|---------------------------------|---------------------------------|---------------------------------|
C#|-----3---2---3---2-------3-------|-2---3-------3---2---3---2-------|-----3---2---3---2-----------3---|
G#|-3-------------------------------|---------0-------------------0---|-1-------------------1-----------|
D#|---------------------3-------3---|---------------------------------|-------------------------1-------|


D#|---------------------------------|---------------------------------|---------------------------------|
A#|---------------------------------|---------------------------------|---------------------------------|
F#|---------------------------------|---------------------------------|---------------------3---2---3---|
C#|-2---3---2-------3-------2---3---|-----3---2---3---2-----------3---|-2---3---2-----------------------|
G#|---------------------------------|-0-----------------------0-------|-----------------0---------------|
D#|-------------0-------0-----------|---------------------0-----------|-------------0-------------------|


D#|---------------------------------|---------------------------------|------------------------------|
A#|---------------------------------|---------------------------------|------------------------------|
F#|-2-----------3---2---3---2-------|---------------------------------|------------------------------|
C#|---------------------------------|-----7-------8-----------7-------|-8--------8-------7-----------|
G#|---------0-----------------------|-5---5---5---5---5---5---5---5---|-5----3---3---3---3---3---3---|
D#|-----0-----------------------0---|---------------------------------|------------------------------|


D#|------------------------------|------------------------------|------------------------------|
A#|------------------------------|------------------------------|------------------------------|
F#|------------------------------|------------------------------|------------------------------|
C#|-8-------7--------7-------8---|---------7-------8--------8---|-----7-----------8-------7----|
G#|-3---3---3----5---5---5---5---|-5---5---5---5---5----3---3---|-3---3---3---3---3---3---3----|
D#|------------------------------|------------------------------|------------------------------|


D#|---------------------------------|------------------------------|------------------------------|
A#|---------------------------------|------------------------------|------------------------------|
F#|---------------------------------|------------------------------|------------------------------|
C#|---------------------------------|------------------------------|------------------------------|
G#|-----12------10----------12------|-10-------10------8-----------|-10------8--------8-------7---|
D#|-6---6---6---6---6---6---6---6---|-6----5---5---5---5---5---5---|-5---5---5----3---3---3---3---|


D#|------------------------------|------------------------------|-----------------|
A#|------------------------------|------------------------------|-----------------|
F#|------------------------------|------------------------------|-----------------|
C#|---------2--------------------|-----------------2-------2----|-----------------|
G#|-----------------5--------5---|-----4-----------0-------0----|-2-----3---3-----|
D#|-3---1---1---1---1----0---0---|-0---0---0---0-------0--------|-0-----1---1-----|


D#|-----------------|-----------------|-----------------|-----------------|-----------------|
A#|-----------------|-----------------|-----------------|-----------------|-----------------|
F#|-----------------|-----------------|-----------------|-----------------|-----------------|
C#|-----------------|-----------------|-------7---7-----|-----------------|-----------------|
G#|-5-----7---7-----|-2-----3---3-----|-4-----5---5-----|-2-----3---3-----|-5-----7---7-----|
D#|-3-----5---5-----|-0-----1---1-----|-----------------|-0-----1---1-----|-3-----5---5-----|


D#|-----------------|-----------------------|-----------------------------------|-------------------------------------------|
A#|-----------------|-----------------------|-----------------------------------|-------------------------------------------|
F#|-----------------|-----------------------|-----------------------------------|-------------------------------------------|
C#|-----------------|-5---------------------|-----------------------------------|-------------------------------------------|
G#|-2-----3---3-----|------7--7---8---5-----|-----------------------------------|-4---5--7-----8--7---7--5---4--------------|
D#|-0-----1---1-----|-----------------------|-0----1--1---6---6---5-------5--6--|-------------------------------6--5--3--1--|


D#|-----------------------------------|----------------------------------|-----------------------------------|
A#|-----------------------------------|----------------------------------|-----------------------------------|
F#|-----------------------------------|----------------------------------|-----------------------------------|
C#|-----------------------------------|-5---5----------------------------|-----------------------------------|
G#|-----------------------------------|--------7--7--7--8---8--5----5----|-----------------------------------|
D#|-0----1--1---6---6---5-------5--6--|----------------------------------|-0----1--1---6---6---5-------5--6--|


D#|-------------------------------------------|-----------------------------------|
A#|-------------------------------------------|-----------------------------------|
F#|-------------------------------------------|-----------------------------------|
C#|-------------------------------------------|-----------------------------------|
G#|-4---5--7-----8--7---7--5---4--------------|-----------------------------------|
D#|-------------------------------6--5--3--1--|-0----1--1---6---6---5-------5--6--|


D#|------------------------------------|-----------------------------------|-------------------------------------------|
A#|------------------------------------|-----------------------------------|-------------------------------------------|
F#|------------------------------------|-----------------------------------|-------------------------------------------|
C#|------------------------------------|-----------------------------------|-------------------------------------------|
G#|-4---5--7-----8--5---5----3---------|-----------------------------------|-4---5--7-----8--7---7--5---4--------------|
D#|-----------------------------6---5--|-0----1--1---6---6---5-------5--6--|-------------------------------6--5--3--1--|


D#|-----------------------------------|----------------------------------|-----------------------------------|
A#|-----------------------------------|----------------------------------|-----------------------------------|
F#|-----------------------------------|----------------------------------|-----------------------------------|
C#|-----------------------------------|-5---5--2--2--2--3---3------------|-----------------------------------|
G#|-----------------------------------|------------------------5----5----|-----------------------------------|
D#|-0----1--1---6---6---5-------5--6--|----------------------------------|-0----1--1---6---6---5-------5--6--|


D#|-------------------------------------------|-----------------------------------|
A#|-------------------------------------------|-----------------------------------|
F#|-------------------------------------------|-----------------------------------|
C#|-------------------------------------------|-----------------------------------|
G#|-4---5--7-----8--7---7--5---4--------------|-----------------------------------|
D#|-------------------------------6--5--3--1--|-0----1--1---6---6---5-------5--6--|


D#|------------------------------------|--------|--------|--------|--------|--------|
A#|------------------------------------|--------|--------|--------|--------|--------|
F#|------------------------------------|--------|--------|--------|--------|--------|
C#|------------------------------------|--------|--------|--------|--------|--------|
G#|-4---5--7-----8--5---5----3---------|--------|--------|--------|--------|--------|
D#|-----------------------------6---5--|--------|--------|--------|--------|--------|


D#|--------|--------|--------|--------------------------------|-------------------------|
A#|--------|--------|--------|--------------------------------|-------------------------|
F#|--------|--------|--------|-2---------------2---2--2-------|-----2--2--2--2----------|
C#|--------|--------|--------|-2---------------2---2--2-------|-----2--2--2--2----------|
G#|--------|--------|--------|-0---------------0---0--0-------|-----0--0--0--0----------|
D#|--------|--------|--------|--------------------------------|-------------------------|


D#|--------------------------------|---------------------------------------------|
A#|--------------------------------|---------------------------------------------|
F#|-2---------------2---2--2-------|-----2---2-------------------------0--2--3---|
C#|-2---------------2---2--2-------|-----2---2----------------0--2--3------------|
G#|-0---------------0---0--0-------|-----0---0-------0--1--3---------------------|
D#|--------------------------------|---------------------------------------------|


D#|--------------------------------|-------------------------|--------------------------------|
A#|--------------------------------|-------------------------|--------------------------------|
F#|-2---------------2---2--2-------|-----2--2--2--2----------|-2---------------2---2--2-------|
C#|-2---------------2---2--2-------|-----2--2--2--2----------|-2---------------2---2--2-------|
G#|-0---------------0---0--0-------|-----0--0--0--0----------|-0---------------0---0--0-------|
D#|--------------------------------|-------------------------|--------------------------------|


D#|---------------------------------------------|-------------------------------------------------|
A#|---------------------------------------------|-------------------------------------------------|
F#|-----2---2-------------------------0--2--3---|-------------------------------------------------|
C#|-----2---2----------------0--2--3------------|-------------------------------------------------|
G#|-----0---0-------0--1--3---------------------|-12-0--0--10-0--12-13-12-12-4--0--5--7--0--0--5--|
D#|---------------------------------------------|-------------------------------------------------|


D#|-------------------------------------------------|-------------------------------------------------|
A#|-------------------------------------------------|-------------------------------------------------|
F#|-------------------------------------------------|-------------------------------------------------|
C#|-------------------------------------------------|-------------------------------------------------|
G#|-0--7--8--0--0--7--0--8--10-0--8--7--0--5--0--4--|-12-0--0--10-0--12-13-12-12-4--0--5--7--0--0--5--|
D#|-------------------------------------------------|-------------------------------------------------|


D#|-------------------------------------------------|-------------------------------------------------|
A#|-------------------------------------------------|-------------------------------------------------|
F#|-------------------------------------------------|-------------------------------------------------|
C#|-------------------------------------------------|-------------------------------------------------|
G#|-0--7--8--0--0--7--0--8--10-0--8--7--0--13-10-0--|-12-0--0--10-0--12-13-0--0--4--0--5--7--0--0--5--|
D#|-------------------------------------------------|-------------------------------------------------|


D#|-------------------------------------------------|-------------------------------------------------|
A#|-------------------------------------------------|-------------------------------------------------|
F#|-------------------------------------------------|-------------------------------------------------|
C#|-------------------------------------------------|-------------------------------------------------|
G#|-0--7--8--0--0--7--0--8--10-0--8--7--0--5--0--4--|-12-0--0--10-0--12-13-0--0--4--0--5--7--0--0--5--|
D#|-------------------------------------------------|-------------------------------------------------|


D#|-------------------------------------------------|-------------------------------------|
A#|-------------------------------------------------|-10---------10-11--11-2---3--5----3--|
F#|-------------------------------------------------|------12-----------------------------|
C#|-------------------------------------------------|-------------------------------------|
G#|-0--7--8--0--0--7--0--8--10-0--8--7--0--13-10-0--|-------------------------------------|
D#|-------------------------------------------------|-------------------------------------|


D#|-----------------------------------------|-------------------------------------|
A#|----5--6---6--5---6--8---6--5------------|-10---------10-11--11-2---3--5----3--|
F#|----------------------------------7---6--|------12-----------------------------|
C#|-----------------------------------------|-------------------------------------|
G#|-----------------------------------------|-------------------------------------|
D#|-----------------------------------------|-------------------------------------|


D#|-----------------------------------------|-------------------------------------|
A#|----5--6---6--5---6--8---6--5-----11-8---|-10---------10-11--11-2---3--5----3--|
F#|-----------------------------------------|------12-----------------------------|
C#|-----------------------------------------|-------------------------------------|
G#|-----------------------------------------|-------------------------------------|
D#|-----------------------------------------|-------------------------------------|


D#|-----------------------------------------|-------------------------------------|
A#|----5--6---6--5---6--8---6--5------------|-10---------10-11--11-10--11-14------|
F#|----------------------------------7---6--|------12--------------------------15-|
C#|-----------------------------------------|-------------------------------------|
G#|-----------------------------------------|-------------------------------------|
D#|-----------------------------------------|-------------------------------------|


D#|----------------------------------15-----|--------|--------|--------|--------|--------|
A#|----14-15--15-14--15-17--15-14-------17--|--------|--------|--------|--------|--------|
F#|-----------------------------------------|--------|--------|--------|--------|--------|
C#|-----------------------------------------|--------|--------|--------|--------|--------|
G#|-----------------------------------------|--------|--------|--------|--------|--------|
D#|-----------------------------------------|--------|--------|--------|--------|--------|


D#|--------|--------|--------|--------|--------|--------|----------------|-------------------------------------|
A#|--------|--------|--------|--------|--------|--------|----------------|-------------------------------------|
F#|--------|--------|--------|--------|--------|--------|----------------|-------------------------------------|
C#|--------|--------|--------|--------|--------|--------|----------------|----------------------------------5--|
G#|--------|--------|--------|--------|--------|--------|----------------|-----5---5---4-------4--5--7---8-----|
D#|--------|--------|--------|--------|--------|--------|--------5----6--|-6-----------------------------------|


D#|-----------------------------------------|-------------------------------------|
A#|-----------------------------------------|-------------------------------------|
F#|-----------------------------------------|-------------------------------------|
C#|----8--7---7--5--------------------------|---------------------------8---8-----|
G#|------------------8--7--5--4-------------|-----5---5---4-------4--5---------10-|
D#|------------------------------6--5----6--|-6-----------------------------------|


D#|--------------------------------|-------------------------------------|-----------------------------------------|
A#|--------------------------------|-------------------------------------|-----------------------------------------|
F#|--------------------------------|-------------------------------------|-----------------------------------------|
C#|-------7---7--------------------|----------------------------------5--|----8--7---7--5--------------------------|
G#|-10-10--------8----8------------|-----5---5---4-------4--5--7---8-----|------------------8--7--5--4-------------|
D#|------------------------5----6--|-6-----------------------------------|------------------------------6--5----6--|


D#|-----------------------------------|------------------------|--------|--------|
A#|-----------------------------------|------------------------|--------|--------|
F#|-----------------------------------|------------------------|--------|--------|
C#|-----------------------------------|------------------------|--------|--------|
G#|-----5---5---4-------4--5--7----8--|-8---7---5----5---------|--------|--------|
D#|-6---------------------------------|------------------------|--------|--------|


D#|--------|--------|--------|--------|--------|--------|--------|--------|--------|
A#|--------|--------|--------|--------|--------|--------|--------|--------|--------|
F#|--------|--------|--------|--------|--------|--------|--------|--------|--------|
C#|--------|--------|--------|--------|--------|--------|--------|--------|--------|
G#|--------|--------|--------|--------|--------|--------|--------|--------|--------|
D#|--------|--------|--------|--------|--------|--------|--------|--------|--------|


D#|-----------------------|---------------------------------------|---------------------------------------|
A#|-----------------------|---------------------------------------|---------------------------------------|
F#|-----------------------|---------------------------------------|---------------------------------------|
C#|-----------------------|--------------------------5-----8--7---|-7--5----------------------------------|
G#|-------------------5---|-5---4-------4--5--7---8---------------|--------8--7--5--4-----------------5---|
D#|-------5----6--6-------|---------------------------------------|--------------------6--5----6--6-------|


D#|---------------------------------------|--------------------------------|---------------------------------------|
A#|---------------------------------------|--------------------------------|---------------------------------------|
F#|---------------------------------------|--------------------------------|---------------------------------------|
C#|-------------------8---8--5--5--5--7---|-7------------------------------|--------------------------5-----8--7---|
G#|-5---4-------4--5----------------------|----8--8----8---------------5---|-5---4-------4--5--7---8---------------|
D#|---------------------------------------|----------------5----6--6-------|---------------------------------------|


D#|---------------------------------------|-------------------------------------|-----------------------|
A#|---------------------------------------|-------------------------------------|-----------------------|
F#|---------------------------------------|-------------------------------------|-----------------------|
C#|-7--5----------------------------------|-------------------------------------|-----------------------|
G#|--------8--7--5--4-----------------5---|-5---4-------4--5--8----7--7--7--8---|-7----5--5-------------|
D#|--------------------6--5----6--6-------|-------------------------------------|-------------6---------|


D#|--------|--------|--------|--------|--------|--------|--------|--------|--------|
A#|--------|--------|--------|--------|--------|--------|--------|--------|--------|
F#|--------|--------|--------|--------|--------|--------|--------|--------|--------|
C#|--------|--------|--------|--------|--------|--------|--------|--------|--------|
G#|--------|--------|--------|--------|--------|--------|--------|--------|--------|
D#|--------|--------|--------|--------|--------|--------|--------|--------|--------|


D#|--------|--------|-----------------------|-----------------------------------|---------------------------------|
A#|--------|--------|-----------------------|-----------------------------------|---------------------------------|
F#|--------|--------|-------6---------------|-------------4--5--6---------------|-----------------6---------------|
C#|--------|--------|-------6----2--2---3---|-3--5----6---4--5--6----2--2---3---|-3--5----6-------6----2--2---3---|
G#|--------|--------|-------4----2--2---3---|-3--5----6---2--3--4----2--2---3---|-3--5----6-------4----2--2---3---|
D#|--------|--------|------------0--0---1---|-1--3----4--------------0--0---1---|-1--3----4------------0--0---1---|


D#|-----------------------------------|---------------------------------|-----------------------------------|
A#|-----------------------------------|---------------------------------|-----------------------------------|
F#|-------------4--5--6---------------|-----------------6---------------|-------------4--5--6---------------|
C#|-3--5----6---4--5--6----2--2---3---|-3--5----6-------6----2--2---3---|-3--5----6---4--5--6----2--2---3---|
G#|-3--5----6---2--3--4----2--2---3---|-3--5----6-------4----2--2---3---|-3--5----6---2--3--4----2--2---3---|
D#|-1--3----4--------------0--0---1---|-1--3----4------------0--0---1---|-1--3----4--------------0--0---1---|


D#|---------------------------------|-----------------------------------|-----------------------------------|
A#|---------------------------------|-----------------------------------|-----------------------------------|
F#|---------9-----------------------|-----7--8--9-----------------------|-12--------------------------10-11-|
C#|-3--5----9----5--5---6---6--8----|-9---7--8--9----5--5---6---6--8----|-12---8--8---9---9--11---12--10-11-|
G#|-3--5----7----5--5---6---6--8----|-9---5--6--7----5--5---6---6--8----|-10---8--8---9---9--11---12--8--9--|
D#|-1--3---------3--3---4---4--6----|-7--------------3--3---4---4--6----|------6--6---7---7--9----10--------|


D#|---------------------------------|--------|--------|---------------------------|
A#|---------------------------------|--------|--------|------------------8---8----|
F#|-12--------------------------9---|--------|--------|-----------5--5------------|
C#|-12---8--8---9---9--11---12--9---|--------|--------|------7----7---------------|
G#|-10---8--8---9---9--11---12--7---|--------|--------|---------------------------|
D#|------6--6---7---7--9----10------|--------|--------|---------------------------|


D#|--------------------------------|---------------------------|--------------------------------|
A#|-----8-----------------4---4----|------------------8---8----|-----8-----------------4---4----|
F#|--------------1--1--2-----------|-----------5--5------------|--------------1--1--2-----------|
C#|---------3----3-----------------|------7----7---------------|---------3----3-----------------|
G#|--------------------------------|---------------------------|--------------------------------|
D#|--------------------------------|---------------------------|--------------------------------|


D#|---------------------------|--------------------------------|---------------------------|
A#|------------------11--11---|-----11----------------7---7----|------------------11--11---|
F#|-----------8--8------------|--------------4--4--5-----------|-----------8--8------------|
C#|------10---10--------------|---------6----6-----------------|------10---10--------------|
G#|---------------------------|--------------------------------|---------------------------|
D#|---------------------------|--------------------------------|---------------------------|


D#|--------------------------------|-----------------|-------------|--------|--------|
A#|-----11----------------7---7----|------5-----5----|-5-----------|--------|--------|
F#|--------------4--4--5-----------|------4-----4----|-4-----------|--------|--------|
C#|---------6----6-----------------|------3-----3----|-3-----------|--------|--------|
G#|--------------------------------|------4-----4----|-4-----------|--------|--------|
D#|--------------------------------|-----------------|-------------|--------|--------|


D#|------------------------------|-----------------------------------|-----------------------------------|
A#|------------------------------|-----------------------------------|-----------------------------------|
F#|------6-----------------------|-----4--5--6-----------------------|-9---------------------------7--8--|
C#|------6----2--2---3---3--5----|-6---4--5--6----2--2---3---3--5----|-9----5--5---6---6--8----9---7--8--|
G#|------4----2--2---3---3--5----|-6---2--3--4----2--2---3---3--5----|-7----5--5---6---6--8----9---5--6--|
D#|-----------0--0---1---1--3----|-4--------------0--0---1---1--3----|------3--3---4---4--6----7---------|


D#|---------------------------------|-----------------------------------|------------------------------|
A#|---------------------------------|-----------------------------------|------------------------------|
F#|-9-----------------------12------|---------------------10-11-12------|---------------------9--------|
C#|-9----5--5---6---6--8----12---8--|-8---9---9--11---12--10-11-12---8--|-8---9---9--11---12--9--------|
G#|-7----5--5---6---6--8----10---8--|-8---9---9--11---12--8--9--10---8--|-8---9---9--11---12--7--------|
D#|------3--3---4---4--6---------6--|-6---7---7--9----10-------------6--|-6---7---7--9----10-----------|


D#|--------|--------|---------------------------|-------------------------|---------------------------|
A#|--------|--------|-------------8---8-----8---|---------------4---4-----|-------------8---8-----8---|
F#|--------|--------|------5--5-----------------|------1--1--2------------|------5--5-----------------|
C#|--------|--------|-7----7--------------------|-3----3------------------|-7----7--------------------|
G#|--------|--------|---------------------------|-------------------------|---------------------------|
D#|--------|--------|---------------------------|-------------------------|---------------------------|


D#|-------------------------|---------------------------|-------------------------|
A#|---------------4---4-----|-------------11--11----11--|---------------7---7-----|
F#|------1--1--2------------|------8--8-----------------|------4--4--5------------|
C#|-3----3------------------|-10---10-------------------|-6----6------------------|
G#|-------------------------|---------------------------|-------------------------|
D#|-------------------------|---------------------------|-------------------------|


D#|---------------------------|-------------------------|---------------------------|
A#|-------------11--11----11--|---------------7---7-----|-------------12--12----12--|
F#|------8--8-----------------|------4--4--5------------|------9--9-----------------|
C#|-10---10-------------------|-6----6------------------|-11---11-------------------|
G#|---------------------------|-------------------------|---------------------------|
D#|---------------------------|-------------------------|---------------------------|


D#|-------------------------|---------------------------|-------------------------|
A#|---------------8---8-----|-------------12--12----12--|---------------8---8-----|
F#|------5--5--6------------|------9--9-----------------|------5--5--6------------|
C#|-7----7------------------|-11---11-------------------|-7----7------------------|
G#|-------------------------|---------------------------|-------------------------|
D#|-------------------------|---------------------------|-------------------------|


D#|-----------------------------------|-----------------------8---8-------|---------------------15--15--------|
A#|-------------15--15----------------|---------------11--11---------11---|-------------15--15---------15-15--|
F#|------12-12----------12--12--------|------8--8--9----------------------|------12-12------------------------|
C#|-14---14--------------------14-14--|-10---10---------------------------|-14---14---------------------------|
G#|-----------------------------------|-----------------------------------|-----------------------------------|
D#|-----------------------------------|-----------------------------------|-----------------------------------|


D#|-------------------------|--------|--------|--------|--------|--------|--------|
A#|---------------11--11----|--------|--------|--------|--------|--------|--------|
F#|------8--8--9------------|--------|--------|--------|--------|--------|--------|
C#|-10---10-----------------|--------|--------|--------|--------|--------|--------|
G#|-------------------------|--------|--------|--------|--------|--------|--------|
D#|-------------------------|--------|--------|--------|--------|--------|--------|


D#|--------|--------|--------|--------|---------------------------------|------------------------------|
A#|--------|--------|--------|--------|---------------------------------|------------------------------|
F#|--------|--------|--------|--------|---------------------------------|------------------------------|
C#|--------|--------|--------|--------|-----7-------8-----------7-------|-8--------8-------7-----------|
G#|--------|--------|--------|--------|-5---5---5---5---5---5---5---5---|-5----3---3---3---3---3---3---|
D#|--------|--------|--------|--------|---------------------------------|------------------------------|


D#|------------------------------|------------------------------|------------------------------|
A#|------------------------------|------------------------------|------------------------------|
F#|------------------------------|------------------------------|------------------------------|
C#|-8-------7--------7-------8---|---------7-------8--------8---|-----7-----------8-------7----|
G#|-3---3---3----5---5---5---5---|-5---5---5---5---5----3---3---|-3---3---3---3---3---3---3----|
D#|------------------------------|------------------------------|------------------------------|


D#|---------------------------------|------------------------------|------------------------------|
A#|---------------------------------|------------------------------|------------------------------|
F#|---------------------------------|------------------------------|------------------------------|
C#|---------------------------------|------------------------------|------------------------------|
G#|-----12------10----------12------|-10-------10------8-----------|-10------8--------8-------7---|
D#|-6---6---6---6---6---6---6---6---|-6----5---5---5---5---5---5---|-5---5---5----3---3---3---3---|


D#|------------------------------|------------------------------|---------------------------------|
A#|------------------------------|------------------------------|---------------------------------|
F#|------------------------------|------------------------------|-----3---2---3---2-------3-------|
C#|---------2--------------------|-----------------2-------2----|-0-------------------0-------0---|
G#|-----------------5--------5---|-----4-----------0-------0----|---------------------------------|
D#|-3---1---1---1---1----0---0---|-0---0---0---0-------0--------|---------------------------------|


D#|---------------------------------|---------------------------------|---------------------------------|
A#|---------------------------------|---------------------------------|---------------------------------|
F#|-2---3---2-----------3---2---3---|-2-------3-------2---3-------3---|-2---3---2-------3-------2---3---|
C#|-------------0-------------------|-------------------------0-------|-------------0-------0-----------|
G#|-----------------3---------------|-----3-------3-------------------|---------------------------------|
D#|---------------------------------|---------------------------------|---------------------------------|


D#|---------------------------------|---------------------------------|---------------------------------|
A#|---------------------------------|---------------------------------|---------------------------------|
F#|-2-----------3---2---3---2-------|-3-------2---3-------------------|---------------------------------|
C#|-----0---------------------------|---------------------3---2---3---|-2-----------3---2---3---2-------|
G#|---------3-------------------3---|-----3-----------0---------------|-----0---1-------------------1---|
D#|---------------------------------|---------------------------------|---------------------------------|


D#|---------------------------------|---------------------------------|---------------------------------|
A#|---------------------------------|---------------------------------|---------------------------------|
F#|---------------------------------|---------------------------------|---------------------------------|
C#|-----3---2---3---2-------3-------|-2---3-------3---2---3---2-------|-----3---2---3---2-----------3---|
G#|-3-------------------------------|---------0-------------------0---|-1-------------------1-----------|
D#|---------------------3-------3---|---------------------------------|-------------------------1-------|


D#|---------------------------------|---------------------------------|---------------------------------|
A#|---------------------------------|---------------------------------|---------------------------------|
F#|---------------------------------|---------------------------------|---------------------3---2---3---|
C#|-2---3---2-------3-------2---3---|-----3---2---3---2-----------3---|-2---3---2-----------------------|
G#|---------------------------------|-0-----------------------0-------|-----------------0---------------|
D#|-------------0-------0-----------|---------------------0-----------|-------------0-------------------|


D#|---------------------------------|---------------------------------|---------------------------------|
A#|---------------------------------|---------------------------------|---------------------------------|
F#|-2-----------3---2---3---2-------|---------------------------------|---------------------------------|
C#|---------------------------------|-----8---7---8---7-----------10--|-8---10--8-----------------------|
G#|---------0-----------------------|-5-------------------5---7-------|-------------7-------12--10--12--|
D#|-----0-----------------------0---|---------------------------------|-----------------8---------------|


D#|---------------------------------|---------------------------------|---------------------------------|
A#|---------------------------------|---------------------------------|---------------------------------|
F#|---------------------------------|---------------------------------|---------------------------------|
C#|-------------8---7---8---7-------|---------------------------------|---------------------8---7---8---|
G#|-10------8-------------------8---|-----12--10--12--10----------12--|-10--12--10------0---------------|
D#|-----8---------------------------|-6-------------------6---0-------|-------------0-------------------|


D#|---------------------------------|---------------------------------|---------------------------------|
A#|---------------------------------|---------------------------------|---------------------------------|
F#|---------------------------------|---------------------------------|---------------------------------|
C#|-7-----------8---7---8---7-------|-----8---7---8---7-----------10--|-8---10--8-----------------------|
G#|-----0---4-------------------4---|-5-------------------5---7-------|-------------7-------12--10--12--|
D#|---------------------------------|---------------------------------|-----------------8---------------|


D#|---------------------------------|---------------------------------|---------------------------------|
A#|---------------------------------|---------------------------------|---------------------------------|
F#|---------------------------------|---------------------------------|---------------------------------|
C#|-------------8---7---8---7-------|---------------------------------|---------------------------------|
G#|-10------8-------------------8---|-----12--10--12--10----------12--|-10--12--10------0---8---7---8---|
D#|-----8---------------------------|-6-------------------6---0-------|-------------0-------------------|


D#|---------------------------------|---------------------------------|---------------------------------|
A#|---------------------------------|---------------------------------|---------------------------------|
F#|---------------------------------|---------------------------------|---------------------15--14--15--|
C#|---------------------------------|-----8---7---8---7-----------8---|-7---8---7-------12--8---7---8---|
G#|-7-------0---8---7---8---7-------|-0-----------------------0-------|-----------------5---------------|
D#|-----0-----------------------0---|---------------------0-----------|-------------0-------------------|


D#|---------------------------------|---------------------------------|---------------------------------|
A#|---------------------------------|-----------------------------11--|-10--11--10----------10--8---10--|
F#|-14----------17--15--17--15------|-----14--12--14--12------10------|-------------10------------------|
C#|-7---12--14--10--8---10--8---14--|-10------------------10------8---|-7---8---7-------8---------------|
G#|-----5---7-------------------7---|-----12--10--12--10------8-------|-------------8-------12--10--12--|
D#|---------------------------------|-8-------------------8-----------|-----------------6---------------|


D#|---------------------------------|---------------------------------|---------------------------------|
A#|-8-----------10--8---10--8-------|-----11--10--11--10----------11--|-10--11--10----------------------|
F#|---------------------------------|---------------------------------|---------------------15--14--15--|
C#|-----8---------------------------|-7---8---7---8---7---7---11--8---|-7---8---7---11--12--8---7---8---|
G#|-10------7---12--10--12--10--7---|-0-------------------0---4-------|-------------4---5---------------|
D#|-----6---0-------------------0---|---------------------------------|---------------------------------|


D#|---------------------------------|---------------------------------|---------------------------------|
A#|---------------------------------|-----------------------------11--|-10--11--10----------10--8---10--|
F#|-14----------17--15--17--15------|-----14--12--14--12------10------|-------------10------------------|
C#|-7---12--14--10--8---10--8---14--|-10------------------10------8---|-7---8---7-------8---------------|
G#|-----5---7-------------------7---|-----12--10--12--10------8-------|-------------8-------12--10--12--|
D#|---------------------------------|-8-------------------8-----------|-----------------6---------------|


D#|---------------------------------|---------------------------------|---------------------------------|
A#|-8-----------10--8---10--8-------|---------------------------------|---------------------11--10--11--|
F#|---------------------------------|-----10--9---10--9-----------10--|-9---10--9-----------------------|
C#|-----8---------------------------|-7-----------------------7-------|-----------------7---8---7---8---|
G#|-10------7---12--10--12--10--7---|-0---8---7---8---7---7---0---8---|-7---8---7---7---0---------------|
D#|-----6---0-------------------0---|---------------------0-----------|-------------0-------------------|


D#|---------------------------------|---------------------------------|---------------------------------|
A#|-10----------11--10--11--10------|---------------------------------|---------------------------------|
F#|---------------------------------|-----15--14--15--14----------17--|-15--17--15----------14--12--14--|
C#|-7-------7---8---7---8---7-------|-12--8---7---8---7---12--14--10--|-8---10--8---14--10--------------|
G#|-----7---0-------------------7---|-5-------------------5---7-------|-------------7-------12--10--12--|
D#|-----0-----------------------0---|---------------------------------|-----------------8---------------|


D#|---------------------------------|---------------------------------|---------------------------------|
A#|-------------11--10--11--10------|-----10--8---10--8-----------10--|-8---10--8-----------11--10--11--|
F#|-12------10------------------10--|---------------------------------|---------------------------------|
C#|-----10------8---7---8---7-------|-8-------------------8-----------|-----------------7---8---7---8---|
G#|-10------8-------------------8---|-----12--10--12--10------7---12--|-10--12--10--7---0---------------|
D#|-----8---------------------------|-6-------------------6---0-------|-------------0-------------------|


D#|---------------------------------|---------------------------------|---------------------------------|
A#|-10----------11--10--11--10------|---------------------------------|---------------------------------|
F#|---------------------------------|-----15--14--15--14----------17--|-15--17--15----------14--12--14--|
C#|-7---7---11--8---7---8---7---11--|-12--8---7---8---7---12--14--10--|-8---10--8---14--10--------------|
G#|-----0---4-------------------4---|-5-------------------5---7-------|-------------7-------12--10--12--|
D#|---------------------------------|---------------------------------|-----------------8---------------|


D#|---------------------------------|---------------------------------|---------------------------------|
A#|-------------11--10--11--10------|-----10--8---10--8-----------10--|-8---10--8-----------------------|
F#|-12------10------------------10--|---------------------------------|---------------------10--9---10--|
C#|-----10------8---7---8---7-------|-8-------------------8-----------|-----------------7---------------|
G#|-10------8-------------------8---|-----12--10--12--10------7---12--|-10--12--10--7---0---8---7---8---|
D#|-----8---------------------------|-6-------------------6---0-------|-------------0-------------------|


D#|---------------------------------|---------------------------------|---------------------------------|
A#|---------------------------------|-----11--10--11--10----------11--|-10--11--10----------------------|
F#|-9-----------10--9---10--9-------|---------------------------------|---------------------15--14--15--|
C#|---------7-----------------------|-7---8---7---8---7-------7---8---|-7---8---7-------12--8---7---8---|
G#|-7---7---0---8---7---8---7---7---|-0-------------------7---0-------|-------------7---5---------------|
D#|-----0-----------------------0---|---------------------0-----------|-------------0-------------------|


D#|---------------------------------|---------------------------------|---------------------------------|
A#|---------------------------------|-----------------------------11--|-10--11--10----------10--8---10--|
F#|-14----------17--15--17--15------|-----14--12--14--12------10------|-------------10------------------|
C#|-7---12--14--10--8---10--8---14--|-10------------------10------8---|-7---8---7-------8---------------|
G#|-----5---7-------------------7---|-----12--10--12--10------8-------|-------------8-------12--10--12--|
D#|---------------------------------|-8-------------------8-----------|-----------------6---------------|


D#|---------------------------------|---------------------------------|---------------------------------|
A#|-8-----------10--8---10--8-------|-----11--10--11--10----------11--|-10--11--10----------------------|
F#|---------------------------------|---------------------------------|---------------------15--14--15--|
C#|-----8---------------------------|-7---8---7---8---7---7---11--8---|-7---8---7---11--12--8---7---8---|
G#|-10------7---12--10--12--10--7---|-0-------------------0---4-------|-------------4---5---------------|
D#|-----6---0-------------------0---|---------------------------------|---------------------------------|


D#|---------------------------------|---------------------------------|---------------------------------|
A#|---------------------------------|-----------------------------11--|-10--11--10----------10--8---10--|
F#|-14----------17--15--17--15------|-----14--12--14--12------10------|-------------10------------------|
C#|-7---12--14--10--8---10--8---14--|-10------------------10------8---|-7---8---7-------8---------------|
G#|-----5---7-------------------7---|-----12--10--12--10------8-------|-------------8-------12--10--12--|
D#|---------------------------------|-8-------------------8-----------|-----------------6---------------|


D#|---------------------------------|---------------------------------|---------------------------------|
A#|-8-----------10--8---10--8-------|---------------------------------|---------------------11--10--11--|
F#|---------------------------------|-----10--9---10--9-----------10--|-9---10--9-----------------------|
C#|-----8---------------------------|-7-----------------------7-------|-----------------7---8---7---8---|
G#|-10------7---12--10--12--10--7---|-0---8---7---8---7---7---0---8---|-7---8---7---7---0---------------|
D#|-----6---0-------------------0---|---------------------0-----------|-------------0-------------------|


D#|---------------------------------|-------------|------3------|-3-----------|------------3----|
A#|-10----------11--10--11--10------|-3------3----|------3------|-3-----3-----|------3-----3----|
F#|---------------------------------|-2------2----|------5------|-5-----2-----|------2-----5----|
C#|-7-------7---8---7---8---7-------|-0------0----|------5------|-5-----0-----|------0-----5----|
G#|-----7---0-------------------7---|-0------0----|------3------|-3-----0-----|------0-----3----|
D#|-----0-----------------------0---|-------------|-------------|-------------|-----------------|


D#|-------3------------|-1------1----|-------------|--------------------|-------------|
A#|-------3------------|-1------1----|-------------|--------------------|-------------|
F#|-------5------------|-3------3----|------2------|-2------------------|-------------|
C#|-------5----5---5---|-3------3----|------2------|-2----2---2---5-----|------3------|
G#|-------3----3---3---|-1------1----|------0------|-0----0---0---5-----|------3------|
D#|--------------------|-------------|-------------|--------------3-----|------1------|


D#|-------------|---------------------------|---------------------------|---------------------|
A#|-------------|---------------------------|---------2-----3---3---3---|-2--------------3----|
F#|--------2----|-----3---3---3---2-----3---|-3---3---2-----3---3---3---|-2----2----2----2----|
C#|-2------2----|-----3---3---3---2-----3---|-3---3---2-----3---3---3---|-2----2----2----0----|
G#|-2------0----|-----1---1---1---0-----1---|-1---1---0-----1---1---1---|-0----0----0----0----|
D#|-0-----------|---------------------------|---------------------------|---------------------|


D#|-------------|-------------|-------------|-------------|-------------|-------------|
A#|-------3-----|------3------|-3------3----|-------3-----|-3------3----|------3------|
F#|-------2-----|------2------|-2------2----|-------2-----|-2------2----|------2------|
C#|-------0-----|------0------|-0------0----|-------0-----|-0------0----|------0------|
G#|-------0-----|------0------|-0------0----|-------0-----|-0------0----|------0------|
D#|-------------|-------------|-------------|-------------|-------------|-------------|


D#|-------------|-----------------|--------|--------|--------|--------|--------|
A#|-3-----3-----|------3----------|--------|--------|--------|--------|--------|
F#|-2-----2-----|------2----------|--------|--------|--------|--------|--------|
C#|-0-----0-----|------0----------|--------|--------|--------|--------|--------|
G#|-0-----0-----|------0----------|--------|--------|--------|--------|--------|
D#|-------------|-----------------|--------|--------|--------|--------|--------|





Track 3: Keyboards - Jordan Rudess

D#|--------|--------|--------|--------|--------|--------|--------|--------|--------|
A#|--------|--------|--------|--------|--------|--------|--------|--------|--------|
F#|--------|--------|--------|--------|--------|--------|--------|--------|--------|
C#|--------|--------|--------|--------|--------|--------|--------|--------|--------|
G#|--------|--------|--------|--------|--------|--------|--------|--------|--------|
D#|--------|--------|--------|--------|--------|--------|--------|--------|--------|


D#|--------|-----17------18-------17------|-18-------18------17-------|-18------17-------17------18--|
A#|--------|------------------------------|---------------------------|------------------------------|
F#|--------|-----14------15-------14------|-15-------15------14-------|-15------14-------14------15--|
C#|--------|-12------12-------12------12--|------14------14-------14--|-----14-------12------12------|
G#|--------|------------------------------|---------------------------|------------------------------|
D#|--------|------------------------------|---------------------------|------------------------------|


D#|---------17------18-------18--|-----17-------18------17---|-----17------15-------17------|
A#|------------------------------|---------------------------|------------------------------|
F#|---------14------15-------15--|-----14-------15------14---|-----14------12-------14------|
C#|-----12------12-------14------|-14-------14------14-------|-12------12-------12------12--|
G#|------------------------------|---------------------------|------------------------------|
D#|------------------------------|---------------------------|------------------------------|


D#|-15-------15------13-------|-15------13-------13------12--|---------12------10-----------|
A#|---------------------------|------------------------------|--------------------------15--|
F#|-12-------12------10-------|-12------10-------10------9---|---------9-------7------------|
C#|------10------10-------10--|-----10-------8-------8-------|-----7-------7------------12--|
G#|---------------------------|------------------------------|----------------------10------|
D#|---------------------------|------------------------------|------------------------------|


D#|---------------------------|--------|--------|--------|--------|--------|--------|
A#|-----14-------11------10---|--------|--------|--------|--------|--------|--------|
F#|---------------------------|--------|--------|--------|--------|--------|--------|
C#|-----11-------8-------7----|--------|--------|--------|--------|--------|--------|
G#|-10-------7-------7--------|--------|--------|--------|--------|--------|--------|
D#|---------------------------|--------|--------|--------|--------|--------|--------|


D#|--------|--------|--------|--------|--------|--------|--------|--------|--------|
A#|--------|--------|--------|--------|--------|--------|--------|--------|--------|
F#|--------|--------|--------|--------|--------|--------|--------|--------|--------|
C#|--------|--------|--------|--------|--------|--------|--------|--------|--------|
G#|--------|--------|--------|--------|--------|--------|--------|--------|--------|
D#|--------|--------|--------|--------|--------|--------|--------|--------|--------|


D#|--------|--------|--------|--------|--------|--------|-------------|-----------------|
A#|--------|--------|--------|--------|--------|-6------|-------5-----|-------5----6----|
F#|--------|--------|--------|--------|--------|-7------|-------5-----|-------5----7----|
C#|--------|--------|--------|--------|--------|-7------|-------5-----|-------5----7----|
G#|--------|--------|--------|--------|--------|--------|-------------|-----------------|
D#|--------|--------|--------|--------|--------|--------|-------------|-----------------|


D#|--------|-------------|---------------------------|---------------------------------|
A#|--------|------5------|------5--------------------|---------------------------------|
F#|--------|------5------|------5--------10--9---10--|-9-----------10--9---10--9-------|
C#|--------|------5------|------5----7---------------|-----7---8-------------------8---|
G#|--------|-------------|---------------------------|---------------------------------|
D#|--------|-------------|---------------------------|---------------------------------|


D#|---------------------------------|---------------------------------|---------------------------------|
A#|---------------------------------|---------------------------------|---------------------------------|
F#|-----10--9---10--9-------10------|-9---10------10--9---10--9-------|-----10--9---10--9-----------10--|
C#|-10------------------------------|---------7-------------------7---|-8-------------------8-----------|
G#|---------------------10------10--|---------------------------------|-------------------------8-------|
D#|---------------------------------|---------------------------------|---------------------------------|


D#|---------------------------------|---------------------------------|---------------------10--9---10--|
A#|---------------------------------|---------------------------------|---------------------11--10--11--|
F#|-9---10--9-------10------9---10--|-----10--9---10--9-----------10--|-9---10--9-----------------------|
C#|---------------------------------|-7-----------------------7-------|-----------------7---------------|
G#|-------------7-------7-----------|---------------------7-----------|-------------7-------------------|
D#|---------------------------------|---------------------------------|---------------------------------|


D#|-9-----------10--9---10--9-------|--------|--------|--------|--------|--------|
A#|-10----------11--10--11--10------|--------|--------|--------|--------|--------|
F#|---------------------------------|--------|--------|--------|--------|--------|
C#|---------7-----------------------|--------|--------|--------|--------|--------|
G#|-----7-----------------------7---|--------|--------|--------|--------|--------|
D#|---------------------------------|--------|--------|--------|--------|--------|


D#|--------|--------|--------|--------|--------|-----------------------------------|
A#|--------|--------|--------|--------|--------|-----------------------------------|
F#|--------|--------|--------|--------|--------|-------------15--15--14--14--14-15-|
C#|--------|--------|--------|--------|--------|-14---15-15------------------------|
G#|--------|--------|--------|--------|--------|-----------------------------------|
D#|--------|--------|--------|--------|--------|-----------------------------------|


D#|--------12----13-12--12--------------------|-----------------------------------|
A#|-14--15-----------------15--14-------------|-----------------------------------|
F#|-------------------------------15-14-12----|-------------15--15--14--14--14-15-|
C#|----------------------------------------15-|-14---15-15------------------------|
G#|-------------------------------------------|-----------------------------------|
D#|-------------------------------------------|-----------------------------------|


D#|--------12----13---------------|-----------------------------------|--------12----13-12--12--------------------|
A#|-14--15----------15--15--------|-----------------------------------|-14--15-----------------15--14-------------|
F#|-------------------------------|-------------15--15--14--14--14-15-|-------------------------------15-14-12----|
C#|-------------------------------|-14---15-15------------------------|----------------------------------------15-|
G#|-------------------------------|-----------------------------------|-------------------------------------------|
D#|-------------------------------|-----------------------------------|-------------------------------------------|


D#|-----------------------------------|-15---12-12--13--------|--------|--------|--------|
A#|-----------------------------------|-----------------15----|--------|--------|--------|
F#|-------------15--15--14--14--14-15-|-----------------------|--------|--------|--------|
C#|-14---15-15------------------------|-----------------------|--------|--------|--------|
G#|-----------------------------------|-----------------------|--------|--------|--------|
D#|-----------------------------------|-----------------------|--------|--------|--------|


D#|--------|--------|--------|--------|--------|--------|--------|--------|--------|
A#|--------|--------|--------|--------|--------|--------|--------|--------|--------|
F#|--------|--------|--------|--------|--------|--------|--------|--------|--------|
C#|--------|--------|--------|--------|--------|--------|--------|--------|--------|
G#|--------|--------|--------|--------|--------|--------|--------|--------|--------|
D#|--------|--------|--------|--------|--------|--------|--------|--------|--------|


D#|--------|--------|--------|--------|--------------------------------------|-----15-17----18-17--17-15-----------------|
A#|--------|--------|--------|--------|----------------15-17--17--15---15-17-|-18-------------------------18-17-15-------|
F#|--------|--------|--------|--------|-------14-15-17----15--15--15---------|-15--------------15--15--------------17-15-|
C#|--------|--------|--------|--------|----17--------------------------------|-------------------------------------------|
G#|--------|--------|--------|--------|--------------------------------------|-------------------------------------------|
D#|--------|--------|--------|--------|--------------------------------------|-------------------------------------------|


D#|------------------------------------|-------------------|--------------------------------------|
A#|----------------15-17--17--18---20--|-18-17-------------|----------------15-17--17--15---15-17-|
F#|-------14-15-17----18--18--18---18--|-------19----19----|-------14-15-17----15--15--15---------|
C#|----17-------------19--19--19---19--|-19-19-19----19----|----17--------------------------------|
G#|------------------------------------|-------------------|--------------------------------------|
D#|------------------------------------|-------------------|--------------------------------------|


D#|-----15-17----18-17--17-15-----------------|------------------------------------|
A#|-18-------------------------18-17-15-------|----------------15-17--17--18---20--|
F#|-15--------------15--15--------------17-15-|-------14-15-17----17--17--17---17--|
C#|-------------------------------------------|----17------------------------------|
G#|-------------------------------------------|------------------------------------|
D#|-------------------------------------------|------------------------------------|


D#|-------------------|--------|--------|--------|--------|--------|--------|--------|
A#|-18-17-------------|--------|--------|--------|--------|--------|--------|--------|
F#|-------19----19----|--------|--------|--------|--------|--------|--------|--------|
C#|-19-19-19----19----|--------|--------|--------|--------|--------|--------|--------|
G#|-------------------|--------|--------|--------|--------|--------|--------|--------|
D#|-------------------|--------|--------|--------|--------|--------|--------|--------|


D#|--------|--------|--------|--------|--------|--------|--------|--------|--------|
A#|--------|--------|--------|--------|--------|--------|--------|--------|--------|
F#|--------|--------|--------|--------|--------|--------|--------|--------|--------|
C#|--------|--------|--------|--------|--------|--------|--------|--------|--------|
G#|--------|--------|--------|--------|--------|--------|--------|--------|--------|
D#|--------|--------|--------|--------|--------|--------|--------|--------|--------|


D#|--------|--------|--------|--------|--------|--------|--------|--------|--------|
A#|--------|--------|--------|--------|--------|--------|--------|--------|--------|
F#|--------|--------|--------|--------|--------|--------|--------|--------|--------|
C#|--------|--------|--------|--------|--------|--------|--------|--------|--------|
G#|--------|--------|--------|--------|--------|--------|--------|--------|--------|
D#|--------|--------|--------|--------|--------|--------|--------|--------|--------|


D#|--------|--------|--------|--------|--------|--------|--------|--------|--------|
A#|--------|--------|--------|--------|--------|--------|--------|--------|--------|
F#|--------|--------|--------|--------|--------|--------|--------|--------|--------|
C#|--------|--------|--------|--------|--------|--------|--------|--------|--------|
G#|--------|--------|--------|--------|--------|--------|--------|--------|--------|
D#|--------|--------|--------|--------|--------|--------|--------|--------|--------|


D#|--------|--------|--------|--------|--------|--------|--------|--------|--------|
A#|--------|--------|--------|--------|--------|--------|--------|--------|--------|
F#|--------|--------|--------|--------|--------|--------|--------|--------|--------|
C#|--------|--------|--------|--------|--------|--------|--------|--------|--------|
G#|--------|--------|--------|--------|--------|--------|--------|--------|--------|
D#|--------|--------|--------|--------|--------|--------|--------|--------|--------|


D#|--------|--------|--------|--------|--------|--------|---------------------------------|
A#|--------|--------|--------|--------|--------|--------|---------------------------------|
F#|--------|--------|--------|--------|--------|--------|-----------------9--9--12-12-10--|
C#|--------|--------|--------|--------|--------|--------|------7--12-12-------------------|
G#|--------|--------|--------|--------|--------|--------|---------------------------------|
D#|--------|--------|--------|--------|--------|--------|---------------------------------|


D#|------12--12--10---10---10--|--------------------------------------------------------|
A#|----------------------------|-10--10-----------10----11-108--------------------------|
F#|----------------------------|---------12-10-12--------------107-109-7-6---6----------|
C#|----------------------------|---------------------12--------------------8---8-7-5-7--|
G#|----------------------------|--------------------------------------------------------|
D#|----------------------------|--------------------------------------------------------|


D#|------------------------------------------------|----------------------1515---15-15-15-151315------|
A#|------------------------------------------------|--------------------10--------------------------17|
F#|------------------------------------------------|----------------1012------------------------------|
C#|-7----------------------------------------3-5-7-|-7--9-11129-1112------------------------------17--|
G#|----5--5-------------3--5------3--5-3-5-7-------|--------------------------------------------------|
D#|------------0--1--3-------3-5-------------------|--------------------------------------------------|


D#|------------------------------------------------------------------------------|
A#|-17-15-18-17151414-111411108--1110-8-6-108-6----------------------------------|
F#|----------------------------------------------9-10-9-7--6-9-7-6---6-----------|
C#|----------------------------------------------------------------8---8-5-8-5---|
G#|----------------------------------------------------------------------------7-|
D#|------------------------------------------------------------------------------|


D#|-------------------------------15-15--15-15--15-15-|-151515----17------------------------------|
A#|---------------------------------------------------|--------------15-15--151515-15---15--1415--|
F#|---------------------------------------------------|--------14---------------------------------|
C#|---7-5---------------------------------------------|-------------------------------------------|
G#|-8-----8-7-8--7-5-4--1-4-1-0-----------------------|-------------------------------------------|
D#|---------------------------------------------------|-------------------------------------------|


D#|-----------------------------------------------------|---------------------------------------------------------|
A#|-171514--15------------------------------------------|---------------------------------------------------------|
F#|-------15---15141514121012141512-12--12-12-12--12-12-|-12-12----14---------------------------------------------|
C#|-----------------------------------------------------|-------12----12-14--14-1211111412118-11--------------1114|
G#|-----------------------------------------------------|---------------------------------------12-13-12-10-12----|
D#|-----------------------------------------------------|---------------------------------------------------------|


D#|----------------------------------151722-22--22-22--222222-|-22---22-22-------22-22-22-22-22-2118-----18------|
A#|-----141720-------------------1516-------------------------|------------14-11---------------------2220---18-20|
F#|-1215------1815-----------1317-----------------------------|--------------------------------------------------|
C#|----------------1717---------------------------------------|--------------------------------------------------|
G#|--------------------1517-----------------------------------|--------------------------------------------------|
D#|------------------------15---------------------------------|--------------------------------------------------|


D#|----------------------------------------------------------13121312|---------------------------------------------15-13151715--151718----18-|
A#|-2220222022-2022201817-17171717171717--1717-17--18171514----------|----10-1817--1515---1817---1517---1715141517---------------------------|
F#|--------------------------------------------------------14--------|-10--------10----------------------------------------------------------|
C#|----------------------------------------------18------------------|------------------15-----14-----17----------------------17-------17----|
G#|------------------------------------------------------------------|-----------------------------------------------------------------------|
D#|------------------------------------------------------------------|-----------------------------------------------------------------------|


D#|-171513151513--1821-25----1314151315----15171815----------------------|---------------------------|
A#|-------------14-------1817----------------------------------------19--|-19--19----------------16--|
F#|------------------------------------14----------16141614---17-17------|-----------10---14-14------|
C#|--------------------------------------12------------------------------|---------------------------|
G#|----------------------------------------------------------------------|---------------------------|
D#|----------------------------------------------------------------------|---------------------------|


D#|-----------------------|---------------------------|-------------------6---|-6-----6--6--------------2---|
A#|-16----------------19--|-19--19----------------16--|-16--------------------|-----------------------------|
F#|-------14---17-17------|-----------10---14-14------|-------5----8--8-------|-------------1----5--5-------|
C#|-----------------------|---------------------------|-----------------------|-----------------------------|
G#|-----------------------|---------------------------|-----------------------|-----------------------------|
D#|-----------------------|---------------------------|-----------------------|-----------------------------|


D#|-2----2----------------6--6--|-6----6----------------2---|-2---2-----------|-------------|
A#|-----------------------------|---------------------------|-----------------|-------------|
F#|-----------5----8--8---------|-----------1----5--5-------|-----------6-----|-6-----------|
C#|-----------------------------|---------------------------|-----------------|-------------|
G#|-----------------------------|---------------------------|-----------------|-------------|
D#|-----------------------------|---------------------------|-----------------|-------------|


D#|--------|--------|--------|--------|--------|--------|--------|--------|--------|
A#|--------|--------|--------|--------|--------|--------|--------|--------|--------|
F#|--------|--------|--------|--------|--------|--------|--------|--------|--------|
C#|--------|--------|--------|--------|--------|--------|--------|--------|--------|
G#|--------|--------|--------|--------|--------|--------|--------|--------|--------|
D#|--------|--------|--------|--------|--------|--------|--------|--------|--------|


D#|--------|--------|--------|---------------------------------|-----------------------15--16--|
A#|--------|--------|--------|-----------------------------12--|-14---15---17---18-18----------|
F#|--------|--------|--------|-9----10-10--12--13---15-15------|-----------------------12--13--|
C#|--------|--------|--------|-----------------------------9---|-11---12---14---15-15----------|
G#|--------|--------|--------|-7----8--8---10--11---13-13------|-------------------------------|
D#|--------|--------|--------|---------------------------------|-------------------------------|


D#|----18--19-20----20---|-20----------|-------------|-------------|--------|--------|
A#|----------------------|-------------|-------------|-------------|--------|--------|
F#|----15--16-17----17---|-17----------|-------------|-------------|--------|--------|
C#|----------------------|-------------|-------------|-------------|--------|--------|
G#|----------------------|-------------|-------------|-------------|--------|--------|
D#|----------------------|-------------|-------------|-------------|--------|--------|


D#|--------|--------|--------|--------|--------|--------|--------|--------|--------|
A#|--------|--------|--------|--------|--------|--------|--------|--------|--------|
F#|--------|--------|--------|--------|--------|--------|--------|--------|--------|
C#|--------|--------|--------|--------|--------|--------|--------|--------|--------|
G#|--------|--------|--------|--------|--------|--------|--------|--------|--------|
D#|--------|--------|--------|--------|--------|--------|--------|--------|--------|


D#|--------|--------|----------------|---------------------------------|-----------------15--16---18--19-|
A#|--------|--------|----------------|---------------------12--14---15-|-----17---18-18------------------|
F#|--------|--------|--------9----10-|-10--12--13---15-15--------------|-----------------12--13---15--16-|
C#|--------|--------|----------------|---------------------9---11---12-|-----14---15-15------------------|
G#|--------|--------|--------7----8--|-8---10--11---13-13--------------|---------------------------------|
D#|--------|--------|----------------|---------------------------------|---------------------------------|


D#|-20----20---20---|---------------------|------------------------|--------|-20----18--18-18-18-18------|
A#|-----------------|-16----15--15---13---|-17---17--10--10---10---|-10-----|-----------------------20---|
F#|-17----17---17---|---------------------|------------------------|--------|-17----15--15-15-15-15------|
C#|-----------------|---------------------|------------------------|--------|-----------------------17---|
G#|-----------------|---------------------|------------------------|--------|----------------------------|
D#|-----------------|---------------------|------------------------|--------|----------------------------|


D#|---------------------|-15---------------------|--------|-21---21---2120191817161718192021---|
A#|-19----18--18---16---|-------13--13--13--16---|-16-----|------------------------------------|
F#|---------------------|-12---------------------|--------|------------------------------------|
C#|-16----15--15---13---|-------10--10--10--13---|-13-----|------------------------------------|
G#|---------------------|------------------------|--------|------------------------------------|
D#|---------------------|------------------------|--------|------------------------------------|


D#|-21---21-------------1716151413----------1716151413|-21---21---2120191817161718192021---|
A#|-----------1716151413----------1716151413----------|------------------------------------|
F#|---------------------------------------------------|------------------------------------|
C#|---------------------------------------------------|------------------------------------|
G#|---------------------------------------------------|------------------------------------|
D#|---------------------------------------------------|------------------------------------|


D#|---------1921----------1921----------1921----------1921--|-1211109-8-7-8-9-10111211109-8-7-8-9-10111211109-8-7-8-9-10111211109-8-7-8-9-1011|
A#|-----1921----------1921----------1921----------1921------|---------------------------------------------------------------------------------|
F#|-1821----------1821----------1821----------1821----------|---------------------------------------------------------------------------------|
C#|---------------------------------------------------------|---------------------------------------------------------------------------------|
G#|---------------------------------------------------------|---------------------------------------------------------------------------------|
D#|---------------------------------------------------------|---------------------------------------------------------------------------------|


D#|-1211109-8-7-6---151413121110--1716151413121517181920---|-1211109-8-7-8-9-10111211109-8-7-8-9-10111211109-8-7-8-9-10111211109-8-7-8-9-1011|
A#|--------------------------------------------------------|---------------------------------------------------------------------------------|
F#|--------------------------------------------------------|---------------------------------------------------------------------------------|
C#|--------------------------------------------------------|---------------------------------------------------------------------------------|
G#|--------------------------------------------------------|---------------------------------------------------------------------------------|
D#|--------------------------------------------------------|---------------------------------------------------------------------------------|


D#|-1211109-8-----------------------------------------------------------------------|
A#|-----------1211109-8-------------------------------------------------------------|
F#|---------------------11109-8-7---------------------------------------------------|
C#|-------------------------------11109-8-7-6-5-4-3-2-------------------------------|
G#|---------------------------------------------------6-5-4-3-2---------------2-3-4-|
D#|-------------------------------------------------------------6-5-4-3-4-5-6-------|


D#|-------------|-------------|-------------|-----------------|-------------|-------------|
A#|-6------6----|------5------|-5-----6-----|------6-----5----|-------5-----|-6------6----|
F#|-7------7----|------5------|-5-----7-----|------7-----5----|-------5-----|-7------7----|
C#|-7------7----|------5------|-5-----7-----|------7-----5----|-------5-----|-7------7----|
G#|-5------5----|------5------|-5-----------|-----------------|-------------|-------------|
D#|-------------|-------------|-------------|-----------------|-------------|-------------|


D#|-------------|-------------|-----------------|-------------|------------------------------|
A#|------5------|-5-----6-----|------6-----5----|-------5-----|-----6-------6--------6-------|
F#|------5------|-5-----7-----|------7-----5----|-------5-----|-7-------7--------7-------7---|
C#|------5------|-5-----7-----|------7-----5----|-------5-----|------------------------------|
G#|-------------|-------------|-----------------|-------------|------------------------------|
D#|-------------|-------------|-----------------|-------------|------------------------------|


D#|---------------------------|------------------------------|------------------------------|
A#|-6--------5-------5--------|-5-------5--------6-------6---|---------6-------6--------5---|
F#|------5-------5--------5---|-----5--------7-------7-------|-----7-------7--------5-------|
C#|---------------------------|------------------------------|------------------------------|
G#|---------------------------|------------------------------|------------------------------|
D#|---------------------------|------------------------------|------------------------------|


D#|---------------------------|------------------------------|---------------------------|
A#|-----5--------5-------5----|-----3-------3--------3-------|-3--------1-------1--------|
F#|-5--------5-------5--------|-3-------3--------3-------3---|------2-------2--------2---|
C#|---------------------------|------------------------------|---------------------------|
G#|---------------------------|------------------------------|---------------------------|
D#|---------------------------|------------------------------|---------------------------|


D#|------------------------------|------------------------------|---------------------------|
A#|-1-------1--------------------|------------------------------|---------------------------|
F#|-----2------------3-------3---|---------2-------2--------0---|-----0--------3-------2----|
C#|--------------5-------5-------|-----3-------3--------2-------|-2-------------------------|
G#|------------------------------|------------------------------|----------0-------0--------|
D#|------------------------------|------------------------------|---------------------------|


D#|--------|-------------|-----------------|--------|-------------|---------------------------|
A#|-6------|-------5-----|-------5----6----|--------|------5------|------5--------------------|
F#|-7------|-------5-----|-------5----7----|--------|------5------|------5--------10--9---10--|
C#|-7------|-------5-----|-------5----7----|--------|------5------|------5----7---------------|
G#|--------|-------------|-----------------|--------|-------------|---------------------------|
D#|--------|-------------|-----------------|--------|-------------|---------------------------|


D#|---------------------------------|---------------------------------|---------------------------------|
A#|---------------------------------|---------------------------------|---------------------------------|
F#|-9-----------10--9---10--9-------|-----10--9---10--9-------10------|-9---10------10--9---10--9-------|
C#|-----7---8-------------------8---|-10------------------------------|---------7-------------------7---|
G#|---------------------------------|---------------------10------10--|---------------------------------|
D#|---------------------------------|---------------------------------|---------------------------------|


D#|---------------------------------|---------------------------------|---------------------------------|
A#|---------------------------------|---------------------------------|---------------------------------|
F#|-----10--9---10--9-----------10--|-9---10--9-------10------9---10--|-----10--9---10--9-----------10--|
C#|-8-------------------8-----------|---------------------------------|-7-----------------------7-------|
G#|-------------------------8-------|-------------7-------7-----------|---------------------7-----------|
D#|---------------------------------|---------------------------------|---------------------------------|


D#|---------------------10--9---10--|-9-----------10--9---10--9-------|-------------|
A#|---------------------11--10--11--|-10----------11--10--11--10------|-6------8----|
F#|-9---10--9-----------------------|---------------------------------|-7------9----|
C#|-----------------7---------------|---------7-----------------------|-7------10---|
G#|-------------7-------------------|-----7-----------------------7---|-------------|
D#|---------------------------------|---------------------------------|-------------|


D#|-----------------|----------------|-------------|-------------|---------------------|
A#|-------5-----5---|-----5---6------|-6------8----|-------5-----|------5---------5----|
F#|-------5-----5---|-7-------5------|-7------7----|-------6-----|------6----7---------|
C#|-------5-----5---|---------7------|-8------8----|-------7-----|------7--------------|
G#|-----------------|----------------|-------------|-------------|---------------------|
D#|-----------------|----------------|-------------|-------------|---------------------|


D#|-------------|-----------------------|-------------|-------------|-------------|
A#|-6------8----|-----8---8---10--11----|------10-----|-6------8----|-------5-----|
F#|-7------9----|-----9-----------9-----|------10-----|-7------7----|-------7-----|
C#|-7------10---|-----10----------10----|------10-----|-8------8----|-------7-----|
G#|-------------|-----------------------|-------------|-------------|-------------|
D#|-------------|-----------------------|-------------|-------------|-------------|


D#|--------|-------------|-----------------------------|-17-15----17-151715-------20--15----------------|
A#|--------|-5------11---|-------15----15-17-18--15-18-|-------18-----------18-17--------17-------------|
F#|--------|-6------12---|----------14-----------------|------------------------------------17----------|
C#|--------|-7------11---|-----------------------------|---------------------------------------17-14----|
G#|--------|-------------|-----------------------------|---------------------------------------------15-|
D#|--------|-------------|-----------------------------|------------------------------------------------|


D#|-----------------15--15-17-18--17-15-13----|------------------------------------------------------------|
A#|-----------17-18-17--17-18-20-----------13-|------------------------------------------------------------|
F#|-----------17-19---------------------------|-14-15-14-12-14-12-10------------------------17-19----17-19-|
C#|-14-15-17----------------------------------|------------------------------------17-19-20-------20-------|
G#|-------------------------------------------|------------------------------17-20-------------------------|
D#|-------------------------------------------|------------------------18-20-------------------------------|


D#|----------18-20-22-24-22-18----------------------------|-------------------------------------------------|
A#|-18-20-22-------------------20-17-15-------------------|-------------------------------15-14-------------|
F#|-------------------------------------14-12-------------|-------------------12-14-15-14-------14-15-19-18-|
C#|-------------------------------------------14-12-------|-------12-11-15-14-------------------------------|
G#|-------------------------------------------------13-10-|-12-13-------------------------------------------|
D#|-------------------------------------------------------|-------------------------------------------------|


D#|----------------------17-18-20-21-22-17----17-------17----------------|-------------------------------------20--------------------|
A#|-18-17-------17-18-20-------------------18----18-15----18-15-18-15----|-18-15----15-------------------17-20----20-17-20-17--------|
F#|-------18-19-------------------------------------------------------14-|-------14----14----17-------17----------------------17-----|
C#|----------------------------------------------------------------------|----------------15----14-17----------------------------14--|
G#|----------------------------------------------------------------------|-----------------------------------------------------------|
D#|----------------------------------------------------------------------|-----------------------------------------------------------|


D#|----------------------------15-17-18-171817-------|-25-------------------------------------------|
A#|-------------------15-17-18-17-18-20--------20-18-|----------------------------------------------|
F#|----------14-15-17-15-17-19-----------------------|-22--14-17-14---------------------15-14-12----|
C#|-14-15-17-15-17-19--------------------------------|--------------15---------------------------15-|
G#|-15-17-19-----------------------------------------|------------------12--13-12-10----------------|
D#|--------------------------------------------------|-------------------------------13-------------|


D#|-18-17-15-13-12-15----------------------------|-----------------------------------------------------------------|
A#|-------------------15--15-13------------------|----------------------------15-14----------15-18-17-15-14-15-17--|
F#|-19-17-15-14-12--------------15-14-12---------|-------12-15-14-12----12-15-------15----15-----------------------|
C#|--------------------------------------15-14---|----14-------------11----------------14--------------------------|
G#|----------------------------------------------|-12--------------------------------------------------------------|
D#|----------------------------------------------|-----------------------------------------------------------------|


D#|----------17----17-18-20-21-18-------------21-18-------------|-21-18-------------17-15-------------------------------------------------|
A#|----18-20----20----------------------202223------------202223|-------------202223------18-17-15-14-------------------------------------|
F#|-18----------------------------181921------------181921------|-------181921------------------------15-14-12----------------------------|
C#|-------------------------------------------------------------|----------------------------------------------15-14-12-11----------------|
G#|-------------------------------------------------------------|----------------------------------------------------------13-12-10-------|
D#|-------------------------------------------------------------|-------------------------------------------------------------------13-12-|


D#|--------|--------|--------|--------|--------|--------|--------|--------|--------|
A#|--------|--------|--------|--------|--------|--------|--------|--------|--------|
F#|--------|--------|--------|--------|--------|--------|--------|--------|--------|
C#|--------|--------|--------|--------|--------|--------|--------|--------|--------|
G#|--------|--------|--------|--------|--------|--------|--------|--------|--------|
D#|--------|--------|--------|--------|--------|--------|--------|--------|--------|


D#|--------|--------|--------|--------|--------|--------|--------|--------|--------|
A#|--------|--------|--------|--------|--------|--------|--------|--------|--------|
F#|--------|--------|--------|--------|--------|--------|--------|--------|--------|
C#|--------|--------|--------|--------|--------|--------|--------|--------|--------|
G#|--------|--------|--------|--------|--------|--------|--------|--------|--------|
D#|--------|--------|--------|--------|--------|--------|--------|--------|--------|


D#|--------|--------|--------|--------|--------|--------|--------|--------|--------|
A#|--------|--------|--------|--------|--------|--------|--------|--------|--------|
F#|--------|--------|--------|--------|--------|--------|--------|--------|--------|
C#|--------|--------|--------|--------|--------|--------|--------|--------|--------|
G#|--------|--------|--------|--------|--------|--------|--------|--------|--------|
D#|--------|--------|--------|--------|--------|--------|--------|--------|--------|


D#|-----17------18-------17------|-18-------18------17-------|-18------17-------17------18--|
A#|------------------------------|---------------------------|------------------------------|
F#|-----14------15-------14------|-15-------15------14-------|-15------14-------14------15--|
C#|-12------12-------12------12--|------14------14-------14--|-----14-------12------12------|
G#|------------------------------|---------------------------|------------------------------|
D#|------------------------------|---------------------------|------------------------------|


D#|---------17------18-------18--|-----17-------18------17---|-----17------15-------17------|
A#|------------------------------|---------------------------|------------------------------|
F#|---------14------15-------15--|-----14-------15------14---|-----14------12-------14------|
C#|-----12------12-------14------|-14-------14------14-------|-12------12-------12------12--|
G#|------------------------------|---------------------------|------------------------------|
D#|------------------------------|---------------------------|------------------------------|


D#|-15-------15------13-------|-15------13-------13------12--|----------12------10----|
A#|---------------------------|------------------------------|------------------------|
F#|-12-------12------10-------|-12------10-------10------9---|----------9-------7-----|
C#|------10------10-------10--|-----10-------8-------8-------|------7-------7---------|
G#|---------------------------|------------------------------|------------------------|
D#|---------------------------|------------------------------|------------------------|


D#|------------------------|-------------|------29-----|-29----------|--------|--------|
A#|-----15------14---------|-------------|-------------|-------------|--------|--------|
F#|------------------------|-------------|------26-----|-26----------|--------|--------|
C#|-----12------11---------|-------------|-------------|-------------|--------|--------|
G#|-10------10-------------|-------------|-------------|-------------|--------|--------|
D#|------------------------|-------------|-------------|-------------|--------|--------|


D#|--------|--------|--------|--------|--------|--------|--------|--------|--------|
A#|--------|--------|--------|--------|--------|--------|--------|--------|--------|
F#|--------|--------|--------|--------|--------|--------|--------|--------|--------|
C#|--------|--------|--------|--------|--------|--------|--------|--------|--------|
G#|--------|--------|--------|--------|--------|--------|--------|--------|--------|
D#|--------|--------|--------|--------|--------|--------|--------|--------|--------|


D#|--------|--------|
A#|--------|--------|
F#|--------|--------|
C#|--------|--------|
G#|--------|--------|
D#|--------|--------|





Track 4: Distorted Guitar 2 - John Petrucci

D#|--------|--------|--------|--------|--------|--------|--------|--------|--------|
A#|--------|--------|--------|--------|--------|--------|--------|--------|--------|
F#|--------|--------|--------|--------|--------|--------|--------|--------|--------|
C#|--------|--------|--------|--------|--------|--------|--------|--------|--------|
G#|--------|--------|--------|--------|--------|--------|--------|--------|--------|
D#|--------|--------|--------|--------|--------|--------|--------|--------|--------|


D#|--------|--------|--------|--------|--------|--------|--------|--------|--------|
A#|--------|--------|--------|--------|--------|--------|--------|--------|--------|
F#|--------|--------|--------|--------|--------|--------|--------|--------|--------|
C#|--------|--------|--------|--------|--------|--------|--------|--------|--------|
G#|--------|--------|--------|--------|--------|--------|--------|--------|--------|
D#|--------|--------|--------|--------|--------|--------|--------|--------|--------|


D#|--------|--------|---------------------------------|------------------------------|
A#|--------|--------|---------------------------------|------------------------------|
F#|--------|--------|-----7-------7-----------7-------|-7--------9-------9-----------|
C#|--------|--------|-----7-------8-----------7-------|-8--------8-------7-----------|
G#|--------|--------|-5-------5-------5---5-------5---|------------------------------|
D#|--------|--------|---------------------------------|------8-------8-------8---8---|


D#|------------------------------|------------------------------|------------------------------|
A#|------------------------------|------------------------------|------------------------------|
F#|-9-------9--------7-------7---|---------7-------7--------9---|-----9-----------9-------9----|
C#|-8-------7--------7-------8---|---------7-------8--------8---|-----7-----------8-------7----|
G#|--------------5-------5-------|-5---5-------5----------------|------------------------------|
D#|-----8------------------------|----------------------8-------|-8-------8---8-------8--------|


D#|---------------------------------|------------------------------|------------------------------|
A#|---------------------------------|------------------------------|------------------------------|
F#|-----7-------7-----------7-------|-7--------5-------5-----------|-5-------5--------3-------3---|
C#|-----7-------5-----------7-------|-5--------5-------3-----------|-5-------3--------3-------2---|
G#|---------------------------------|------------------------------|------------------------------|
D#|-6-------6-------6---6-------6---|------5-------5-------5---5---|-----5--------3-------3-------|


D#|------------------------------|------------------------------|---------------------------------|
A#|------------------------------|------------------------------|---------------------------------|
F#|---------2-------2------------|------------------------------|-----7-------7-----------7-------|
C#|---------2-------0--------5---|-----5-----------2-------2----|-----7-------8-----------7-------|
G#|--------------------------5---|-----4-----------0-------0----|-5-------5-------5---5-------5---|
D#|-3---1-------1--------0-------|-0-------0---0-------0--------|---------------------------------|


D#|------------------------------|------------------------------|------------------------------|
A#|------------------------------|------------------------------|------------------------------|
F#|-7--------9-------9-----------|-9-------9--------7-------7---|---------7-------7--------9---|
C#|-8--------8-------7-----------|-8-------7--------7-------8---|---------7-------8--------8---|
G#|------------------------------|--------------5-------5-------|-5---5-------5----------------|
D#|------8-------8-------8---8---|-----8------------------------|----------------------8-------|


D#|------------------------------|---------------------------------|------------------------------|
A#|------------------------------|---------------------------------|------------------------------|
F#|-----9-----------9-------9----|-----7-------7-----------7-------|-7--------5-------5-----------|
C#|-----7-----------8-------7----|-----7-------5-----------7-------|-5--------5-------3-----------|
G#|------------------------------|---------------------------------|------------------------------|
D#|-8-------8---8-------8--------|-6-------6-------6---6-------6---|------5-------5-------5---5---|


D#|------------------------------|------------------------------|------------------------------|
A#|------------------------------|------------------------------|------------------------------|
F#|-5-------5--------3-------3---|---------2-------2------------|------------------------------|
C#|-5-------3--------3-------2---|---------2-------0--------5---|-----5-----------2-------2----|
G#|------------------------------|--------------------------5---|-----4-----------0-------0----|
D#|-----5--------3-------3-------|-3---1-------1--------0-------|-0-------0---0-------0--------|


D#|--------|--------|--------|--------|--------|--------|--------|--------|--------|
A#|--------|--------|--------|--------|--------|--------|--------|--------|--------|
F#|--------|--------|--------|--------|--------|--------|--------|--------|--------|
C#|--------|--------|--------|--------|--------|--------|--------|--------|--------|
G#|--------|--------|--------|--------|--------|--------|--------|--------|--------|
D#|--------|--------|--------|--------|--------|--------|--------|--------|--------|


D#|--------|--------|--------|--------|--------|---------------------------------|
A#|--------|--------|--------|--------|--------|---------------------------------|
F#|--------|--------|--------|--------|--------|-----7-------7-----------7-------|
C#|--------|--------|--------|--------|--------|-----7-------8-----------7-------|
G#|--------|--------|--------|--------|--------|-5-------5-------5---5-------5---|
D#|--------|--------|--------|--------|--------|---------------------------------|


D#|------------------------------|------------------------------|------------------------------|
A#|------------------------------|------------------------------|------------------------------|
F#|-7--------9-------9-----------|-9-------9--------7-------7---|---------7-------7--------9---|
C#|-8--------8-------7-----------|-8-------7--------7-------8---|---------7-------8--------8---|
G#|------------------------------|--------------5-------5-------|-5---5-------5----------------|
D#|------8-------8-------8---8---|-----8------------------------|----------------------8-------|


D#|------------------------------|---------------------------------|------------------------------|
A#|------------------------------|---------------------------------|------------------------------|
F#|-----9-----------9-------9----|-----7-------7-----------7-------|-7--------5-------5-----------|
C#|-----7-----------8-------7----|-----7-------5-----------7-------|-5--------5-------3-----------|
G#|------------------------------|---------------------------------|------------------------------|
D#|-8-------8---8-------8--------|-6-------6-------6---6-------6---|------5-------5-------5---5---|


D#|------------------------------|------------------------------|------------------------------|
A#|------------------------------|------------------------------|------------------------------|
F#|-5-------5--------3-------3---|---------2-------2------------|------------------------------|
C#|-5-------3--------3-------2---|---------2-------0--------5---|-----5-----------2-------2----|
G#|------------------------------|--------------------------5---|-----4-----------0-------0----|
D#|-----5--------3-------3-------|-3---1-------1--------0-------|-0-------0---0-------0--------|


D#|--------|--------|--------|--------|--------|--------|--------|--------|--------|
A#|--------|--------|--------|--------|--------|--------|--------|--------|--------|
F#|--------|--------|--------|--------|--------|--------|--------|--------|--------|
C#|--------|--------|--------|--------|--------|--------|--------|--------|--------|
G#|--------|--------|--------|--------|--------|--------|--------|--------|--------|
D#|--------|--------|--------|--------|--------|--------|--------|--------|--------|


D#|--------|--------|--------|--------|--------|--------|--------|--------|--------|
A#|--------|--------|--------|--------|--------|--------|--------|--------|--------|
F#|--------|--------|--------|--------|--------|--------|--------|--------|--------|
C#|--------|--------|--------|--------|--------|--------|--------|--------|--------|
G#|--------|--------|--------|--------|--------|--------|--------|--------|--------|
D#|--------|--------|--------|--------|--------|--------|--------|--------|--------|


D#|--------|--------|--------|--------|--------|--------|--------|--------|--------|
A#|--------|--------|--------|--------|--------|--------|--------|--------|--------|
F#|--------|--------|--------|--------|--------|--------|--------|--------|--------|
C#|--------|--------|--------|--------|--------|--------|--------|--------|--------|
G#|--------|--------|--------|--------|--------|--------|--------|--------|--------|
D#|--------|--------|--------|--------|--------|--------|--------|--------|--------|


D#|--------|--------|--------|--------|--------|--------|--------|--------|--------|
A#|--------|--------|--------|--------|--------|--------|--------|--------|--------|
F#|--------|--------|--------|--------|--------|--------|--------|--------|--------|
C#|--------|--------|--------|--------|--------|--------|--------|--------|--------|
G#|--------|--------|--------|--------|--------|--------|--------|--------|--------|
D#|--------|--------|--------|--------|--------|--------|--------|--------|--------|


D#|--------|--------|--------|--------|--------|--------|--------|--------|--------|
A#|--------|--------|--------|--------|--------|--------|--------|--------|--------|
F#|--------|--------|--------|--------|--------|--------|--------|--------|--------|
C#|--------|--------|--------|--------|--------|--------|--------|--------|--------|
G#|--------|--------|--------|--------|--------|--------|--------|--------|--------|
D#|--------|--------|--------|--------|--------|--------|--------|--------|--------|


D#|--------|--------|--------|--------|--------|--------|--------|-------------------------------------|
A#|--------|--------|--------|--------|--------|--------|--------|-14---------14-15--15-5---6--8----6--|
F#|--------|--------|--------|--------|--------|--------|--------|------15-----------------------------|
C#|--------|--------|--------|--------|--------|--------|--------|-------------------------------------|
G#|--------|--------|--------|--------|--------|--------|--------|-------------------------------------|
D#|--------|--------|--------|--------|--------|--------|--------|-------------------------------------|


D#|-----------------------------------------|-------------------------------------|
A#|----8--10--10-8---10-11--10-8------------|-14---------14-15--15-14--15-17---15-|
F#|----------------------------------10--9--|------15-----------------------------|
C#|-----------------------------------------|-------------------------------------|
G#|-----------------------------------------|-------------------------------------|
D#|-----------------------------------------|-------------------------------------|


D#|---------------------15-----------18-15--|--------|--------|--------|--------|--------|
A#|----17-18--18-17--18-----18-17-----------|--------|--------|--------|--------|--------|
F#|-----------------------------------------|--------|--------|--------|--------|--------|
C#|-----------------------------------------|--------|--------|--------|--------|--------|
G#|-----------------------------------------|--------|--------|--------|--------|--------|
D#|-----------------------------------------|--------|--------|--------|--------|--------|


D#|--------|--------|--------|--------|--------|--------|--------|--------|--------|
A#|--------|--------|--------|--------|--------|--------|--------|--------|--------|
F#|--------|--------|--------|--------|--------|--------|--------|--------|--------|
C#|--------|--------|--------|--------|--------|--------|--------|--------|--------|
G#|--------|--------|--------|--------|--------|--------|--------|--------|--------|
D#|--------|--------|--------|--------|--------|--------|--------|--------|--------|


D#|--------|--------|--------|--------|--------|--------|--------|--------|--------|
A#|--------|--------|--------|--------|--------|--------|--------|--------|--------|
F#|--------|--------|--------|--------|--------|--------|--------|--------|--------|
C#|--------|--------|--------|--------|--------|--------|--------|--------|--------|
G#|--------|--------|--------|--------|--------|--------|--------|--------|--------|
D#|--------|--------|--------|--------|--------|--------|--------|--------|--------|


D#|--------|--------|--------|--------|--------|--------|--------|--------|--------|
A#|--------|--------|--------|--------|--------|--------|--------|--------|--------|
F#|--------|--------|--------|--------|--------|--------|--------|--------|--------|
C#|--------|--------|--------|--------|--------|--------|--------|--------|--------|
G#|--------|--------|--------|--------|--------|--------|--------|--------|--------|
D#|--------|--------|--------|--------|--------|--------|--------|--------|--------|


D#|--------|--------|--------|--------|--------|--------|--------|--------|--------|
A#|--------|--------|--------|--------|--------|--------|--------|--------|--------|
F#|--------|--------|--------|--------|--------|--------|--------|--------|--------|
C#|--------|--------|--------|--------|--------|--------|--------|--------|--------|
G#|--------|--------|--------|--------|--------|--------|--------|--------|--------|
D#|--------|--------|--------|--------|--------|--------|--------|--------|--------|


D#|--------|--------|--------|--------|--------|--------|--------|--------|--------|
A#|--------|--------|--------|--------|--------|--------|--------|--------|--------|
F#|--------|--------|--------|--------|--------|--------|--------|--------|--------|
C#|--------|--------|--------|--------|--------|--------|--------|--------|--------|
G#|--------|--------|--------|--------|--------|--------|--------|--------|--------|
D#|--------|--------|--------|--------|--------|--------|--------|--------|--------|


D#|--------|-------------------------------|-----------------------------------------------|
A#|--------|-------------------------------|-----------------------------------------------|
F#|--------|-------4--4--4--4--4--4--4--4--|-4--4--4--4--4--4--4---4--4--4--4--4--4--4--4--|
C#|--------|-------3--3--3--3--3--3--3--3--|-3--3--3--3--3--3--3---3--3--3--3--3--3--3--3--|
G#|--------|-------------------------------|-----------------------------------------------|
D#|--------|-------------------------------|-----------------------------------------------|


D#|-------------------------------------------------|-----------------------------------------------|
A#|-------------------------------------------------|-----------------------------------------------|
F#|-4--4--4--4--4--4--4--4--4--4--4--4--4--4--4--4--|-4--4--4--4--4--4--4---4--4--4--4--4--4--4--4--|
C#|-3--3--3--3--3--3--3--3--3--3--3--3--3--3--3--3--|-3--3--3--3--3--3--3---3--3--3--3--3--3--3--3--|
G#|-------------------------------------------------|-----------------------------------------------|
D#|-------------------------------------------------|-----------------------------------------------|


D#|-----------------------------------|-------------|-------------|--------|--------|
A#|-----------------------------------|-------------|-------------|--------|--------|
F#|-4--4--4--4--4--4--4--4--4---------|-------------|-------------|--------|--------|
C#|-3--3--3--3--3--3--3--3--3---------|-------------|-------------|--------|--------|
G#|-----------------------------------|-------------|-------------|--------|--------|
D#|-----------------------------------|-------------|-------------|--------|--------|


D#|--------|--------|--------|--------|--------|--------|--------|--------|--------|
A#|--------|--------|--------|--------|--------|--------|--------|--------|--------|
F#|--------|--------|--------|--------|--------|--------|--------|--------|--------|
C#|--------|--------|--------|--------|--------|--------|--------|--------|--------|
G#|--------|--------|--------|--------|--------|--------|--------|--------|--------|
D#|--------|--------|--------|--------|--------|--------|--------|--------|--------|


D#|--------|--------|--------|--------|--------|--------|---------------------|------------------------|
A#|--------|--------|--------|--------|--------|--------|------14----12--12---|------------------------|
F#|--------|--------|--------|--------|--------|--------|---------------------|-13---12---12--10--10---|
C#|--------|--------|--------|--------|--------|--------|---------------------|------------------------|
G#|--------|--------|--------|--------|--------|--------|---------------------|------------------------|
D#|--------|--------|--------|--------|--------|--------|---------------------|------------------------|


D#|---------------------|------------------------|------------------------|--------------------|
A#|-17----15--15--------|------------------------|------------------------|--------------------|
F#|----------------16---|-15---15--13--13---12---|-----10--10-------------|--------------------|
C#|---------------------|------------------------|--------------12---11---|-----9---9----------|
G#|---------------------|------------------------|------------------------|--------------------|
D#|---------------------|------------------------|------------------------|--------------------|


D#|--------|--------|--------|--------|--------|--------|--------|--------|--------|
A#|--------|--------|--------|--------|--------|--------|--------|--------|--------|
F#|--------|--------|--------|--------|--------|--------|--------|--------|--------|
C#|--------|--------|--------|--------|--------|--------|--------|--------|--------|
G#|--------|--------|--------|--------|--------|--------|--------|--------|--------|
D#|--------|--------|--------|--------|--------|--------|--------|--------|--------|


D#|--------|--------|--------|--------|--------|--------|--------|--------|--------|
A#|--------|--------|--------|--------|--------|--------|--------|--------|--------|
F#|--------|--------|--------|--------|--------|--------|--------|--------|--------|
C#|--------|--------|--------|--------|--------|--------|--------|--------|--------|
G#|--------|--------|--------|--------|--------|--------|--------|--------|--------|
D#|--------|--------|--------|--------|--------|--------|--------|--------|--------|


D#|--------|--------|--------|--------|--------|--------|--------|--------|--------|
A#|--------|--------|--------|--------|--------|--------|--------|--------|--------|
F#|--------|--------|--------|--------|--------|--------|--------|--------|--------|
C#|--------|--------|--------|--------|--------|--------|--------|--------|--------|
G#|--------|--------|--------|--------|--------|--------|--------|--------|--------|
D#|--------|--------|--------|--------|--------|--------|--------|--------|--------|


D#|--------|---------------------------------|------------------------------|------------------------------|
A#|--------|---------------------------------|------------------------------|------------------------------|
F#|--------|-----7-------7-----------7-------|-7--------9-------9-----------|-9-------9--------7-------7---|
C#|--------|-----7-------8-----------7-------|-8--------8-------7-----------|-8-------7--------7-------8---|
G#|--------|-5-------5-------5---5-------5---|------------------------------|--------------5-------5-------|
D#|--------|---------------------------------|------8-------8-------8---8---|-----8------------------------|


D#|------------------------------|------------------------------|---------------------------------|
A#|------------------------------|------------------------------|---------------------------------|
F#|---------7-------7--------9---|-----9-----------9-------9----|-----7-------7-----------7-------|
C#|---------7-------8--------8---|-----7-----------8-------7----|-----7-------5-----------7-------|
G#|-5---5-------5----------------|------------------------------|---------------------------------|
D#|----------------------8-------|-8-------8---8-------8--------|-6-------6-------6---6-------6---|


D#|------------------------------|------------------------------|------------------------------|
A#|------------------------------|------------------------------|------------------------------|
F#|-7--------5-------5-----------|-5-------5--------3-------3---|---------2-------2------------|
C#|-5--------5-------3-----------|-5-------3--------3-------2---|---------2-------0--------5---|
G#|------------------------------|------------------------------|--------------------------5---|
D#|------5-------5-------5---5---|-----5--------3-------3-------|-3---1-------1--------0-------|


D#|------------------------------|--------|--------|--------|--------|--------|--------|
A#|------------------------------|--------|--------|--------|--------|--------|--------|
F#|------------------------------|--------|--------|--------|--------|--------|--------|
C#|-----5-----------2-------2----|--------|--------|--------|--------|--------|--------|
G#|-----4-----------0-------0----|--------|--------|--------|--------|--------|--------|
D#|-0-------0---0-------0--------|--------|--------|--------|--------|--------|--------|


D#|--------|--------|--------|--------|--------|--------|--------|--------|--------|
A#|--------|--------|--------|--------|--------|--------|--------|--------|--------|
F#|--------|--------|--------|--------|--------|--------|--------|--------|--------|
C#|--------|--------|--------|--------|--------|--------|--------|--------|--------|
G#|--------|--------|--------|--------|--------|--------|--------|--------|--------|
D#|--------|--------|--------|--------|--------|--------|--------|--------|--------|


D#|--------|--------|--------|--------|--------|--------|--------|--------|--------|
A#|--------|--------|--------|--------|--------|--------|--------|--------|--------|
F#|--------|--------|--------|--------|--------|--------|--------|--------|--------|
C#|--------|--------|--------|--------|--------|--------|--------|--------|--------|
G#|--------|--------|--------|--------|--------|--------|--------|--------|--------|
D#|--------|--------|--------|--------|--------|--------|--------|--------|--------|


D#|--------|--------|--------|--------|--------|--------|--------|--------|--------|
A#|--------|--------|--------|--------|--------|--------|--------|--------|--------|
F#|--------|--------|--------|--------|--------|--------|--------|--------|--------|
C#|--------|--------|--------|--------|--------|--------|--------|--------|--------|
G#|--------|--------|--------|--------|--------|--------|--------|--------|--------|
D#|--------|--------|--------|--------|--------|--------|--------|--------|--------|


D#|--------|--------|--------|--------|--------|--------|--------|--------|--------|
A#|--------|--------|--------|--------|--------|--------|--------|--------|--------|
F#|--------|--------|--------|--------|--------|--------|--------|--------|--------|
C#|--------|--------|--------|--------|--------|--------|--------|--------|--------|
G#|--------|--------|--------|--------|--------|--------|--------|--------|--------|
D#|--------|--------|--------|--------|--------|--------|--------|--------|--------|


D#|--------|--------|--------|--------|--------|--------|--------|--------|--------|
A#|--------|--------|--------|--------|--------|--------|--------|--------|--------|
F#|--------|--------|--------|--------|--------|--------|--------|--------|--------|
C#|--------|--------|--------|--------|--------|--------|--------|--------|--------|
G#|--------|--------|--------|--------|--------|--------|--------|--------|--------|
D#|--------|--------|--------|--------|--------|--------|--------|--------|--------|


D#|--------|--------|--------|-----------------|-----17--15----15-------|-15-----------17--15--17---|
A#|--------|--------|--------|-------18----18--|------------------------|----------17---------------|
F#|--------|--------|--------|-----------------|-17-----------------15--|------15-------------------|
C#|--------|--------|--------|-----------------|------------------------|---------------------------|
G#|--------|--------|--------|-----------------|------------------------|---------------------------|
D#|--------|--------|--------|-----------------|------------------------|---------------------------|


D#|-----17--18--20--22----22--|-----20--22--20-22-20-18--------------|---------------------|
A#|---------------------------|--------------------------22--20--18--|-20----20---18--17---|
F#|---------------------------|--------------------------------------|---------------------|
C#|---------------------------|--------------------------------------|---------------------|
G#|---------------------------|--------------------------------------|---------------------|
D#|---------------------------|--------------------------------------|---------------------|


D#|------------------------|-----20--18----18--18--3---|-20-------------24--22--20---|
A#|-18--18--20---18----18--|---------------------------|------------20---------------|
F#|------------------------|-19------------------------|------17-21------------------|
C#|------------------------|---------------------------|-----------------------------|
G#|------------------------|---------------------------|-----------------------------|
D#|------------------------|---------------------------|-----------------------------|


D#|------22--24--24----|------24----24--24--24--|-24----24---24--21--21--|-21--21--18---22-21-18-22-21-18-------------------|
A#|--------------------|------------------------|------------------------|--------------------------------22-20-18-22-20-18-|
F#|--------------------|------------------------|------------------------|--------------------------------------------------|
C#|--------------------|------------------------|------------------------|--------------------------------------------------|
G#|--------------------|------------------------|------------------------|--------------------------------------------------|
D#|--------------------|------------------------|------------------------|--------------------------------------------------|


D#|------------------------------------------------------------|--------|--------|
A#|-20-18-17-20-18-17------------------------------------------|--------|--------|
F#|-------------------19-18-15-19-18-15------------------------|--------|--------|
C#|-------------------------------------19-17-15-19-17-15-14---|--------|--------|
G#|------------------------------------------------------------|--------|--------|
D#|------------------------------------------------------------|--------|--------|


D#|--------|--------|--------|--------|--------|--------|--------|--------|--------|
A#|--------|--------|--------|--------|--------|--------|--------|--------|--------|
F#|--------|--------|--------|--------|--------|--------|--------|--------|--------|
C#|--------|--------|--------|--------|--------|--------|--------|--------|--------|
G#|--------|--------|--------|--------|--------|--------|--------|--------|--------|
D#|--------|--------|--------|--------|--------|--------|--------|--------|--------|


D#|--------|--------|--------|--------|--------|--------|--------|--------|--------|
A#|--------|--------|--------|--------|--------|--------|--------|--------|--------|
F#|--------|--------|--------|--------|--------|--------|--------|--------|--------|
C#|--------|--------|--------|--------|--------|--------|--------|--------|--------|
G#|--------|--------|--------|--------|--------|--------|--------|--------|--------|
D#|--------|--------|--------|--------|--------|--------|--------|--------|--------|


D#|--------|--------|--------|--------|--------|--------|
A#|--------|--------|--------|--------|--------|--------|
F#|--------|--------|--------|--------|--------|--------|
C#|--------|--------|--------|--------|--------|--------|
G#|--------|--------|--------|--------|--------|--------|
D#|--------|--------|--------|--------|--------|--------|





Track 5: Clean Guitar - John Petrucci

D#|--------|--------|--------|--------|--------|--------|--------|--------|--------|
A#|--------|--------|--------|--------|--------|--------|--------|--------|--------|
F#|--------|--------|--------|--------|--------|--------|--------|--------|--------|
C#|--------|--------|--------|--------|--------|--------|--------|--------|--------|
G#|--------|--------|--------|--------|--------|--------|--------|--------|--------|
D#|--------|--------|--------|--------|--------|--------|--------|--------|--------|


D#|--------|--------|--------|--------|--------|--------|--------|--------|--------|
A#|--------|--------|--------|--------|--------|--------|--------|--------|--------|
F#|--------|--------|--------|--------|--------|--------|--------|--------|--------|
C#|--------|--------|--------|--------|--------|--------|--------|--------|--------|
G#|--------|--------|--------|--------|--------|--------|--------|--------|--------|
D#|--------|--------|--------|--------|--------|--------|--------|--------|--------|


D#|--------|--------|--------|--------|--------|--------|--------|--------|--------|
A#|--------|--------|--------|--------|--------|--------|--------|--------|--------|
F#|--------|--------|--------|--------|--------|--------|--------|--------|--------|
C#|--------|--------|--------|--------|--------|--------|--------|--------|--------|
G#|--------|--------|--------|--------|--------|--------|--------|--------|--------|
D#|--------|--------|--------|--------|--------|--------|--------|--------|--------|


D#|--------|--------|--------|--------|--------|--------|--------|--------|--------|
A#|--------|--------|--------|--------|--------|--------|--------|--------|--------|
F#|--------|--------|--------|--------|--------|--------|--------|--------|--------|
C#|--------|--------|--------|--------|--------|--------|--------|--------|--------|
G#|--------|--------|--------|--------|--------|--------|--------|--------|--------|
D#|--------|--------|--------|--------|--------|--------|--------|--------|--------|


D#|--------|--------|--------|--------|--------|--------|--------|--------|--------|
A#|--------|--------|--------|--------|--------|--------|--------|--------|--------|
F#|--------|--------|--------|--------|--------|--------|--------|--------|--------|
C#|--------|--------|--------|--------|--------|--------|--------|--------|--------|
G#|--------|--------|--------|--------|--------|--------|--------|--------|--------|
D#|--------|--------|--------|--------|--------|--------|--------|--------|--------|


D#|--------|--------|--------|--------|--------|--------|--------|--------|--------|
A#|--------|--------|--------|--------|--------|--------|--------|--------|--------|
F#|--------|--------|--------|--------|--------|--------|--------|--------|--------|
C#|--------|--------|--------|--------|--------|--------|--------|--------|--------|
G#|--------|--------|--------|--------|--------|--------|--------|--------|--------|
D#|--------|--------|--------|--------|--------|--------|--------|--------|--------|


D#|--------|--------|--------|--------|--------|--------|--------|--------|--------|
A#|--------|--------|--------|--------|--------|--------|--------|--------|--------|
F#|--------|--------|--------|--------|--------|--------|--------|--------|--------|
C#|--------|--------|--------|--------|--------|--------|--------|--------|--------|
G#|--------|--------|--------|--------|--------|--------|--------|--------|--------|
D#|--------|--------|--------|--------|--------|--------|--------|--------|--------|


D#|--------|--------|--------|--------|--------|--------|--------|--------|--------|
A#|--------|--------|--------|--------|--------|--------|--------|--------|--------|
F#|--------|--------|--------|--------|--------|--------|--------|--------|--------|
C#|--------|--------|--------|--------|--------|--------|--------|--------|--------|
G#|--------|--------|--------|--------|--------|--------|--------|--------|--------|
D#|--------|--------|--------|--------|--------|--------|--------|--------|--------|


D#|-----------------------------------|--------0-----1--0---0---------------------|
A#|-----------------------------------|-2---3------------------3---2--------------|
F#|-------------3---3---2-------2--3--|-------------------------------3--2--0-----|
C#|-2----3--3-------------------------|----------------------------------------3--|
G#|-----------------------------------|-------------------------------------------|
D#|-----------------------------------|-------------------------------------------|


D#|-----------------------------------|-3---3--0--0--0--1---1------------|-----------------------------------|
A#|-----------------------------------|------------------------3----3----|-----------------------------------|
F#|-------------3---3---2-------2--3--|----------------------------------|-------------3---3---2-------2--3--|
C#|-2----3--3-------------------------|----------------------------------|-2----3--3-------------------------|
G#|-----------------------------------|----------------------------------|-----------------------------------|
D#|-----------------------------------|----------------------------------|-----------------------------------|


D#|--------0-----1--0---0---------------------|-----------------------------------|
A#|-2---3------------------3---2--------------|-----------------------------------|
F#|-------------------------------3--2--0-----|-------------3---3---2-------2--3--|
C#|----------------------------------------3--|-2----3--3-------------------------|
G#|-------------------------------------------|-----------------------------------|
D#|-------------------------------------------|-----------------------------------|


D#|--------0-----1---------------------|-10-10-10-10----10-10-10-10-10--10-10-10-10-10-|
A#|-2---3-----------3---3----1---------|-10-10-10-10----10-10-10-10-10--10-10-10-10-10-|
F#|-----------------------------3---2--|-----------------------------------------------|
C#|------------------------------------|-----------------------------------------------|
G#|------------------------------------|-----------------------------------------------|
D#|------------------------------------|-----------------------------------------------|


D#|-10-10-10-10----10-10-10-10-10--10-10-10-10-10-|-10-10-10-10----10-10-10-10-10--10-10-10-10-10-|
A#|-10-10-10-10----10-10-10-10-10--10-10-10-10-10-|-10-10-10-10----10-10-10-10-10--10-10-10-10-10-|
F#|-----------------------------------------------|-----------------------------------------------|
C#|-----------------------------------------------|-----------------------------------------------|
G#|-----------------------------------------------|-----------------------------------------------|
D#|-----------------------------------------------|-----------------------------------------------|


D#|-10-10-10-10----10-10-10-10-10--10-10-10-10-10-|-10-10-10-10----10-10-10-10-10--10-10-10-10-10-|
A#|-10-10-10-10----10-10-10-10-10--10-10-10-10-10-|-10-10-10-10----10-10-10-10-10--10-10-10-10-10-|
F#|-----------------------------------------------|-----------------------------------------------|
C#|-----------------------------------------------|-----------------------------------------------|
G#|-----------------------------------------------|-----------------------------------------------|
D#|-----------------------------------------------|-----------------------------------------------|


D#|-10-10-10-10----10-10-10-10-10--10-10-10-10-10-|-10-10-10-10----10-10-10-10-10--10-10-10-10-10-|
A#|-10-10-10-10----10-10-10-10-10--10-10-10-10-10-|-10-10-10-10----10-10-10-10-10--10-10-10-10-10-|
F#|-----------------------------------------------|-----------------------------------------------|
C#|-----------------------------------------------|-----------------------------------------------|
G#|-----------------------------------------------|-----------------------------------------------|
D#|-----------------------------------------------|-----------------------------------------------|


D#|-10-10-10-10----10-10-10-10-10--10-10-10-10-10-|--------|--------|--------|--------|
A#|-10-10-10-10----10-10-10-10-10--10-10-10-10-10-|--------|--------|--------|--------|
F#|-----------------------------------------------|--------|--------|--------|--------|
C#|-----------------------------------------------|--------|--------|--------|--------|
G#|-----------------------------------------------|--------|--------|--------|--------|
D#|-----------------------------------------------|--------|--------|--------|--------|


D#|--------|--------|--------|--------|--------|--------|--------|--------|--------|
A#|--------|--------|--------|--------|--------|--------|--------|--------|--------|
F#|--------|--------|--------|--------|--------|--------|--------|--------|--------|
C#|--------|--------|--------|--------|--------|--------|--------|--------|--------|
G#|--------|--------|--------|--------|--------|--------|--------|--------|--------|
D#|--------|--------|--------|--------|--------|--------|--------|--------|--------|


D#|--------|--------|--------|--------|--------|--------|--------|--------|--------|
A#|--------|--------|--------|--------|--------|--------|--------|--------|--------|
F#|--------|--------|--------|--------|--------|--------|--------|--------|--------|
C#|--------|--------|--------|--------|--------|--------|--------|--------|--------|
G#|--------|--------|--------|--------|--------|--------|--------|--------|--------|
D#|--------|--------|--------|--------|--------|--------|--------|--------|--------|


D#|--------|--------|--------|--------|--------|--------|--------|--------|--------|
A#|--------|--------|--------|--------|--------|--------|--------|--------|--------|
F#|--------|--------|--------|--------|--------|--------|--------|--------|--------|
C#|--------|--------|--------|--------|--------|--------|--------|--------|--------|
G#|--------|--------|--------|--------|--------|--------|--------|--------|--------|
D#|--------|--------|--------|--------|--------|--------|--------|--------|--------|


D#|--------|--------|--------|--------|--------|--------|--------|--------|--------|
A#|--------|--------|--------|--------|--------|--------|--------|--------|--------|
F#|--------|--------|--------|--------|--------|--------|--------|--------|--------|
C#|--------|--------|--------|--------|--------|--------|--------|--------|--------|
G#|--------|--------|--------|--------|--------|--------|--------|--------|--------|
D#|--------|--------|--------|--------|--------|--------|--------|--------|--------|


D#|--------|--------|--------|--------|--------|--------|--------|--------|--------|
A#|--------|--------|--------|--------|--------|--------|--------|--------|--------|
F#|--------|--------|--------|--------|--------|--------|--------|--------|--------|
C#|--------|--------|--------|--------|--------|--------|--------|--------|--------|
G#|--------|--------|--------|--------|--------|--------|--------|--------|--------|
D#|--------|--------|--------|--------|--------|--------|--------|--------|--------|


D#|--------|--------|--------|--------|--------|--------|--------|--------|--------|
A#|--------|--------|--------|--------|--------|--------|--------|--------|--------|
F#|--------|--------|--------|--------|--------|--------|--------|--------|--------|
C#|--------|--------|--------|--------|--------|--------|--------|--------|--------|
G#|--------|--------|--------|--------|--------|--------|--------|--------|--------|
D#|--------|--------|--------|--------|--------|--------|--------|--------|--------|


D#|--------|--------|--------|--------|--------|--------|--------|--------|--------|
A#|--------|--------|--------|--------|--------|--------|--------|--------|--------|
F#|--------|--------|--------|--------|--------|--------|--------|--------|--------|
C#|--------|--------|--------|--------|--------|--------|--------|--------|--------|
G#|--------|--------|--------|--------|--------|--------|--------|--------|--------|
D#|--------|--------|--------|--------|--------|--------|--------|--------|--------|


D#|--------|--------|--------|--------|--------|--------|--------|--------|--------|
A#|--------|--------|--------|--------|--------|--------|--------|--------|--------|
F#|--------|--------|--------|--------|--------|--------|--------|--------|--------|
C#|--------|--------|--------|--------|--------|--------|--------|--------|--------|
G#|--------|--------|--------|--------|--------|--------|--------|--------|--------|
D#|--------|--------|--------|--------|--------|--------|--------|--------|--------|


D#|--------|--------|--------|--------|--------|--------|--------|--------|--------|
A#|--------|--------|--------|--------|--------|--------|--------|--------|--------|
F#|--------|--------|--------|--------|--------|--------|--------|--------|--------|
C#|--------|--------|--------|--------|--------|--------|--------|--------|--------|
G#|--------|--------|--------|--------|--------|--------|--------|--------|--------|
D#|--------|--------|--------|--------|--------|--------|--------|--------|--------|


D#|--------|--------|--------|--------|--------|--------|--------|--------|--------|
A#|--------|--------|--------|--------|--------|--------|--------|--------|--------|
F#|--------|--------|--------|--------|--------|--------|--------|--------|--------|
C#|--------|--------|--------|--------|--------|--------|--------|--------|--------|
G#|--------|--------|--------|--------|--------|--------|--------|--------|--------|
D#|--------|--------|--------|--------|--------|--------|--------|--------|--------|


D#|--------|--------|--------|--------|--------|--------|--------|--------|--------|
A#|--------|--------|--------|--------|--------|--------|--------|--------|--------|
F#|--------|--------|--------|--------|--------|--------|--------|--------|--------|
C#|--------|--------|--------|--------|--------|--------|--------|--------|--------|
G#|--------|--------|--------|--------|--------|--------|--------|--------|--------|
D#|--------|--------|--------|--------|--------|--------|--------|--------|--------|


D#|--------|--------|--------|--------|--------|--------|--------|--------|--------|
A#|--------|--------|--------|--------|--------|--------|--------|--------|--------|
F#|--------|--------|--------|--------|--------|--------|--------|--------|--------|
C#|--------|--------|--------|--------|--------|--------|--------|--------|--------|
G#|--------|--------|--------|--------|--------|--------|--------|--------|--------|
D#|--------|--------|--------|--------|--------|--------|--------|--------|--------|


D#|--------|--------|--------|--------|--------|--------|--------|--------|--------|
A#|--------|--------|--------|--------|--------|--------|--------|--------|--------|
F#|--------|--------|--------|--------|--------|--------|--------|--------|--------|
C#|--------|--------|--------|--------|--------|--------|--------|--------|--------|
G#|--------|--------|--------|--------|--------|--------|--------|--------|--------|
D#|--------|--------|--------|--------|--------|--------|--------|--------|--------|


D#|--------|--------|--------|--------|--------|--------|--------|--------|--------|
A#|--------|--------|--------|--------|--------|--------|--------|--------|--------|
F#|--------|--------|--------|--------|--------|--------|--------|--------|--------|
C#|--------|--------|--------|--------|--------|--------|--------|--------|--------|
G#|--------|--------|--------|--------|--------|--------|--------|--------|--------|
D#|--------|--------|--------|--------|--------|--------|--------|--------|--------|


D#|--------|--------|--------|--------|--------|--------|--------|--------|--------|
A#|--------|--------|--------|--------|--------|--------|--------|--------|--------|
F#|--------|--------|--------|--------|--------|--------|--------|--------|--------|
C#|--------|--------|--------|--------|--------|--------|--------|--------|--------|
G#|--------|--------|--------|--------|--------|--------|--------|--------|--------|
D#|--------|--------|--------|--------|--------|--------|--------|--------|--------|


D#|--------|--------|--------|--------|--------|--------|--------|--------|--------|
A#|--------|--------|--------|--------|--------|--------|--------|--------|--------|
F#|--------|--------|--------|--------|--------|--------|--------|--------|--------|
C#|--------|--------|--------|--------|--------|--------|--------|--------|--------|
G#|--------|--------|--------|--------|--------|--------|--------|--------|--------|
D#|--------|--------|--------|--------|--------|--------|--------|--------|--------|


D#|--------|--------|--------|--------|--------|--------|--------|--------|--------|
A#|--------|--------|--------|--------|--------|--------|--------|--------|--------|
F#|--------|--------|--------|--------|--------|--------|--------|--------|--------|
C#|--------|--------|--------|--------|--------|--------|--------|--------|--------|
G#|--------|--------|--------|--------|--------|--------|--------|--------|--------|
D#|--------|--------|--------|--------|--------|--------|--------|--------|--------|


D#|--------|--------|--------|--------|--------|--------|--------|--------|--------|
A#|--------|--------|--------|--------|--------|--------|--------|--------|--------|
F#|--------|--------|--------|--------|--------|--------|--------|--------|--------|
C#|--------|--------|--------|--------|--------|--------|--------|--------|--------|
G#|--------|--------|--------|--------|--------|--------|--------|--------|--------|
D#|--------|--------|--------|--------|--------|--------|--------|--------|--------|


D#|--------|--------|--------|--------|--------|--------|--------|--------|--------|
A#|--------|--------|--------|--------|--------|--------|--------|--------|--------|
F#|--------|--------|--------|--------|--------|--------|--------|--------|--------|
C#|--------|--------|--------|--------|--------|--------|--------|--------|--------|
G#|--------|--------|--------|--------|--------|--------|--------|--------|--------|
D#|--------|--------|--------|--------|--------|--------|--------|--------|--------|


D#|--------|--------|--------|--------|--------|--------|--------|--------|--------|
A#|--------|--------|--------|--------|--------|--------|--------|--------|--------|
F#|--------|--------|--------|--------|--------|--------|--------|--------|--------|
C#|--------|--------|--------|--------|--------|--------|--------|--------|--------|
G#|--------|--------|--------|--------|--------|--------|--------|--------|--------|
D#|--------|--------|--------|--------|--------|--------|--------|--------|--------|


D#|--------|--------|--------|--------|--------|--------|--------|--------|--------|
A#|--------|--------|--------|--------|--------|--------|--------|--------|--------|
F#|--------|--------|--------|--------|--------|--------|--------|--------|--------|
C#|--------|--------|--------|--------|--------|--------|--------|--------|--------|
G#|--------|--------|--------|--------|--------|--------|--------|--------|--------|
D#|--------|--------|--------|--------|--------|--------|--------|--------|--------|


D#|--------|--------|--------|--------|--------|--------|--------|--------|--------|
A#|--------|--------|--------|--------|--------|--------|--------|--------|--------|
F#|--------|--------|--------|--------|--------|--------|--------|--------|--------|
C#|--------|--------|--------|--------|--------|--------|--------|--------|--------|
G#|--------|--------|--------|--------|--------|--------|--------|--------|--------|
D#|--------|--------|--------|--------|--------|--------|--------|--------|--------|


D#|--------|--------|--------|--------|--------|--------|--------|--------|--------|
A#|--------|--------|--------|--------|--------|--------|--------|--------|--------|
F#|--------|--------|--------|--------|--------|--------|--------|--------|--------|
C#|--------|--------|--------|--------|--------|--------|--------|--------|--------|
G#|--------|--------|--------|--------|--------|--------|--------|--------|--------|
D#|--------|--------|--------|--------|--------|--------|--------|--------|--------|


D#|--------|--------|--------|--------|--------|--------|--------|--------|--------|
A#|--------|--------|--------|--------|--------|--------|--------|--------|--------|
F#|--------|--------|--------|--------|--------|--------|--------|--------|--------|
C#|--------|--------|--------|--------|--------|--------|--------|--------|--------|
G#|--------|--------|--------|--------|--------|--------|--------|--------|--------|
D#|--------|--------|--------|--------|--------|--------|--------|--------|--------|


D#|--------|--------|--------|--------|--------|--------|--------|--------|--------|
A#|--------|--------|--------|--------|--------|--------|--------|--------|--------|
F#|--------|--------|--------|--------|--------|--------|--------|--------|--------|
C#|--------|--------|--------|--------|--------|--------|--------|--------|--------|
G#|--------|--------|--------|--------|--------|--------|--------|--------|--------|
D#|--------|--------|--------|--------|--------|--------|--------|--------|--------|


D#|--------|--------|--------|--------|--------|--------|--------|--------|--------|
A#|--------|--------|--------|--------|--------|--------|--------|--------|--------|
F#|--------|--------|--------|--------|--------|--------|--------|--------|--------|
C#|--------|--------|--------|--------|--------|--------|--------|--------|--------|
G#|--------|--------|--------|--------|--------|--------|--------|--------|--------|
D#|--------|--------|--------|--------|--------|--------|--------|--------|--------|


D#|--------|--------|--------|--------|--------|--------|--------|
A#|--------|--------|--------|--------|--------|--------|--------|
F#|--------|--------|--------|--------|--------|--------|--------|
C#|--------|--------|--------|--------|--------|--------|--------|
G#|--------|--------|--------|--------|--------|--------|--------|
D#|--------|--------|--------|--------|--------|--------|--------|





Track 6: Distorted Guitar 3 - John Petrucci

D#|--------|--------|--------|--------|--------|--------|--------|--------|--------|
A#|--------|--------|--------|--------|--------|--------|--------|--------|--------|
F#|--------|--------|--------|--------|--------|--------|--------|--------|--------|
C#|--------|--------|--------|--------|--------|--------|--------|--------|--------|
G#|--------|--------|--------|--------|--------|--------|--------|--------|--------|
D#|--------|--------|--------|--------|--------|--------|--------|--------|--------|


D#|--------|--------|--------|--------|--------|--------|--------|--------|--------|
A#|--------|--------|--------|--------|--------|--------|--------|--------|--------|
F#|--------|--------|--------|--------|--------|--------|--------|--------|--------|
C#|--------|--------|--------|--------|--------|--------|--------|--------|--------|
G#|--------|--------|--------|--------|--------|--------|--------|--------|--------|
D#|--------|--------|--------|--------|--------|--------|--------|--------|--------|


D#|--------|--------|--------|--------|--------|--------|--------|--------|--------|
A#|--------|--------|--------|--------|--------|--------|--------|--------|--------|
F#|--------|--------|--------|--------|--------|--------|--------|--------|--------|
C#|--------|--------|--------|--------|--------|--------|--------|--------|--------|
G#|--------|--------|--------|--------|--------|--------|--------|--------|--------|
D#|--------|--------|--------|--------|--------|--------|--------|--------|--------|


D#|--------|--------|--------|--------|--------|--------|--------|--------|--------|
A#|--------|--------|--------|--------|--------|--------|--------|--------|--------|
F#|--------|--------|--------|--------|--------|--------|--------|--------|--------|
C#|--------|--------|--------|--------|--------|--------|--------|--------|--------|
G#|--------|--------|--------|--------|--------|--------|--------|--------|--------|
D#|--------|--------|--------|--------|--------|--------|--------|--------|--------|


D#|--------|--------|--------|--------|--------|--------|--------|--------|--------|
A#|--------|--------|--------|--------|--------|--------|--------|--------|--------|
F#|--------|--------|--------|--------|--------|--------|--------|--------|--------|
C#|--------|--------|--------|--------|--------|--------|--------|--------|--------|
G#|--------|--------|--------|--------|--------|--------|--------|--------|--------|
D#|--------|--------|--------|--------|--------|--------|--------|--------|--------|


D#|--------|--------|--------|--------|--------|--------|--------|--------|--------|
A#|--------|--------|--------|--------|--------|--------|--------|--------|--------|
F#|--------|--------|--------|--------|--------|--------|--------|--------|--------|
C#|--------|--------|--------|--------|--------|--------|--------|--------|--------|
G#|--------|--------|--------|--------|--------|--------|--------|--------|--------|
D#|--------|--------|--------|--------|--------|--------|--------|--------|--------|


D#|--------|--------|--------|--------|--------|--------|--------|--------|--------|
A#|--------|--------|--------|--------|--------|--------|--------|--------|--------|
F#|--------|--------|--------|--------|--------|--------|--------|--------|--------|
C#|--------|--------|--------|--------|--------|--------|--------|--------|--------|
G#|--------|--------|--------|--------|--------|--------|--------|--------|--------|
D#|--------|--------|--------|--------|--------|--------|--------|--------|--------|


D#|--------|--------|--------|--------|--------|--------|--------|--------|--------|
A#|--------|--------|--------|--------|--------|--------|--------|--------|--------|
F#|--------|--------|--------|--------|--------|--------|--------|--------|--------|
C#|--------|--------|--------|--------|--------|--------|--------|--------|--------|
G#|--------|--------|--------|--------|--------|--------|--------|--------|--------|
D#|--------|--------|--------|--------|--------|--------|--------|--------|--------|


D#|--------|--------|--------|--------|--------|--------|--------|--------|-------------------------------|
A#|--------|--------|--------|--------|--------|--------|--------|--------|-10---10-10---10---------8--10-|
F#|--------|--------|--------|--------|--------|--------|--------|--------|-------------------9--10-------|
C#|--------|--------|--------|--------|--------|--------|--------|--------|-------------------------------|
G#|--------|--------|--------|--------|--------|--------|--------|--------|-------------------------------|
D#|--------|--------|--------|--------|--------|--------|--------|--------|-------------------------------|


D#|--------------------------------------|------------------------|------------------------------------|
A#|-11---10-10-11108-------------8---10--|-8-----8----------5--6--|-5---------------3---3-----------8--|
F#|--------------------10-10-10----------|------------6--7--------|-----7--6--6--3-----------9--10-----|
C#|--------------------------------------|------------------------|------------------------------------|
G#|--------------------------------------|------------------------|------------------------------------|
D#|--------------------------------------|------------------------|------------------------------------|


D#|-------------------------------|-----------------------------------|----------------------------------|
A#|-10---10-10---10---------8--10-|-14---11-11-14-10--8----10-10-11---|-14---14-14---14------------14-15-|
F#|-------------------9--10-------|-----------------------------------|----------------------14-15-------|
C#|-------------------------------|-----------------------------------|------------------0---------------|
G#|-------------------------------|-----------------------------------|----------------------------------|
D#|-------------------------------|-----------------------------------|----------------------------------|


D#|-----------------------15-17----17--|--------|--------|--------|--------|--------|
A#|-17-151415-17-18-17-18--------------|--------|--------|--------|--------|--------|
F#|------------------------------------|--------|--------|--------|--------|--------|
C#|------------------------------------|--------|--------|--------|--------|--------|
G#|------------------------------------|--------|--------|--------|--------|--------|
D#|------------------------------------|--------|--------|--------|--------|--------|


D#|--------|--------|--------|--------|--------|--------|--------|--------|--------|
A#|--------|--------|--------|--------|--------|--------|--------|--------|--------|
F#|--------|--------|--------|--------|--------|--------|--------|--------|--------|
C#|--------|--------|--------|--------|--------|--------|--------|--------|--------|
G#|--------|--------|--------|--------|--------|--------|--------|--------|--------|
D#|--------|--------|--------|--------|--------|--------|--------|--------|--------|


D#|--------|--------|--------|--------|--------|--------|--------|--------|--------|
A#|--------|--------|--------|--------|--------|--------|--------|--------|--------|
F#|--------|--------|--------|--------|--------|--------|--------|--------|--------|
C#|--------|--------|--------|--------|--------|--------|--------|--------|--------|
G#|--------|--------|--------|--------|--------|--------|--------|--------|--------|
D#|--------|--------|--------|--------|--------|--------|--------|--------|--------|


D#|--------|--------|--------|--------|--------|--------|--------|--------|--------|
A#|--------|--------|--------|--------|--------|--------|--------|--------|--------|
F#|--------|--------|--------|--------|--------|--------|--------|--------|--------|
C#|--------|--------|--------|--------|--------|--------|--------|--------|--------|
G#|--------|--------|--------|--------|--------|--------|--------|--------|--------|
D#|--------|--------|--------|--------|--------|--------|--------|--------|--------|


D#|-----------------------------------------22202018-20-22-20-18-18-20-18-17-18-20-|
A#|-15-22-22-22-22-22-22-22-22-22-22-222222----------------------------------------|
F#|--------------------------------------------------------------------------------|
C#|--------------------------------------------------------------------------------|
G#|--------------------------------------------------------------------------------|
D#|--------------------------------------------------------------------------------|


D#|-18151818171817-15-17-18-1817-------------------------------------------------------|
A#|-----------------------------201822-20-18-20-22-20-18-18-17-15-17-18-15-1717----1515|
F#|----------------------------------------------------------------------------1717----|
C#|------------------------------------------------------------------------------------|
G#|------------------------------------------------------------------------------------|
D#|------------------------------------------------------------------------------------|


D#|-----------------------------------------------------------------------------------------|
A#|-1717------------------------------------------------------------------------------------|
F#|-----19-17-171715151415171715141315141414121415-14-12-12-10-9--12-12-12109-8--10-109-8-7-|
C#|-----------------------------------------------------------------------------------------|
G#|-----------------------------------------------------------------------------------------|
D#|-----------------------------------------------------------------------------------------|


D#|------------------------------------------------------------------|------------------------------------13---------------------------------------18-1820|
A#|------------------------------------------------------------------|----------------------------------13--131513----1817-18-201818-1718182020-22--------|
F#|---10-10----------------------------------------------------------|--------------------12141517151415----------1717------------------------------------|
C#|-----------------------------------------------------------121415-|-12-14-15-17-15-1415----------------------------------------------------------------|
G#|---------12-15-13-15-11-13--------10121312-12-12131512-1315-------|------------------------------------------------------------------------------------|
D#|----------------------------101213--------------------------------|------------------------------------------------------------------------------------|


D#|---22-22--22---22--22-22-22-22-22-----20-22-2018|-171820201817----18-18-20--------------------0----------------------------|
A#|----------------------------------2023----------|--------------18----------232221-22-24222020----20-22-23-20-1820222018----|
F#|------------------------------------------------|-----------------------------------------------------------------------19-|
C#|------------------------------------------------|--------------------------------------------------------------------------|
G#|------------------------------------------------|--------------------------------------------------------------------------|
D#|------------------------------------------------|--------------------------------------------------------------------------|


D#|-----------------------------------16-------------------16------------|---17-21--------------------------------------------20-2220|
A#|-18202220181718201817---1718201817----17-------------17---------------|-17------17------20--20--20-20-20-20-20-22-20-23-22--------|
F#|----------------------17---------------------------16---------------18|-----------18----------------------------------------------|
C#|-----------------------------------------18------18---------------19--|-------------19--------------------------------------------|
G#|--------------------------------------------19-19---------------19----|---------------19------------------------------------------|
D#|------------------------------------------------------------2117------|-----------------------------------------------------------|


D#|---202222-20--------------------------------------------|---------20191717191716------------------------------------|
A#|-------------22-20-22-202020-18-20-18-18-18----18-15-18-|-15--------------------18-151718171517-----17----2222182122|
F#|--------------------------------------------19----------|---------------------------------------1719--1917----------|
C#|--------------------------------------------------------|-----------------------------------------------------------|
G#|--------------------------------------------------------|-----------------------------------------------------------|
D#|--------------------------------------------------------|-----------------------------------------------------------|


D#|------------------------------------------------------------------------|---------1717182020222220201817-18-20-222220-------------------------------------|
A#|-21182117181821181716--1616-----------------------------17-18-20-22-2018|-17182020------------------------------------22-20-201718171718202222201817182020|
F#|---------------------17----1716-16-16-16-16-16-16-16-14-----------------|---------------------------------------------------------------------------------|
C#|------------------------------------------------------------------------|---------------------------------------------------------------------------------|
G#|------------------------------------------------------------------------|---------------------------------------------------------------------------------|
D#|------------------------------------------------------------------------|---------------------------------------------------------------------------------|


D#|-----18202022201817171820222220201715171715151312131516151311101112131415151818201817|
A#|-2222--------------------------------------------------------------------------------|
F#|-------------------------------------------------------------------------------------|
C#|-------------------------------------------------------------------------------------|
G#|-------------------------------------------------------------------------------------|
D#|-------------------------------------------------------------------------------------|


D#|---------------------------------------------------------------------------|--------------------------------------------------------------|
A#|-20-20-18151517202018171515------------------------------------------------|-101113111010------------8------------------------------------|
F#|---------------------------17-14-14-17-19-171514-11109-10101010107-10101010|-------------12129-7-9-10--9-7-----5-5--------------7--12--12-|
C#|---------------------------------------------------------------------------|-------------------------------7-8-----6-7--6-4---------------|
G#|---------------------------------------------------------------------------|-------------------------------------------------5------------|
D#|---------------------------------------------------------------------------|--------------------------------------------------------------|


D#|---------------------------------------------------|-------------------------12-13-15-16-17-17-17-17-|
A#|---------------------------------------------------|----13-14-15-14-13-14-15-------------------------|
F#|-12-12-12-12-12-12-12---------------14-15--1412-14-|-15----------------------------------------------|
C#|-----------------------2---14-15-17----------------|-------------------------------------------------|
G#|---------------------------------------------------|-------------------------------------------------|
D#|---------------------------------------------------|-------------------------------------------------|


D#|-17-17-17-17-17----------------------------131517-|-----131719---------------------------------------------18-2022-222222|
A#|----------------------131417--131417-14-17--------|-1417--------18202321182021-----2023--------182022182022--------------|
F#|------------------1214------14--------------------|-----------19--------------1922-----21181921--------------------------|
C#|--------------------------------------------------|----------------------------------------------------------------------|
G#|--------------------------------------------------|----------------------------------------------------------------------|
D#|--------------------------------------------------|----------------------------------------------------------------------|


D#|-2222222222-------------|--------|--------|--------|--------|--------|--------|
A#|------------------------|--------|--------|--------|--------|--------|--------|
F#|------------------------|--------|--------|--------|--------|--------|--------|
C#|------------------------|--------|--------|--------|--------|--------|--------|
G#|------------------------|--------|--------|--------|--------|--------|--------|
D#|------------------------|--------|--------|--------|--------|--------|--------|


D#|--------|--------|--------|--------|--------|--------|--------|--------|--------|
A#|--------|--------|--------|--------|--------|--------|--------|--------|--------|
F#|--------|--------|--------|--------|--------|--------|--------|--------|--------|
C#|--------|--------|--------|--------|--------|--------|--------|--------|--------|
G#|--------|--------|--------|--------|--------|--------|--------|--------|--------|
D#|--------|--------|--------|--------|--------|--------|--------|--------|--------|


D#|--------|--------|--------|--------|--------|--------|--------|--------|--------|
A#|--------|--------|--------|--------|--------|--------|--------|--------|--------|
F#|--------|--------|--------|--------|--------|--------|--------|--------|--------|
C#|--------|--------|--------|--------|--------|--------|--------|--------|--------|
G#|--------|--------|--------|--------|--------|--------|--------|--------|--------|
D#|--------|--------|--------|--------|--------|--------|--------|--------|--------|


D#|--------|--------|--------|--------|--------|--------|--------|--------|--------|
A#|--------|--------|--------|--------|--------|--------|--------|--------|--------|
F#|--------|--------|--------|--------|--------|--------|--------|--------|--------|
C#|--------|--------|--------|--------|--------|--------|--------|--------|--------|
G#|--------|--------|--------|--------|--------|--------|--------|--------|--------|
D#|--------|--------|--------|--------|--------|--------|--------|--------|--------|


D#|--------|--------|--------|--------|--------|--------|--------|--------|--------|
A#|--------|--------|--------|--------|--------|--------|--------|--------|--------|
F#|--------|--------|--------|--------|--------|--------|--------|--------|--------|
C#|--------|--------|--------|--------|--------|--------|--------|--------|--------|
G#|--------|--------|--------|--------|--------|--------|--------|--------|--------|
D#|--------|--------|--------|--------|--------|--------|--------|--------|--------|


D#|--------|--------|--------|--------|--------|--------|--------|--------|--------|
A#|--------|--------|--------|--------|--------|--------|--------|--------|--------|
F#|--------|--------|--------|--------|--------|--------|--------|--------|--------|
C#|--------|--------|--------|--------|--------|--------|--------|--------|--------|
G#|--------|--------|--------|--------|--------|--------|--------|--------|--------|
D#|--------|--------|--------|--------|--------|--------|--------|--------|--------|


D#|--------|--------|--------|--------|--------|--------|--------|--------|--------|
A#|--------|--------|--------|--------|--------|--------|--------|--------|--------|
F#|--------|--------|--------|--------|--------|--------|--------|--------|--------|
C#|--------|--------|--------|--------|--------|--------|--------|--------|--------|
G#|--------|--------|--------|--------|--------|--------|--------|--------|--------|
D#|--------|--------|--------|--------|--------|--------|--------|--------|--------|


D#|--------|--------|--------|--------|--------|--------|--------|--------|--------|
A#|--------|--------|--------|--------|--------|--------|--------|--------|--------|
F#|--------|--------|--------|--------|--------|--------|--------|--------|--------|
C#|--------|--------|--------|--------|--------|--------|--------|--------|--------|
G#|--------|--------|--------|--------|--------|--------|--------|--------|--------|
D#|--------|--------|--------|--------|--------|--------|--------|--------|--------|


D#|--------|--------|--------|--------|--------|--------|--------|--------|--------|
A#|--------|--------|--------|--------|--------|--------|--------|--------|--------|
F#|--------|--------|--------|--------|--------|--------|--------|--------|--------|
C#|--------|--------|--------|--------|--------|--------|--------|--------|--------|
G#|--------|--------|--------|--------|--------|--------|--------|--------|--------|
D#|--------|--------|--------|--------|--------|--------|--------|--------|--------|


D#|--------|--------|--------|--------|--------|------------------------------|---------------------------|
A#|--------|--------|--------|--------|--------|------------------------------|---------------------------|
F#|--------|--------|--------|--------|--------|-----14------15-------14------|-15-------15------14-------|
C#|--------|--------|--------|--------|--------|-12------12-------12------12--|------10------10-------10--|
G#|--------|--------|--------|--------|--------|------------------------------|---------------------------|
D#|--------|--------|--------|--------|--------|------------------------------|---------------------------|


D#|------------------------------|------------------------------|---------------------------|
A#|------------------------------|------------------------------|---------------------------|
F#|-15------14-------14------15--|---------14------15-------15--|-----14-------15------14---|
C#|-----10-------12------12------|-----12------12-------10------|-10-------10------10-------|
G#|------------------------------|------------------------------|---------------------------|
D#|------------------------------|------------------------------|---------------------------|


D#|--------|--------|--------|--------|--------|--------|--------|--------|--------|
A#|--------|--------|--------|--------|--------|--------|--------|--------|--------|
F#|--------|--------|--------|--------|--------|--------|--------|--------|--------|
C#|--------|--------|--------|--------|--------|--------|--------|--------|--------|
G#|--------|--------|--------|--------|--------|--------|--------|--------|--------|
D#|--------|--------|--------|--------|--------|--------|--------|--------|--------|


D#|--------|--------|--------|--------|--------|--------|--------|--------|--------|
A#|--------|--------|--------|--------|--------|--------|--------|--------|--------|
F#|--------|--------|--------|--------|--------|--------|--------|--------|--------|
C#|--------|--------|--------|--------|--------|--------|--------|--------|--------|
G#|--------|--------|--------|--------|--------|--------|--------|--------|--------|
D#|--------|--------|--------|--------|--------|--------|--------|--------|--------|


D#|--------|--------|--------|--------|--------|--------|--------|--------|--------|
A#|--------|--------|--------|--------|--------|--------|--------|--------|--------|
F#|--------|--------|--------|--------|--------|--------|--------|--------|--------|
C#|--------|--------|--------|--------|--------|--------|--------|--------|--------|
G#|--------|--------|--------|--------|--------|--------|--------|--------|--------|
D#|--------|--------|--------|--------|--------|--------|--------|--------|--------|


D#|--------|--------|--------|--------|--------|--------|--------|--------|--------|
A#|--------|--------|--------|--------|--------|--------|--------|--------|--------|
F#|--------|--------|--------|--------|--------|--------|--------|--------|--------|
C#|--------|--------|--------|--------|--------|--------|--------|--------|--------|
G#|--------|--------|--------|--------|--------|--------|--------|--------|--------|
D#|--------|--------|--------|--------|--------|--------|--------|--------|--------|


D#|--------|--------|--------|--------|--------|--------|--------|--------|--------|
A#|--------|--------|--------|--------|--------|--------|--------|--------|--------|
F#|--------|--------|--------|--------|--------|--------|--------|--------|--------|
C#|--------|--------|--------|--------|--------|--------|--------|--------|--------|
G#|--------|--------|--------|--------|--------|--------|--------|--------|--------|
D#|--------|--------|--------|--------|--------|--------|--------|--------|--------|


D#|--------|--------|--------|--------|--------|--------|---------------13--12---|
A#|--------|--------|--------|--------|--------|--------|-15----15---------------|
F#|--------|--------|--------|--------|--------|--------|-----------14-----------|
C#|--------|--------|--------|--------|--------|--------|------------------------|
G#|--------|--------|--------|--------|--------|--------|------------------------|
D#|--------|--------|--------|--------|--------|--------|------------------------|


D#|-----12-------12-----------|-13--12--13----13--15--17--|-18----18---17--18--17-18-17-|
A#|-----------------------13--|---------------------------|-----------------------------|
F#|----------12-------12------|---------------------------|-----------------------------|
C#|---------------------------|---------------------------|-----------------------------|
G#|---------------------------|---------------------------|-----------------------------|
D#|---------------------------|---------------------------|-----------------------------|


D#|-15------------------------|---------------------------|---------------17--15---|
A#|-----18--17--15--17----17--|-----15--14---15--15--17---|-15----15---------------|
F#|---------------------------|---------------------------|-----------14-----------|
C#|---------------------------|---------------------------|------------------------|
G#|---------------------------|---------------------------|------------------------|
D#|---------------------------|---------------------------|------------------------|


D#|-----15--15--3---15-----------|-20--18--17----18--20--|-20-----22---|-----22--22--22--21----21--|
A#|--------------------------17--|-----------------------|-------------|---------------------------|
F#|----------------------17------|-----------------------|-------------|---------------------------|
C#|------------------------------|-----------------------|-------------|---------------------------|
G#|------------------------------|-----------------------|-------------|---------------------------|
D#|------------------------------|-----------------------|-------------|---------------------------|


D#|-----21--17--17--17--17--15---|-18-17-15-18-17-15-------------------------------------------------------|
A#|------------------------------|-------------------18-17-15-18-17-14-17-15-14-17-15-14-------------------|
F#|------------------------------|-------------------------------------------------------15-14-12-15-14-12-|
C#|------------------------------|-------------------------------------------------------------------------|
G#|------------------------------|-------------------------------------------------------------------------|
D#|------------------------------|-------------------------------------------------------------------------|


D#|----------------------------------|-----13--12----12-------|-12-----------13--12--13---|
A#|------------------------15----15--|------------------------|----------13---------------|
F#|----------------------------------|-14-----------------12--|------12-------------------|
C#|-15-14-12-15-14-12-11-------------|------------------------|---------------------------|
G#|----------------------------------|------------------------|---------------------------|
D#|----------------------------------|------------------------|---------------------------|


D#|-----13--15--17--18----18--|-----17--18--17-18-17-15--------------|---------------------|
A#|---------------------------|--------------------------18--17--15--|-17----17---15--14---|
F#|---------------------------|--------------------------------------|---------------------|
C#|---------------------------|--------------------------------------|---------------------|
G#|---------------------------|--------------------------------------|---------------------|
D#|---------------------------|--------------------------------------|---------------------|


D#|------------------------|-----17--15----15--15--3---|-15-----------20--18--17---|
A#|-15--15--17---15----15--|---------------------------|----------17---------------|
F#|------------------------|-14------------------------|------17-------------------|
C#|------------------------|---------------------------|---------------------------|
G#|------------------------|---------------------------|---------------------------|
D#|------------------------|---------------------------|---------------------------|


D#|------18--20--20----|------22----22--22--22--|-21----21---21--17--17--|-17--17--15---18-17-15-18-17-15-------------------|
A#|--------------------|------------------------|------------------------|--------------------------------18-17-15-18-17-14-|
F#|--------------------|------------------------|------------------------|--------------------------------------------------|
C#|--------------------|------------------------|------------------------|--------------------------------------------------|
G#|--------------------|------------------------|------------------------|--------------------------------------------------|
D#|--------------------|------------------------|------------------------|--------------------------------------------------|


D#|------------------------------------------------------------|--------|--------|
A#|-17-15-14-17-15-14------------------------------------------|--------|--------|
F#|-------------------15-14-12-15-14-12------------------------|--------|--------|
C#|-------------------------------------15-14-12-15-14-12-11---|--------|--------|
G#|------------------------------------------------------------|--------|--------|
D#|------------------------------------------------------------|--------|--------|


D#|--------|--------|--------|--------|--------|--------|--------|--------|--------|
A#|--------|--------|--------|--------|--------|--------|--------|--------|--------|
F#|--------|--------|--------|--------|--------|--------|--------|--------|--------|
C#|--------|--------|--------|--------|--------|--------|--------|--------|--------|
G#|--------|--------|--------|--------|--------|--------|--------|--------|--------|
D#|--------|--------|--------|--------|--------|--------|--------|--------|--------|


D#|--------|--------|--------|--------|--------|--------|--------|--------|--------|
A#|--------|--------|--------|--------|--------|--------|--------|--------|--------|
F#|--------|--------|--------|--------|--------|--------|--------|--------|--------|
C#|--------|--------|--------|--------|--------|--------|--------|--------|--------|
G#|--------|--------|--------|--------|--------|--------|--------|--------|--------|
D#|--------|--------|--------|--------|--------|--------|--------|--------|--------|


D#|--------|--------|--------|--------|--------|--------|
A#|--------|--------|--------|--------|--------|--------|
F#|--------|--------|--------|--------|--------|--------|
C#|--------|--------|--------|--------|--------|--------|
G#|--------|--------|--------|--------|--------|--------|
D#|--------|--------|--------|--------|--------|--------|





Track 7: Piano - Jordan Rudess

D#|--------|--------|--------|--------|--------|--------|--------|--------|--------|
A#|--------|--------|--------|--------|--------|--------|--------|--------|--------|
F#|--------|--------|--------|--------|--------|--------|--------|--------|--------|
C#|--------|--------|--------|--------|--------|--------|--------|--------|--------|
G#|--------|--------|--------|--------|--------|--------|--------|--------|--------|
D#|--------|--------|--------|--------|--------|--------|--------|--------|--------|
G#|--------|--------|--------|--------|--------|--------|--------|--------|--------|


D#|--------|--------|--------|--------|--------|--------|--------|--------|--------|
A#|--------|--------|--------|--------|--------|--------|--------|--------|--------|
F#|--------|--------|--------|--------|--------|--------|--------|--------|--------|
C#|--------|--------|--------|--------|--------|--------|--------|--------|--------|
G#|--------|--------|--------|--------|--------|--------|--------|--------|--------|
D#|--------|--------|--------|--------|--------|--------|--------|--------|--------|
G#|--------|--------|--------|--------|--------|--------|--------|--------|--------|


D#|--------|--------|--------|--------|--------|--------|--------|--------|--------|
A#|--------|--------|--------|--------|--------|--------|--------|--------|--------|
F#|--------|--------|--------|--------|--------|--------|--------|--------|--------|
C#|--------|--------|--------|--------|--------|--------|--------|--------|--------|
G#|--------|--------|--------|--------|--------|--------|--------|--------|--------|
D#|--------|--------|--------|--------|--------|--------|--------|--------|--------|
G#|--------|--------|--------|--------|--------|--------|--------|--------|--------|


D#|--------|--------|--------|--------|--------|--------|--------|--------|--------|
A#|--------|--------|--------|--------|--------|--------|--------|--------|--------|
F#|--------|--------|--------|--------|--------|--------|--------|--------|--------|
C#|--------|--------|--------|--------|--------|--------|--------|--------|--------|
G#|--------|--------|--------|--------|--------|--------|--------|--------|--------|
D#|--------|--------|--------|--------|--------|--------|--------|--------|--------|
G#|--------|--------|--------|--------|--------|--------|--------|--------|--------|


D#|--------|--------|--------|--------|--------|--------|--------|--------|--------|
A#|--------|--------|--------|--------|--------|--------|--------|--------|--------|
F#|--------|--------|--------|--------|--------|--------|--------|--------|--------|
C#|--------|--------|--------|--------|--------|--------|--------|--------|--------|
G#|--------|--------|--------|--------|--------|--------|--------|--------|--------|
D#|--------|--------|--------|--------|--------|--------|--------|--------|--------|
G#|--------|--------|--------|--------|--------|--------|--------|--------|--------|


D#|--------|--------|--------|--------|--------|--------|--------|--------|--------|
A#|--------|--------|--------|--------|--------|--------|--------|--------|--------|
F#|--------|--------|--------|--------|--------|--------|--------|--------|--------|
C#|--------|--------|--------|--------|--------|--------|--------|--------|--------|
G#|--------|--------|--------|--------|--------|--------|--------|--------|--------|
D#|--------|--------|--------|--------|--------|--------|--------|--------|--------|
G#|--------|--------|--------|--------|--------|--------|--------|--------|--------|


D#|--------|--------|--------|--------|--------|--------|--------|--------|--------|
A#|--------|--------|--------|--------|--------|--------|--------|--------|--------|
F#|--------|--------|--------|--------|--------|--------|--------|--------|--------|
C#|--------|--------|--------|--------|--------|--------|--------|--------|--------|
G#|--------|--------|--------|--------|--------|--------|--------|--------|--------|
D#|--------|--------|--------|--------|--------|--------|--------|--------|--------|
G#|--------|--------|--------|--------|--------|--------|--------|--------|--------|


D#|--------|--------|--------|--------|--------|--------|--------|--------|--------|
A#|--------|--------|--------|--------|--------|--------|--------|--------|--------|
F#|--------|--------|--------|--------|--------|--------|--------|--------|--------|
C#|--------|--------|--------|--------|--------|--------|--------|--------|--------|
G#|--------|--------|--------|--------|--------|--------|--------|--------|--------|
D#|--------|--------|--------|--------|--------|--------|--------|--------|--------|
G#|--------|--------|--------|--------|--------|--------|--------|--------|--------|


D#|--------|--------|--------|--------|--------|--------|--------|--------|--------|
A#|--------|--------|--------|--------|--------|--------|--------|--------|--------|
F#|--------|--------|--------|--------|--------|--------|--------|--------|--------|
C#|--------|--------|--------|--------|--------|--------|--------|--------|--------|
G#|--------|--------|--------|--------|--------|--------|--------|--------|--------|
D#|--------|--------|--------|--------|--------|--------|--------|--------|--------|
G#|--------|--------|--------|--------|--------|--------|--------|--------|--------|


D#|--------|--------|--------|--------|--------|--------|--------|--------|--------|
A#|--------|--------|--------|--------|--------|--------|--------|--------|--------|
F#|--------|--------|--------|--------|--------|--------|--------|--------|--------|
C#|--------|--------|--------|--------|--------|--------|--------|--------|--------|
G#|--------|--------|--------|--------|--------|--------|--------|--------|--------|
D#|--------|--------|--------|--------|--------|--------|--------|--------|--------|
G#|--------|--------|--------|--------|--------|--------|--------|--------|--------|


D#|--------|--------|--------|--------|--------|--------|--------|--------|--------|
A#|--------|--------|--------|--------|--------|--------|--------|--------|--------|
F#|--------|--------|--------|--------|--------|--------|--------|--------|--------|
C#|--------|--------|--------|--------|--------|--------|--------|--------|--------|
G#|--------|--------|--------|--------|--------|--------|--------|--------|--------|
D#|--------|--------|--------|--------|--------|--------|--------|--------|--------|
G#|--------|--------|--------|--------|--------|--------|--------|--------|--------|


D#|--------|--------|--------|--------|--------|--------|--------|--------|--------|
A#|--------|--------|--------|--------|--------|--------|--------|--------|--------|
F#|--------|--------|--------|--------|--------|--------|--------|--------|--------|
C#|--------|--------|--------|--------|--------|--------|--------|--------|--------|
G#|--------|--------|--------|--------|--------|--------|--------|--------|--------|
D#|--------|--------|--------|--------|--------|--------|--------|--------|--------|
G#|--------|--------|--------|--------|--------|--------|--------|--------|--------|


D#|--------|--------|--------|--------|------------------------------|---------------------------------|
A#|--------|--------|--------|--------|-3----3--3---5---5--5----2----|-3----3--3-----------------------|
F#|--------|--------|--------|--------|-2----2--2---3---3--3----0----|-2----2--2---------------2---2---|
C#|--------|--------|--------|--------|-2----2--2---5---5--5----2----|-3----3--3---------------3---3---|
G#|--------|--------|--------|--------|-0----0--0--------------------|-------------4---4--5----5---5---|
D#|--------|--------|--------|--------|-------------3---3--3----0----|-1----1--1-----------------------|
G#|--------|--------|--------|--------|------------------------------|-------------4---4--5----5---5---|


D#|-5----5--5---5---5--5----5----|-5----5--5---5---5----5----|------------------------------|
A#|-5----5--5---6---6--6----5----|-6----5--5---3---3----3----|-3----3--3---5---5--5----2----|
F#|-7----7--7---7---7--7----6----|-7----6--6-----------------|-2----2--2---3---3--3----0----|
C#|-------------------------5----|------5--5---3---3----3----|-2----2--2---5---5--5----2----|
G#|------------------------------|---------------------------|-0----0--0--------------------|
D#|-5----5--5---6---6--6----0----|------0--0-----------------|-------------3---3--3----0----|
G#|------------------------------|-8-----------5---5----5----|------------------------------|


D#|---------------------------------|-5----5--5---5---5--5----5----|-5----5--5---5---5-----|
A#|-3----3--3-----------------------|-5----5--5---6---6--6----5----|-6----5--5---3---3-----|
F#|-2----2--2---------------2---2---|-7----7--7---7---7--7----6----|-7----6--6-------------|
C#|-3----3--3---------------3---3---|-------------------------5----|------5--5---3---3-----|
G#|-------------4---4--5----5---5---|------------------------------|-----------------------|
D#|-1----1--1-----------------------|-5----5--5---6---6--6----0----|------0--0-------------|
G#|-------------4---4--5----5---5---|------------------------------|-8-----------5---5-----|


D#|---------------------------------|---------------------------------|-0----0--------------------------|
A#|-3----3------1---1---------------|---------------------------------|-0----0------3---2---2---3----3--|
F#|-2----2------0---0---3----3------|-2---2---0----0------------------|-1----1------0---0---0---2----2--|
C#|-3----3------2---2---3----3------|-2---2---0----0------3---3---3---|-2----2------2---2---2---3----3--|
G#|-5----5---0--3---3---5----5------|-3---3---1----1------3---3---3---|-2----2------0---0---0---5----5--|
D#|---------------------6----6---1--|-5---5---3----3------5---5---5---|-0----0---0----------------------|
G#|---------------------------------|------------------5--8---8---8---|---------------------------------|


D#|-----------------------------------|-------------------------0----0--|-----------------------------------|
A#|-------1---1-----------------------|-------------------------0----0--|-------3---2---2---3----3------1---|
F#|-------0---0---3----3------2---2---|-0----0------------------1----1--|-------0---0---0---2----2------0---|
C#|-------2---2---3----3------2---2---|-0----0------3---3---3---2----2--|-------2---2---2---3----3------2---|
G#|----0--3---3---5----5------3---3---|-1----1------3---3---3---2----2--|-------0---0---0---5----5---0--3---|
D#|---------------6----6---1--5---5---|-3----3------5---5---5---0----0--|----0------------------------------|
G#|-----------------------------------|----------5--8---8---8-----------|-----------------------------------|


D#|---------------------------------|-------------------0----0----------|---------------------------------|
A#|-1-------------------------------|-------------------0----0------3---|-2---2---3----3------1---1-------|
F#|-0---3----3------2---2---0----0--|-------------------1----1------0---|-0---0---2----2------0---0---3---|
C#|-2---3----3------2---2---0----0--|-------3---3---3---2----2------2---|-2---2---3----3------2---2---3---|
G#|-3---5----5------3---3---1----1--|-------3---3---3---2----2------0---|-0---0---5----5---0--3---3---5---|
D#|-----6----6---1--5---5---3----3--|-------5---5---5---0----0---0------|-----------------------------6---|
G#|---------------------------------|----5--8---8---8-------------------|---------------------------------|


D#|-----------------------------------|---------0----0------0---0---0---|-0----0------0---0---0-----------|
A#|-----------------------------------|---------0----0------0---0---0---|-0----0------0---0---0-----------|
F#|----3------2---2---0----0----------|---------1----1------1---1---1---|-1----1------1---1---1-----------|
C#|----3------2---2---0----0------3---|-3---3---2----2------2---2---2---|-2----2------2---2---2-----------|
G#|----5------3---3---1----1------3---|-3---3---2----2------2---2---2---|-2----2------2---2---2-----------|
D#|----6---1--5---5---3----3------5---|-5---5---0----0---0--0---0---0---|-0----0---0--0---0---0-----------|
G#|----------------------------5--8---|-8---8---------------------------|-------------------------0----1--|


D#|-------------------------------------|-----------------------------------------|
A#|-------------------------------------|-----------------------------------------|
F#|-------------------------------------|-----------------------------------------|
C#|-------------------------------------|-----------------------------------------|
G#|-------------------------------------|-----------------------------------------|
D#|----------------------------------3--|----6--5---5--3--------------------------|
G#|-1---5---5---4-------4--5--7---8-----|------------------8--7--5--4--1--0----1--|


D#|-------------------------------------|--------------------------------|-------------------------------------|
A#|-------------------------------------|--------------------------------|-------------------------------------|
F#|-------------------------------------|--------------------------------|-------------------------------------|
C#|-------------------------------------|--------------------------------|-------------------------------------|
G#|-------------------------------------|--------------------------------|-------------------------------------|
D#|---------------------------6---6--3--|-3--3--5---5--------------------|----------------------------------3--|
G#|-1---5---5---4-------4--5------------|--------------8----8----0----1--|-1---5---5---4-------4--5--7---8-----|


D#|-----------------------------------------|-----------------------------------|---------------22-----22-|
A#|-----------------------------------------|-----------------------------------|------------------22-----|
F#|-----------------------------------------|-----------------------------------|---------------19-----19-|
C#|-----------------------------------------|-----------------------------------|------------------19-----|
G#|-----------------------------------------|-----------------------------------|-------------------------|
D#|----6--5---5--3--------------------------|-----------------------------------|-------------------------|
G#|------------------8--7--5--4--1--0----1--|-1---5---5---4-------4--5--7----8--|-8---7---5---------------|


D#|-------20------18-----18-----17------|--------18----------22--------------------15-|
A#|----22-----20-----18------18-----17--|-20---------20-22-------22-------------15----|
F#|-------17------15-----15-----14------|----19--15----------19--------------15-------|
C#|----19-----17-----15------15-----14--|-17---------17-19----------17----17----------|
G#|-------------------------------------|----17------------------------17-------------|
D#|-------------------------------------|---------------------------------------------|
G#|-------------------------------------|---------------------------------------------|


D#|-18-15----17-15-13------------------------------|-15------15-17--18-17-18-17--15-------18-|
A#|-------15----------17-15-14----15--17--18-17-18-|-----18-------------------------15-------|
F#|----------14------------------------------------|-----------------------------------15----|
C#|------------------------------------------------|-----------------------------------------|
G#|------------------------------------------------|-----------------------------------------|
D#|------------------------------------------------|-----------------------------------------|
G#|------------------------------------------------|-----------------------------------------|


D#|----17----------------------------18-17-15-----------------------|-17----------|
A#|-------18-15----17-15----15----------------18-17-14--------------|-------------|
F#|-------------14-------14----14----------------------15-12--------|-14----------|
C#|-------------------------------15-------------------------14-12--|-------------|
G#|-----------------------------------------------------------------|-------------|
D#|-----------------------------------------------------------------|-------------|
G#|-----------------------------------------------------------------|-------------|


D#|--------|--------|--------|--------|--------|--------|--------|--------|--------|
A#|--------|--------|--------|--------|--------|--------|--------|--------|--------|
F#|--------|--------|--------|--------|--------|--------|--------|--------|--------|
C#|--------|--------|--------|--------|--------|--------|--------|--------|--------|
G#|--------|--------|--------|--------|--------|--------|--------|--------|--------|
D#|--------|--------|--------|--------|--------|--------|--------|--------|--------|
G#|--------|--------|--------|--------|--------|--------|--------|--------|--------|


D#|--------|--------|--------|--------|--------|--------|--------|--------|--------|
A#|--------|--------|--------|--------|--------|--------|--------|--------|--------|
F#|--------|--------|--------|--------|--------|--------|--------|--------|--------|
C#|--------|--------|--------|--------|--------|--------|--------|--------|--------|
G#|--------|--------|--------|--------|--------|--------|--------|--------|--------|
D#|--------|--------|--------|--------|--------|--------|--------|--------|--------|
G#|--------|--------|--------|--------|--------|--------|--------|--------|--------|


D#|--------|--------|--------|--------|--------|--------|--------|--------|--------|
A#|--------|--------|--------|--------|--------|--------|--------|--------|--------|
F#|--------|--------|--------|--------|--------|--------|--------|--------|--------|
C#|--------|--------|--------|--------|--------|--------|--------|--------|--------|
G#|--------|--------|--------|--------|--------|--------|--------|--------|--------|
D#|--------|--------|--------|--------|--------|--------|--------|--------|--------|
G#|--------|--------|--------|--------|--------|--------|--------|--------|--------|


D#|--------|--------|--------|--------|--------|--------|--------|--------|--------|
A#|--------|--------|--------|--------|--------|--------|--------|--------|--------|
F#|--------|--------|--------|--------|--------|--------|--------|--------|--------|
C#|--------|--------|--------|--------|--------|--------|--------|--------|--------|
G#|--------|--------|--------|--------|--------|--------|--------|--------|--------|
D#|--------|--------|--------|--------|--------|--------|--------|--------|--------|
G#|--------|--------|--------|--------|--------|--------|--------|--------|--------|


D#|--------|--------|--------|--------|--------|--------|--------|--------|--------|
A#|--------|--------|--------|--------|--------|--------|--------|--------|--------|
F#|--------|--------|--------|--------|--------|--------|--------|--------|--------|
C#|--------|--------|--------|--------|--------|--------|--------|--------|--------|
G#|--------|--------|--------|--------|--------|--------|--------|--------|--------|
D#|--------|--------|--------|--------|--------|--------|--------|--------|--------|
G#|--------|--------|--------|--------|--------|--------|--------|--------|--------|


D#|--------|--------|--------|--------|--------|--------|--------|--------|--------|
A#|--------|--------|--------|--------|--------|--------|--------|--------|--------|
F#|--------|--------|--------|--------|--------|--------|--------|--------|--------|
C#|--------|--------|--------|--------|--------|--------|--------|--------|--------|
G#|--------|--------|--------|--------|--------|--------|--------|--------|--------|
D#|--------|--------|--------|--------|--------|--------|--------|--------|--------|
G#|--------|--------|--------|--------|--------|--------|--------|--------|--------|


D#|--------|--------|--------|--------|--------|--------|--------|--------|--------|
A#|--------|--------|--------|--------|--------|--------|--------|--------|--------|
F#|--------|--------|--------|--------|--------|--------|--------|--------|--------|
C#|--------|--------|--------|--------|--------|--------|--------|--------|--------|
G#|--------|--------|--------|--------|--------|--------|--------|--------|--------|
D#|--------|--------|--------|--------|--------|--------|--------|--------|--------|
G#|--------|--------|--------|--------|--------|--------|--------|--------|--------|


D#|--------|--------|--------|--------|--------|--------|--------|--------|--------|
A#|--------|--------|--------|--------|--------|--------|--------|--------|--------|
F#|--------|--------|--------|--------|--------|--------|--------|--------|--------|
C#|--------|--------|--------|--------|--------|--------|--------|--------|--------|
G#|--------|--------|--------|--------|--------|--------|--------|--------|--------|
D#|--------|--------|--------|--------|--------|--------|--------|--------|--------|
G#|--------|--------|--------|--------|--------|--------|--------|--------|--------|


D#|--------|--------|--------|--------|--------|--------|--------|--------|--------|
A#|--------|--------|--------|--------|--------|--------|--------|--------|--------|
F#|--------|--------|--------|--------|--------|--------|--------|--------|--------|
C#|--------|--------|--------|--------|--------|--------|--------|--------|--------|
G#|--------|--------|--------|--------|--------|--------|--------|--------|--------|
D#|--------|--------|--------|--------|--------|--------|--------|--------|--------|
G#|--------|--------|--------|--------|--------|--------|--------|--------|--------|


D#|--------|--------|--------|--------|--------|--------|--------|--------|--------|
A#|--------|--------|--------|--------|--------|--------|--------|--------|--------|
F#|--------|--------|--------|--------|--------|--------|--------|--------|--------|
C#|--------|--------|--------|--------|--------|--------|--------|--------|--------|
G#|--------|--------|--------|--------|--------|--------|--------|--------|--------|
D#|--------|--------|--------|--------|--------|--------|--------|--------|--------|
G#|--------|--------|--------|--------|--------|--------|--------|--------|--------|


D#|--------|--------|--------|--------|--------|--------|--------|--------|--------|
A#|--------|--------|--------|--------|--------|--------|--------|--------|--------|
F#|--------|--------|--------|--------|--------|--------|--------|--------|--------|
C#|--------|--------|--------|--------|--------|--------|--------|--------|--------|
G#|--------|--------|--------|--------|--------|--------|--------|--------|--------|
D#|--------|--------|--------|--------|--------|--------|--------|--------|--------|
G#|--------|--------|--------|--------|--------|--------|--------|--------|--------|


D#|--------|--------|--------|--------|--------|--------|--------|--------|--------|
A#|--------|--------|--------|--------|--------|--------|--------|--------|--------|
F#|--------|--------|--------|--------|--------|--------|--------|--------|--------|
C#|--------|--------|--------|--------|--------|--------|--------|--------|--------|
G#|--------|--------|--------|--------|--------|--------|--------|--------|--------|
D#|--------|--------|--------|--------|--------|--------|--------|--------|--------|
G#|--------|--------|--------|--------|--------|--------|--------|--------|--------|


D#|--------|--------|--------|--------|--------|--------|--------|--------|--------|
A#|--------|--------|--------|--------|--------|--------|--------|--------|--------|
F#|--------|--------|--------|--------|--------|--------|--------|--------|--------|
C#|--------|--------|--------|--------|--------|--------|--------|--------|--------|
G#|--------|--------|--------|--------|--------|--------|--------|--------|--------|
D#|--------|--------|--------|--------|--------|--------|--------|--------|--------|
G#|--------|--------|--------|--------|--------|--------|--------|--------|--------|


D#|--------|--------|--------|--------|--------|--------|--------|--------|--------|
A#|--------|--------|--------|--------|--------|--------|--------|--------|--------|
F#|--------|--------|--------|--------|--------|--------|--------|--------|--------|
C#|--------|--------|--------|--------|--------|--------|--------|--------|--------|
G#|--------|--------|--------|--------|--------|--------|--------|--------|--------|
D#|--------|--------|--------|--------|--------|--------|--------|--------|--------|
G#|--------|--------|--------|--------|--------|--------|--------|--------|--------|


D#|--------|--------|--------|--------|--------|--------|--------|--------|--------|
A#|--------|--------|--------|--------|--------|--------|--------|--------|--------|
F#|--------|--------|--------|--------|--------|--------|--------|--------|--------|
C#|--------|--------|--------|--------|--------|--------|--------|--------|--------|
G#|--------|--------|--------|--------|--------|--------|--------|--------|--------|
D#|--------|--------|--------|--------|--------|--------|--------|--------|--------|
G#|--------|--------|--------|--------|--------|--------|--------|--------|--------|


D#|--------|--------|--------|--------|--------|--------|--------|--------|--------|
A#|--------|--------|--------|--------|--------|--------|--------|--------|--------|
F#|--------|--------|--------|--------|--------|--------|--------|--------|--------|
C#|--------|--------|--------|--------|--------|--------|--------|--------|--------|
G#|--------|--------|--------|--------|--------|--------|--------|--------|--------|
D#|--------|--------|--------|--------|--------|--------|--------|--------|--------|
G#|--------|--------|--------|--------|--------|--------|--------|--------|--------|


D#|--------|--------|--------|--------|--------|--------|--------|--------|--------|
A#|--------|--------|--------|--------|--------|--------|--------|--------|--------|
F#|--------|--------|--------|--------|--------|--------|--------|--------|--------|
C#|--------|--------|--------|--------|--------|--------|--------|--------|--------|
G#|--------|--------|--------|--------|--------|--------|--------|--------|--------|
D#|--------|--------|--------|--------|--------|--------|--------|--------|--------|
G#|--------|--------|--------|--------|--------|--------|--------|--------|--------|


D#|--------|--------|--------|--------|--------|--------|--------|--------|--------|
A#|--------|--------|--------|--------|--------|--------|--------|--------|--------|
F#|--------|--------|--------|--------|--------|--------|--------|--------|--------|
C#|--------|--------|--------|--------|--------|--------|--------|--------|--------|
G#|--------|--------|--------|--------|--------|--------|--------|--------|--------|
D#|--------|--------|--------|--------|--------|--------|--------|--------|--------|
G#|--------|--------|--------|--------|--------|--------|--------|--------|--------|


D#|--------|--------|--------|--------|--------|--------|--------|--------|--------|
A#|--------|--------|--------|--------|--------|--------|--------|--------|--------|
F#|--------|--------|--------|--------|--------|--------|--------|--------|--------|
C#|--------|--------|--------|--------|--------|--------|--------|--------|--------|
G#|--------|--------|--------|--------|--------|--------|--------|--------|--------|
D#|--------|--------|--------|--------|--------|--------|--------|--------|--------|
G#|--------|--------|--------|--------|--------|--------|--------|--------|--------|


D#|--------|--------|--------|--------|--------|--------|--------|--------|--------|
A#|--------|--------|--------|--------|--------|--------|--------|--------|--------|
F#|--------|--------|--------|--------|--------|--------|--------|--------|--------|
C#|--------|--------|--------|--------|--------|--------|--------|--------|--------|
G#|--------|--------|--------|--------|--------|--------|--------|--------|--------|
D#|--------|--------|--------|--------|--------|--------|--------|--------|--------|
G#|--------|--------|--------|--------|--------|--------|--------|--------|--------|


D#|--------|--------|--------|--------|--------|--------|--------|
A#|--------|--------|--------|--------|--------|--------|--------|
F#|--------|--------|--------|--------|--------|--------|--------|
C#|--------|--------|--------|--------|--------|--------|--------|
G#|--------|--------|--------|--------|--------|--------|--------|
D#|--------|--------|--------|--------|--------|--------|--------|
G#|--------|--------|--------|--------|--------|--------|--------|





Track 8: 6-String Bass - John Myung

C|-------------|-------------|-------------|-----------------|-------------|--------|
G|-------------|-------------|-------------|-----------------|-------------|--------|
D|-------------|-------------|-------------|-----------------|-------------|--------|
A|-------------|-------------|-------------|-----------------|-------------|--------|
E|-------------|-------------|-------------|-----------------|-------------|--------|
B|-2------2----|------2------|-2-----2-----|------2-----2----|-------2-----|--------|


C|--------|--------|--------|--------|-------------|-------------|-------------|-----------------|
G|--------|--------|--------|--------|-------------|-------------|-------------|-----------------|
D|--------|--------|--------|--------|-------------|-------------|-------------|-----------------|
A|--------|--------|--------|--------|-------------|-------------|-------------|-----------------|
E|--------|--------|--------|--------|-------------|-------------|-------------|-----------------|
B|--------|--------|--------|--------|-2------2----|------0------|-0-----2-----|------2-----0----|


C|--------------------|-------------|-------------|------------------------|--------------------|
G|--------------------|-------------|-------------|------------------------|--------------------|
D|--------------------|-------------|-------------|------------------------|--------------------|
A|--------------------|-------------|-------------|------------------------|--------------------|
E|------------7---7---|-5------5----|------4------|-4----4---4---2-----2---|-----0---0----------|
B|-------0------------|-------------|-------------|------------------------|---------------4----|


C|--------------------|---------------------------------|---------------------------------|
G|--------------------|---------------------------------|---------------------------------|
D|--------------------|---------------------------------|---------------------------------|
A|--------------------|---------------------------------|---------------------------------|
E|----------4---4-----|---------------------------------|---------------------------------|
B|-----4--------------|-2---2---2---2---2---2---2---2---|-2---2---0---0---0---0---0---0---|


C|---------------------------------|---------------------------------|---------------------------------|
G|---------------------------------|---------------------------------|---------------------------------|
D|---------------------------------|---------------------------------|---------------------------------|
A|---------------------------------|---------------------------------|---------------------------------|
E|---------------------------------|---------------------------------|---------------------------------|
B|-0---0---0---0---2---2---2---2---|-2---2---2---2---2---2---0---0---|-0---0---0---0---0---0---0---0---|


C|---------------------------------|---------------------------------|---------------------------------|
G|---------------------------------|---------------------------------|---------------------------------|
D|---------------------------------|---------------------------------|---------------------------------|
A|---------------------------------|---------------------------------|---------------------------------|
E|-5---5---5---5---5---5---5---5---|-5---5---4---4---4---4---4---4---|-4---4---4---4---2---2---2---2---|
B|---------------------------------|---------------------------------|---------------------------------|


C|---------------------------------|---------------------------------|---------------------------------|
G|---------------------------------|---------------------------------|---------------------------------|
D|---------------------------------|---------------------------------|---------------------------------|
A|---------------------------------|---------------------------------|---------------------------------|
E|-2---0---0---0---0---0-----------|-----------------4---4---4---4---|---------------------------------|
B|-------------------------4---4---|-4---4---4---4-------------------|-2---2---2---2---2---2---2---2---|


C|---------------------------------|---------------------------------|---------------------------------|
G|---------------------------------|---------------------------------|---------------------------------|
D|---------------------------------|---------------------------------|---------------------------------|
A|---------------------------------|---------------------------------|---------------------------------|
E|---------------------------------|---------------------------------|---------------------------------|
B|-2---2---0---0---0---0---0---0---|-0---0---0---0---2---2---2---2---|-2---2---2---2---2---2---0---0---|


C|---------------------------------|---------------------------------|---------------------------------|
G|---------------------------------|---------------------------------|---------------------------------|
D|---------------------------------|---------------------------------|---------------------------------|
A|---------------------------------|---------------------------------|---------------------------------|
E|---------------------------------|-5---5---5---5---5---5---5---5---|-5---5---4---4---4---4---4---4---|
B|-0---0---0---0---0---0---0---0---|---------------------------------|---------------------------------|


C|---------------------------------|---------------------------------|---------------------------------|
G|---------------------------------|---------------------------------|---------------------------------|
D|---------------------------------|---------------------------------|---------------------------------|
A|---------------------------------|---------------------------------|---------------------------------|
E|-4---4---4---4---2---2---2---2---|-2---0---0---0---0---0-----------|-----------------4---4---4---4---|
B|---------------------------------|-------------------------4---4---|-4---4---4---4-------------------|


C|---------------------------------|-----------------------------------|---------------------------------|
G|---------------------------------|-----------------------------------|---------------------------------|
D|---------------------------------|-----------------------------------|---------------------------------|
A|---------------------------------|-11--9-----------------------------|---------------------------------|
E|-9---9---9---9---9---9---9---12--|---------12-11-9---7---7---7---7---|-7---7---7---7---7---7---9---9---|
B|---------------------------------|-----------------------------------|---------------------------------|


C|---------------------------------|-----------------------------------|---------------------------------|
G|---------------------------------|-----------------------------------|---------------------------------|
D|---------------------------------|-----------------------------------|---------------------------------|
A|-------------------------11--9---|-----------------------------------|---------------------------------|
E|-9---9---9---9---9---12----------|-12-11-9---7---7---7---7---7---7---|-7---7---7---7---4---4---4---4---|
B|---------------------------------|-----------------------------------|---------------------------------|


C|---------------------------------|---------------------------------|---------------------------------|
G|---------------------------------|---------------------------------|---------------------------------|
D|---------------------------------|---------------------------------|---------------------------------|
A|---------------------------------|---------------------------------|---------------------------------|
E|-4---4---5---5---5---5---5---5---|-7---7---7---7---7---------------|---------4---4---4---4---4---4---|
B|---------------------------------|---------------------7---7---7---|-7---7---------------------------|


C|---------------------------------|---------------------------------|---------------------------------|
G|---------------------------------|---------------------------------|---------------------------------|
D|---------------------------------|---------------------------------|---------------------------------|
A|---------------------------------|---------------------------------|---------------------------------|
E|-5---5---5---5---5---5-----------|---------------------------------|-4---4---4---4---4-------4---4---|
B|-------------------------5---5---|-5---5---5---4---4---4---4---4---|---------------------4-----------|


C|---------------------------------|---------------------------------|---------------------------------|
G|---------------------------------|---------------------------------|---------------------------------|
D|---------------------------------|---------------------------------|---------------------------------|
A|---------------------------------|---------------------------------|---------------------------------|
E|-4---4---4-------4---4---4---4---|-4-------4---4---4---4---4-------|---------------------------------|
B|-------------4-------------------|-----4-----------------------4---|-2---2---2---2---2---2---2---2---|


C|---------------------------------|---------------------------------|---------------------------------|
G|---------------------------------|---------------------------------|---------------------------------|
D|---------------------------------|---------------------------------|---------------------------------|
A|---------------------------------|---------------------------------|---------------------------------|
E|---------------------------------|---------------------------------|---------------------------------|
B|-2---2---0---0---0---0---0---0---|-0---0---0---0---2---2---2---2---|-2---2---2---2---2---2---0---0---|


C|---------------------------------|---------------------------------|---------------------------------|
G|---------------------------------|---------------------------------|---------------------------------|
D|---------------------------------|---------------------------------|---------------------------------|
A|---------------------------------|---------------------------------|---------------------------------|
E|---------------------------------|-5---5---5---5---5---5---5---5---|-5---5---4---4---4---4---4---4---|
B|-0---0---0---0---0---0---0---0---|---------------------------------|---------------------------------|


C|---------------------------------|---------------------------------|---------------------------------|
G|---------------------------------|---------------------------------|---------------------------------|
D|---------------------------------|---------------------------------|---------------------------------|
A|---------------------------------|---------------------------------|---------------------------------|
E|-4---4---4---4---2---2---2---2---|-2-------------------------------|-----------------4---4---4---4---|
B|---------------------------------|-----5---5---5---5---5---4---4---|-4---4---4---4-------------------|


C|-----------------|-----------------|-----------------|-----------------|-----------------|
G|-----------------|-----------------|-----------------|-----------------|-----------------|
D|-----------------|-----------------|-----------------|-----------------|-----------------|
A|-----------------|-----------------|-----------------|-3-----4---4-----|-----------------|
E|-----------------|-2-----4---4-----|-----------------|-----------------|-----------------|
B|-4-----5---5-----|-----------------|-4-----5---5-----|-----------------|-4-----5---5-----|


C|-----------------|-----------------|-----------------------|-----------------------------------|
G|-----------------|-----------------|-----------------------|-----------------------------------|
D|-----------------|-----------------|-----------------------|-----------------------------------|
A|-----------------|-----------------|-9---------------------|-----------------------------------|
E|-2-----4---4-----|-----------------|------11-11--12--9-----|-------------5---5---4-------4--5--|
B|-----------------|-4-----5---5-----|-----------------------|-4----5--5-------------------------|


C|-------------------------------------------|-----------------------------------|
G|-------------------------------------------|-----------------------------------|
D|-------------------------------------------|-----------------------------------|
A|-3---4--6-----7--6---6--4---3--------------|-----------------------------------|
E|-------------------------------5--4--2-----|-------------5---5---4-------4--5--|
B|----------------------------------------5--|-4----5--5-------------------------|


C|----------------------------------|-----------------------------------|-------------------------------------------|
G|----------------------------------|-----------------------------------|-------------------------------------------|
D|----------------------------------|-----------------------------------|-------------------------------------------|
A|-9---9----------------------------|-----------------------------------|-3---4--6-----7--6---6--4---3--------------|
E|--------11-11-11-12--12-9----9----|-------------5---5---4-------4--5--|-------------------------------5--4--2-----|
B|----------------------------------|-4----5--5-------------------------|----------------------------------------5--|


C|-----------------------------------|------------------------------------|-----------------------------------|
G|-----------------------------------|------------------------------------|-----------------------------------|
D|-----------------------------------|------------------------------------|-----------------------------------|
A|-----------------------------------|-3---4--6-----7--4---4--------------|-----------------------------------|
E|-------------5---5---4-------4--5--|--------------------------7--5---4--|-------------5---5---4-------4--5--|
B|-4----5--5-------------------------|------------------------------------|-4----5--5-------------------------|


C|-------------------------------------------|-----------------------------------|
G|-------------------------------------------|-----------------------------------|
D|-------------------------------------------|-----------------------------------|
A|-3---4--6-----7--6---6--4---3--------------|-----------------------------------|
E|-------------------------------5--4--2-----|-------------5---5---4-------4--5--|
B|----------------------------------------5--|-4----5--5-------------------------|


C|----------------------------------|-----------------------------------|-------------------------------------------|
G|----------------------------------|-----------------------------------|-------------------------------------------|
D|----------------------------------|-----------------------------------|-------------------------------------------|
A|-9---9----------------------------|-----------------------------------|-3---4--6-----7--6---6--4---3--------------|
E|--------11-11-11-12--12-9----9----|-------------5---5---4-------4--5--|-------------------------------5--4--2-----|
B|----------------------------------|-4----5--5-------------------------|----------------------------------------5--|


C|-----------------------------------|------------------------------------|-----------------|
G|-----------------------------------|------------------------------------|-----------------|
D|-----------------------------------|------------------------------------|-----------------|
A|-----------------------------------|-3---4--6-----7--4---4--------------|-----------------|
E|-------------5---5---4-------4--5--|--------------------------7--5---4--|-----------------|
B|-4----5--5-------------------------|------------------------------------|-4-----5---5-----|


C|-----------------|-----------------|---------------------|-----------------|-----------------|
G|-----------------|-----------------|---------------------|-----------------|-----------------|
D|-----------------|-----------------|---------------------|-----------------|-----------------|
A|-----------------|-------3---3-----|-4-----6---6----11---|-----------------|-----------------|
E|-2-----4---4-----|-5---------------|---------------------|-----------------|-2-----4---4-----|
B|-----------------|-----------------|---------------------|-4-----5---5-----|-----------------|


C|-----------------|--------|--------------------------------|-------------------------|
G|-----------------|--------|--------------------------------|-------------------------|
D|-----------------|--------|--------------------------------|-------------------------|
A|-------2---2-----|-4------|--------------------------------|-------------------------|
E|-5---------------|--------|-4---------------4---4--4-------|-----4--4--4--4----------|
B|-----------------|--------|--------------------------------|-------------------------|


C|--------------------------------|---------------------------------------------|--------------------------------|
G|--------------------------------|---------------------------------------------|--------------------------------|
D|--------------------------------|-----------------------------------4--6--7---|--------------------------------|
A|--------------------------------|--------------------------4--6--7------------|--------------------------------|
E|-4---------------4---4--4-------|-----4---4-------4--5--7---------------------|-4---------------4---4--4-------|
B|--------------------------------|---------------------------------------------|--------------------------------|


C|-------------------------|--------------------------------|---------------------------------------------|
G|-------------------------|--------------------------------|---------------------------------------------|
D|-------------------------|--------------------------------|-----------------------------------4--6--7---|
A|-------------------------|--------------------------------|--------------------------4--6--7------------|
E|-----4--4--4--4----------|-4---------------4---4--4-------|-----4---4-------4--5--7---------------------|
B|-------------------------|--------------------------------|---------------------------------------------|


C|---------------------|---------------------|---------------------|---------------------|
G|---------------------|---------------------|---------------------|---------------------|
D|---------------------|---------------------|---------------------|---------------------|
A|---------------------|---------------------|---------------------|---------------------|
E|-4----4----4----4----|-4----4----4----4----|-4----4----4----4----|-4----4----4----4----|
B|---------------------|---------------------|---------------------|---------------------|


C|-------------------------------------|-----------------------------------------|
G|-------------------------------------|-----------------------------------------|
D|-6----4-----6--7---7-----------------|---------------------4-------------------|
A|----------------------3---4--6----4--|----6--7---7--6---7------7--6-----4---3--|
E|-------------------------------------|-----------------------------------------|
B|-------------------------------------|-----------------------------------------|


C|-------------------------------------|-----------------------------------------|
G|-------------------------------------|-----------------------------------------|
D|-6----4-----6--7---7-----------------|---------------------4------------7--4---|
A|----------------------3---4--6----4--|----6--7---7--6---7------7--6------------|
E|-------------------------------------|-----------------------------------------|
B|-------------------------------------|-----------------------------------------|


C|---------------------------|-----------------------|---------------------|-----------------------|
G|---------------------------|-----------------------|---------------------|-----------------------|
D|---------------------------|-----------------------|---------------------|-----------------------|
A|---------------------------|-----------------------|---------------------|-----------------------|
E|-4----4--4---2---2---------|-----------------------|-4-----5---5---------|-----------------------|
B|----------------------4----|-5-----4--1--1----2----|----------------4----|-5----4--4---2---2-----|


C|---------------------|--------------------------|---------------------|-----------------------|
G|---------------------|--------------------------|---------------------|-----------------------|
D|---------------------|--------------------------|---------------------|-----------------------|
A|---------------------|--------------------------|---------------------|-----------------------|
E|-4-----2---2---------|--------------------------|-4-----5---5---------|-----------------------|
B|----------------4----|-5-----4--1--1--2----2----|----------------4----|-5----4--4---2---2-----|


C|---------------------------------|---------------------------------|---------------------------------|
G|---------------------------------|---------------------------------|---------------------------------|
D|---------------------------------|---------------------------------|---------------------------------|
A|-4----4---4--2---2---------------|---------------------------------|-------------------------4----4--|
E|---------------------5----5---5--|-4---4---2----2---2--------------|-------------4---4---4-----------|
B|---------------------------------|---------------------5---5---5---|-4----4---4----------------------|


C|-----------------------------------|---------------------------------|-----------------------------------|
G|-----------------------------------|---------------------------------|-----------------------------------|
D|-----------------------------------|---------------------------------|-----------------------------------|
A|----4--2---2-----------------------|---------------------------------|-------------------4----4---4--2---|
E|---------------5----5---5--4---4---|-2----2---2----------------------|-------4---4---4-------------------|
B|-----------------------------------|-------------5---5---5---4----4--|----4------------------------------|


C|---------------------------------|-----------------------------------|---------------------------------|
G|---------------------------------|-----------------------------------|---------------------------------|
D|---------------------------------|-----------------------------------|---------------------------------|
A|-2-------------------------------|-----------------------------------|---------4----4---4--2---2-------|
E|-----5----5---5--4---4---2----2--|----2--------------------------4---|-4---4-----------------------5---|
B|---------------------------------|-------5---5---5---4----4---4------|---------------------------------|


C|-----------------------------------|---------------------------------|---------------------------------|
G|-----------------------------------|---------------------------------|---------------------------------|
D|-----------------------------------|---------------------------------|---------------------------------|
A|-----------------------------------|---------------------------------|---------------------------------|
E|----5---5--4---4---2----2---2------|---------------------------------|-------------------------4----5--|
B|-------------------------------5---|-5---5---4----4---4--4---4---4---|-4----4---4--4---4---4-----------|


C|-------------------------------------|-----------------------------------------|
G|-------------------------------------|-----------------------------------------|
D|----------------------------------4--|----7--6---6--4--------------------------|
A|-----4---4---3-------3--4--6---7-----|------------------7--6--4--3-------------|
E|-5-----------------------------------|------------------------------5--4----5--|
B|-------------------------------------|-----------------------------------------|


C|-------------------------------------|--------------------------------|-------------------------------------|
G|-------------------------------------|--------------------------------|-------------------------------------|
D|---------------------------7---7--4--|-4--4--6---6--------------------|----------------------------------4--|
A|-----4---4---3-------3--4------------|--------------7----7------------|-----4---4---3-------3--4--6---7-----|
E|-5-----------------------------------|------------------------4----5--|-5-----------------------------------|
B|-------------------------------------|--------------------------------|-------------------------------------|


C|-----------------------------------------|-----------------------------------|---------------------------|
G|-----------------------------------------|-----------------------------------|---------------------------|
D|----7--6---6--4--------------------------|-----------------------------------|---------------------------|
A|------------------7--6--4--3-------------|-----4---4---3-------3--4--6----7--|-7---6---4----4----4----4--|
E|------------------------------5--4----5--|-5---------------------------------|---------------------------|
B|-----------------------------------------|-----------------------------------|---------------------------|


C|-----------------------------------|---------------------------------|-----------------------------------|
G|-----------------------------------|---------------------------------|-----------------------------------|
D|-----------------------------------|---------------------------------|-----------------------------------|
A|----4--2---2-----------------------|---------------------------------|-------------------4----4---4--2---|
E|---------------5----5---5--4---4---|-2----2---2----------------------|-------4---4---4-------------------|
B|-----------------------------------|-------------5---5---5---4----4--|----4------------------------------|


C|---------------------------------|-----------------------------------|---------------------------------|
G|---------------------------------|-----------------------------------|---------------------------------|
D|---------------------------------|-----------------------------------|---------------------------------|
A|-2-------------------------------|-----------------------------------|---------4----4---4--2---2-------|
E|-----5----5---5--4---4---2----2--|----2--------------------------4---|-4---4-----------------------5---|
B|---------------------------------|-------5---5---5---4----4---4------|---------------------------------|


C|-----------------------------------|---------------------------------|---------------------------------|
G|-----------------------------------|---------------------------------|---------------------------------|
D|-----------------------------------|---------------------------------|---------------------------------|
A|-----------------------------------|---------------------------------|-4----4---4--2---2---------------|
E|----5---5--4---4---2----2---2------|---------------------4---4---4---|---------------------5----5---5--|
B|-------------------------------5---|-5---5---4----4---4--------------|---------------------------------|


C|---------------------------------|---------------------------------|-----------------------------------|
G|---------------------------------|---------------------------------|-----------------------------------|
D|---------------------------------|---------------------------------|-----------------------------------|
A|---------------------------------|---------------------------------|-------------------------------4---|
E|-4---4---2----2---2--------------|---------------------------------|-------------------4----5--5-------|
B|---------------------5---5---5---|-4----4---4--4---4---4---4----4--|----4--4---4---4-------------------|


C|---------------------------------------|---------------------------------------|
G|---------------------------------------|---------------------------------------|
D|--------------------------4-----7--6---|-6--4----------------------------------|
A|-4---3-------3--4--6---7---------------|--------7--6--4--3-----------------4---|
E|---------------------------------------|--------------------5--4----5--5-------|
B|---------------------------------------|---------------------------------------|


C|---------------------------------------|--------------------------------|---------------------------------------|
G|---------------------------------------|--------------------------------|---------------------------------------|
D|-------------------7---7--4--4--4--6---|-6------------------------------|--------------------------4-----7--6---|
A|-4---3-------3--4----------------------|----7--7----7---------------4---|-4---3-------3--4--6---7---------------|
E|---------------------------------------|----------------4----5--5-------|---------------------------------------|
B|---------------------------------------|--------------------------------|---------------------------------------|


C|---------------------------------------|-------------------------------------|-----------------------------------|
G|---------------------------------------|-------------------------------------|-----------------------------------|
D|-6--4----------------------------------|-------------------------------------|-----------------------------------|
A|--------7--6--4--3-----------------4---|-4---3-------3--4--7----6--6--6--7---|-6----4--4-------------------------|
E|--------------------5--4----5--5-------|-------------------------------------|-------------5---4----4--4--4--4---|
B|---------------------------------------|-------------------------------------|-----------------------------------|


C|-------------------------------------|-------------------------------------|-------------------------------------|
G|-------------------------------------|-------------------------------------|-------------------------------------|
D|-------------------------------------|-------------------------------------|-------------------------------------|
A|-------------------------------------|-------------------------------------|-------------------------------------|
E|-4---4--4--4---4---0----0--0--0--0---|-0---0--0--0---0---4----4--4--4--4---|-4---4--4--4---4---0----0--0--0--0---|
B|-------------------------------------|-------------------------------------|-------------------------------------|


C|-------------------------|-------------------------------------|-------------------------------------|
G|-------------------------|-------------------------------------|-------------------------------------|
D|-------------------------|-------------------------------------|-------------------------------------|
A|-------------------------|-------------------------------------|-------------------------------------|
E|-0-----7----7--7--7--7---|-7---7--7--7---7---3----3--3--3--3---|-3---3--3--3---3---7----7--7--7--7---|
B|-------------------------|-------------------------------------|-------------------------------------|


C|-----------------------------|-----------------------|------------------------------|
G|-----------------------------|-----------------------|------------------------------|
D|-----------------------------|-----------------------|------------------------------|
A|-----------------------------|------------6--6---7---|-7--9----10--------6--6---7---|
E|-7---7--7--7---7---3----3----|-3-----8---------------|--------------8---------------|
B|-----------------------------|-----------------------|------------------------------|


C|------------------------------|------------------------------|------------------------------|
G|------------------------------|------------------------------|------------------------------|
D|------------------------------|------------------------------|------------------------------|
A|-7--9----10--------6--6---7---|-7--9----10--------6--6---7---|-7--9----10--------6--6---7---|
E|--------------8---------------|--------------8---------------|--------------8---------------|
B|------------------------------|------------------------------|------------------------------|


C|-----------------------------------|------------------------------|-----------------------------------|
G|-----------------------------------|------------------------------|-----------------------------------|
D|-----------------------------------|------------------------------|-----------------------------------|
A|-7--9----10-------------6--6---7---|-7--9----10--------6--6---7---|-7--9----10-------------6--6---7---|
E|-------------6--7--8---------------|--------------8---------------|-------------6--7--8---------------|
B|-----------------------------------|------------------------------|-----------------------------------|


C|------------------------------|-----------------------------------|---------------------------------|
G|------------------------------|-----------------------------------|---------------------------------|
D|------------------------------|-----------------------------------|---------------------------------|
A|-7--9----10--------6--6---7---|-7--9----10-------------6--6---7---|-7--9---------9--9---10--10-12---|
E|--------------8---------------|-------------6--7--8---------------|---------11----------------------|
B|------------------------------|-----------------------------------|---------------------------------|


C|-----------------------------------|-----------------------------------|---------------------------------|
G|-----------------------------------|-----------------------------------|---------------------------------|
D|-----------------------------------|------7--7---8---8--10---11--------|------7--7---8---8--10---11--13--|
A|-13-------------9--9---10--10-12---|-9---------------------------7--8--|-9-------------------------------|
E|-----9--10-11----------------------|-----------------------------------|---------------------------------|
B|-----------------------------------|-----------------------------------|---------------------------------|


C|-------------|-----------------|-------------------------------------|-------------------------------------|
G|-------------|-----------------|-------------------------------------|-------------------------------------|
D|-------------|-----------------|-------------------------------------|-------------------------------------|
A|-7-----6-----|-4-----2-----1---|-1-----------------------------------|-------------------------------------|
E|-------------|-----------------|----3----4----4--4--4--4---4---4--4--|-4---4---0----0--0--0--0---0---0--0--|
B|-------------|-----------------|-------------------------------------|-------------------------------------|


C|-------------------------------------|-------------------------------------|----------------------------------|
G|-------------------------------------|-------------------------------------|----------------------------------|
D|-------------------------------------|-------------------------------------|----------------------------------|
A|-------------------------------------|-------------------------------------|----------------------------------|
E|-0---0---4----4--4--4--4---4---4--4--|-4---4---0----0--0--0--0---0---0--0--|-0----7----7--7--7--7---7---7--7--|
B|-------------------------------------|-------------------------------------|----------------------------------|


C|-------------------------------------|-------------------------------------|--------------------|
G|-------------------------------------|-------------------------------------|--------------------|
D|-------------------------------------|-------------------------------------|--------------------|
A|-------------------------------------|-------------------------------------|--------------------|
E|-7---7---3----3--3--3--3---3---3--3--|-3---3---7----7--7--7--7---7---7--7--|-7---7---3-----3----|
B|-------------------------------------|-------------------------------------|--------------------|


C|------------------------------|------------------------------|------------------------------|
G|------------------------------|------------------------------|------------------------------|
D|------------------------------|------------------------------|------------------------------|
A|-----------6--6---7---7--9----|-10--------6--6---7---7--9----|-10--------6--6---7---7--9----|
E|------8-----------------------|------8-----------------------|------8-----------------------|
B|------------------------------|------------------------------|------------------------------|


C|------------------------------|------------------------------|-----------------------------------|
G|------------------------------|------------------------------|-----------------------------------|
D|------------------------------|------------------------------|-----------------------------------|
A|-10--------6--6---7---7--9----|-10--------6--6---7---7--9----|-10-------------6--6---7---7--9----|
E|------8-----------------------|------8-----------------------|-----6--7--8-----------------------|
B|------------------------------|------------------------------|-----------------------------------|


C|-----------------------------------|---------------------------------|-----------------------------------|
G|-----------------------------------|---------------------------------|-----------------------------------|
D|-----------------------------------|------------------------------7--|-7---8---8--10---11-------------7--|
A|------9--9---10--10-12---13--------|------9--9---10--10-12---9-------|---------------------7--8--9-------|
E|-11--------------------------9--10-|-11------------------------------|-----------------------------------|
B|-----------------------------------|---------------------------------|-----------------------------------|


C|------------------------------|-----------------|-----------------------|-------------------------------------|
G|------------------------------|-----------------|-----------------------|-------------------------------------|
D|-7---8---8--10---11--13-------|-----------------|-----------------------|-------------------------------------|
A|-------------------------7----|------6-----4----|-----2-----1---1-------|-------------------------------------|
E|------------------------------|-----------------|------------------3----|-4----4--4--4--4---4---4--4--4---4---|
B|------------------------------|-----------------|-----------------------|-------------------------------------|


C|-------------------------------------|-------------------------------------|-------------------------------------|
G|-------------------------------------|-------------------------------------|-------------------------------------|
D|-------------------------------------|-------------------------------------|-------------------------------------|
A|-------------------------------------|-------------------------------------|-------------------------------------|
E|-0----0--0--0--0---0---0--0--0---0---|-4----4--4--4--4---4---4--4--4---4---|-0----0--0--0--0---0---0--0--0---0---|
B|-------------------------------------|-------------------------------------|-------------------------------------|


C|-------------------------------------|-------------------------------------------|
G|-------------------------------------|-------------------------------------------|
D|-------------------------------------|-------------------------------------------|
A|-------------------------------------|-------------------------------------------|
E|-7----7--7--7--7---7---7--7--7---7---|-3----3--3--3--3---3---3---3---3---3---3---|
B|-------------------------------------|-------------------------------------------|


C|-------------------------------------|-----------------------|-------------------------------------|
G|-------------------------------------|-----------------------|-------------------------------------|
D|-------------------------------------|-----------------------|-------------------------------------|
A|-------------------------------------|-----------------------|-------------------------------------|
E|-7----7--7--7--7---7---7--7--7---7---|-3----3--3---3---3-----|-8----8--8--8--8---8---8--8--8---8---|
B|-------------------------------------|-----------------------|-------------------------------------|


C|-----------------------------------------|-------------------------------------|
G|-----------------------------------------|-------------------------------------|
D|-----------------------------------------|-------------------------------------|
A|-----------------------------------------|-------------------------------------|
E|-4----4--4--4--4---4---4--4--4---4---4---|-8----8--8--8--8---8---8--8--8---8---|
B|-----------------------------------------|-------------------------------------|


C|-----------------------|-------------------------------------|-------------------------------------------|
G|-----------------------|-------------------------------------|-------------------------------------------|
D|-----------------------|-------------------------------------|-------------------------------------------|
A|-----------------------|-------------------------------------|-------------------------------------------|
E|-4----4--4---4---4-----|-------------------------------------|-------------------------------------------|
B|-----------------------|-4----4--4--4--4---4---4--4--4---4---|-0----0--0--0--0---0---0---0---0---0---0---|


C|-------------------------------------|-----------------------|------------------------------|
G|-------------------------------------|-----------------------|-----13------14-------13------|
D|-------------------------------------|-----------------------|-11------11-------11------11--|
A|-------------------------------------|-----------------------|------------------------------|
E|-------------------------------------|-----------------------|------------------------------|
B|-4----4--4--4--4---4---4--4--4---4---|-0----0--0---0---0-----|------------------------------|


C|---------------------------|------------------------------|------------------------------|
G|-14-------14------13-------|-14------13-------13------14--|---------13------14-------14--|
D|---------------------------|--------------11------11------|-----11------11---------------|
A|------14------14-------14--|-----14-----------------------|----------------------14------|
E|---------------------------|------------------------------|------------------------------|
B|---------------------------|------------------------------|------------------------------|


C|---------------------------|------------------------------|---------------------------|
G|-----13-------14------13---|-----13------14-------13------|-14-------14------13-------|
D|---------------------------|-11------11-------11------11--|---------------------------|
A|-14-------14------14-------|------------------------------|------14------14-------14--|
E|---------------------------|------------------------------|---------------------------|
B|---------------------------|------------------------------|---------------------------|


C|------------------------------|------------------------------|---------------------------|
G|-14------13-------13------14--|---------13------14-------14--|-----13-------14------13---|
D|--------------11------11------|-----11------11---------------|---------------------------|
A|-----14-----------------------|----------------------14------|-14-------14------14-------|
E|------------------------------|------------------------------|---------------------------|
B|------------------------------|------------------------------|---------------------------|


C|---------------------------------|---------------------------------|---------------------------------|
G|---------------------------------|---------------------------------|---------------------------------|
D|---------------------------------|---------------------------------|---------------------------------|
A|---------------------------------|---------------------------------|---------------------------------|
E|---------------------------------|---------------------------------|---------------------------------|
B|-2---2---2---2---2---2---2---2---|-2---2---0---0---0---0---0---0---|-0---0---0---0---2---2---2---2---|


C|---------------------------------|---------------------------------|---------------------------------|
G|---------------------------------|---------------------------------|---------------------------------|
D|---------------------------------|---------------------------------|---------------------------------|
A|---------------------------------|---------------------------------|---------------------------------|
E|---------------------------------|---------------------------------|-5---5---5---5---5---5---5---5---|
B|-2---2---2---2---2---2---0---0---|-0---0---0---0---0---0---0---0---|---------------------------------|


C|---------------------------------|---------------------------------|---------------------------------|
G|---------------------------------|---------------------------------|---------------------------------|
D|---------------------------------|---------------------------------|---------------------------------|
A|---------------------------------|---------------------------------|---------------------------------|
E|-5---5---4---4---4---4---4---4---|-4---4---4---4---2---2---2---2---|-2-------------------------------|
B|---------------------------------|---------------------------------|-----5---5---5---5---5---4---4---|


C|---------------------------------|---------------------------------|-----------------------------------|
G|---------------------------------|---------------------------------|-----------------------------------|
D|---------------------------------|---------------------------------|-----------------------------------|
A|---------------------------------|---------------------------------|-11--9-----------------------------|
E|-----------------4---4---4---4---|-9---9---9---9---9---9---9---12--|---------12-11-9---7---7---7---7---|
B|-4---4---4---4-------------------|---------------------------------|-----------------------------------|


C|---------------------------------|---------------------------------|-----------------------------------|
G|---------------------------------|---------------------------------|-----------------------------------|
D|---------------------------------|---------------------------------|-----------------------------------|
A|---------------------------------|-------------------------11--9---|-----------------------------------|
E|-7---7---7---7---7---7---9---9---|-9---9---9---9---9---12----------|-12-11-9---7---7---7---7---7---7---|
B|---------------------------------|---------------------------------|-----------------------------------|


C|---------------------------------|---------------------------------|---------------------------------|
G|---------------------------------|---------------------------------|---------------------------------|
D|---------------------------------|---------------------------------|---------------------------------|
A|---------------------------------|---------------------------------|---------------------------------|
E|-7---7---7---7---4---4---4---4---|-4---4---5---5---5---5---5---5---|-7---7---7---7---7---------------|
B|---------------------------------|---------------------------------|---------------------7---7---7---|


C|---------------------------------|---------------------------------|---------------------------------|
G|---------------------------------|---------------------------------|---------------------------------|
D|---------------------------------|---------------------------------|---------------------------------|
A|---------------------------------|---------------------------------|---------------------------------|
E|---------4---4---4---4---4---4---|-5---5---5---5---5---5-----------|---------------------------------|
B|-7---7---------------------------|-------------------------5---5---|-5---5---5---4---4---4---4---4---|


C|---------------------------------|---------------------------------|---------------------------------|
G|---------------------------------|---------------------------------|---------------------------------|
D|---------------------------------|---------------------------------|---------------------------------|
A|---------------------------------|---------------------------------|---------------------------------|
E|-4---4---4---4---4-------4---4---|-4---4---4-------4---4---4---4---|-4-------4---4---4---4---4-------|
B|---------------------4-----------|-------------4-------------------|-----4-----------------------4---|


C|---------------------------------|---------------------------------|---------------------------------|
G|---------------------------------|---------------------------------|---------------------------------|
D|---------------------------------|---------------------------------|---------------------------------|
A|-4---4---4---4---4---4---6---6---|-6---6---6---6-------------------|---------7---7---7---7---7---7---|
E|---------------------------------|-----------------7---7---7---7---|-7---7---------------------------|
B|---------------------------------|---------------------------------|---------------------------------|


C|---------------------------------|---------------------------------|---------------------------------|
G|---------------------------------|---------------------------------|---------------------------------|
D|---------------------------------|---------------------------------|---------------------------------|
A|---------------------------------|---------------------------------|---------3---3---3---3---3---3---|
E|-5---5---5---5---5---5-----------|-----------------4---4---4---4---|-4---4---------------------------|
B|-------------------------4---4---|-4---4---4---4-------------------|---------------------------------|


C|---------------------------------|---------------------------------|---------------------------------|
G|---------------------------------|---------------------------------|---------------------------------|
D|---------------------------------|-----------------9---9---9---9---|-9---9---------------------------|
A|-4---4---4---4---4---4---6---6---|-6---6---6---6-------------------|---------7---7---7---7---7---7---|
E|---------------------------------|---------------------------------|---------------------------------|
B|---------------------------------|---------------------------------|---------------------------------|


C|---------------------------------|---------------------------------|---------------------------------|
G|---------------------------------|---------------------------------|---------------------------------|
D|---------------------------------|---------------------------------|---------------------------------|
A|---------------------------------|---------------------------------|---------------------------------|
E|-5---5---5---5---5---5-----------|-----------------4---4---4---4---|-4-------4---4---4---4---4-------|
B|-------------------------4---4---|-4---4---4---4-------------------|-----4-----------------------4---|


C|---------------------------------|---------------------------------|---------------------------------|
G|---------------------------------|---------------------------------|---------------------------------|
D|---------------------------------|---------------------------------|---------------------------------|
A|---------------------------------|-----------------4---4---4---4---|-4---4---6---6---6---6---6---6---|
E|-4---4---4---4---4-------4---4---|-4---4---4-----------------------|---------------------------------|
B|---------------------4-----------|-------------4-------------------|---------------------------------|


C|---------------------------------|---------------------------------|---------------------------------|
G|---------------------------------|---------------------------------|---------------------------------|
D|---------------------------------|---------------------------------|---------------------------------|
A|-------------------------7---7---|-7---7---7---7-------------------|---------------------------------|
E|-7---7---7---7---7---7-----------|-----------------5---5---5---5---|-5---5---------------------------|
B|---------------------------------|---------------------------------|---------4---4---4---4---4---4---|


C|---------------------------------|---------------------------------|---------------------------------|
G|---------------------------------|---------------------------------|---------------------------------|
D|---------------------------------|---------------------------------|---------------------------------|
A|-------------------------3---3---|-3---3---3---3---4---4---4---4---|-4---4---6---6---6---6---6---6---|
E|-4---4---4---4---4---4-----------|---------------------------------|---------------------------------|
B|---------------------------------|---------------------------------|---------------------------------|


C|---------------------------------|---------------------------------|---------------------------------|
G|---------------------------------|---------------------------------|---------------------------------|
D|-9---9---9---9---9---9-----------|---------------------------------|---------------------------------|
A|-------------------------7---7---|-7---7---7---7-------------------|---------------------------------|
E|---------------------------------|-----------------5---5---5---5---|-5---5---------------------------|
B|---------------------------------|---------------------------------|---------4---4---4---4---4---4---|


C|---------------------------------|---------------------------------|---------------------------------|
G|---------------------------------|---------------------------------|---------------------------------|
D|---------------------------------|---------------------------------|---------------------------------|
A|---------------------------------|---------------------------------|---------------------------------|
E|-4---4---4---4---4-------4---4---|-4---4---4-------4---4---4---4---|-4-------4---4---4---4---4-------|
B|---------------------4-----------|-------------4-------------------|-----4-----------------------4---|


C|---------------------------------|---------------------------------|---------------------------------|
G|---------------------------------|---------------------------------|---------------------------------|
D|---------------------------------|---------------------------------|---------------------------------|
A|-4---4---4---4---4---4---6---6---|-6---6---6---6-------------------|---------7---7---7---7---7---7---|
E|---------------------------------|-----------------7---7---7---7---|-7---7---------------------------|
B|---------------------------------|---------------------------------|---------------------------------|


C|---------------------------------|---------------------------------|---------------------------------|
G|---------------------------------|---------------------------------|---------------------------------|
D|---------------------------------|---------------------------------|---------------------------------|
A|---------------------------------|---------------------------------|---------3---3---3---3---3---3---|
E|-5---5---5---5---5---5-----------|-----------------4---4---4---4---|-4---4---------------------------|
B|-------------------------4---4---|-4---4---4---4-------------------|---------------------------------|


C|---------------------------------|---------------------------------|---------------------------------|
G|---------------------------------|---------------------------------|---------------------------------|
D|---------------------------------|-----------------9---9---9---9---|-9---9---------------------------|
A|-4---4---4---4---4---4---6---6---|-6---6---6---6-------------------|---------7---7---7---7---7---7---|
E|---------------------------------|---------------------------------|---------------------------------|
B|---------------------------------|---------------------------------|---------------------------------|


C|---------------------------------|---------------------------------|---------------------------------|
G|---------------------------------|---------------------------------|---------------------------------|
D|---------------------------------|---------------------------------|---------------------------------|
A|---------------------------------|---------------------------------|---------------------------------|
E|-5---5---5---5---5---5-----------|-----------------4---4---4---4---|-4-------4---4---4---4---4-------|
B|-------------------------4---4---|-4---4---4---4-------------------|-----4-----------------------4---|


C|---------------------------------|---------------------------------|---------------------------------|
G|---------------------------------|---------------------14--13--14--|-13----------16--14--16--14------|
D|---------------------------------|-----------------11--------------|-----11--13------------------13--|
A|---------------------------------|---------------------------------|---------------------------------|
E|-4---4---4---4---4-------4---4---|-4---4---4-----------------------|---------------------------------|
B|---------------------4-----------|-------------4-------------------|---------------------------------|


C|---------------------------------|---------------------------------|---------------------------------|
G|-----13--11--13--11----------14--|-13--14--13----------13--11--13--|-11----------13--11--13--11------|
D|-9-------------------9---14------|-------------14------------------|---------------------------------|
A|---------------------------------|-----------------12--------------|-----12--------------------------|
E|---------------------------------|---------------------------------|---------11------------------11--|
B|---------------------------------|---------------------------------|---------------------------------|


C|---------------------------------|---------------------------------|---------------------------------|
G|-----14--13--14--13----------14--|-13--14--13----------14--13--14--|-13----------16--14--16--14------|
D|-------------------------10------|-------------10--11--------------|-----11--13------------------13--|
A|-11------------------11----------|---------------------------------|---------------------------------|
E|---------------------------------|---------------------------------|---------------------------------|
B|---------------------------------|---------------------------------|---------------------------------|


C|---------------------------------|---------------------------------|---------------------------------|
G|-----13--11--13--11----------14--|-13--14--13----------13--11--13--|-11----------13--11--13--11------|
D|-9-------------------9---14------|-------------14------------------|---------------------------------|
A|---------------------------------|-----------------12--------------|-----12--------------------------|
E|---------------------------------|---------------------------------|---------11------------------11--|
B|---------------------------------|---------------------------------|---------------------------------|


C|---------------------------------|---------------------------------|---------------------------------|
G|---------------------------------|---------------------14--13--14--|-13------------------------------|
D|-----14--13--14--13----------14--|-13--14--13----------------------|---------------------------------|
A|-11----------------------11------|-----------------11--------------|---------11--12--11--12--11------|
E|---------------------11----------|-------------11------------------|-----11----------------------11--|
B|---------------------------------|---------------------------------|---------------------------------|


C|-------------|-------------|-------------|-----------------|--------------------|
G|-------------|-------------|-------------|-----------------|--------------------|
D|-------------|-------------|-------------|-----------------|--------------------|
A|-------------|-------------|-------------|-----------------|--------------------|
E|-------------|-------------|-------------|-----------------|------------7---7---|
B|-2------2----|------0------|-0-----2-----|------2-----0----|-------0------------|


C|-------------|-------------|--------------------|-------------|-------------|---------------------------|
G|-------------|-------------|--------------------|-------------|-------------|---------------------------|
D|-------------|-------------|--------------------|-------------|-------------|---------------------------|
A|-------------|-------------|--------------------|-------------|-------------|---------------------------|
E|-5------5----|------4------|-4----4---4---2-----|------0------|--------4----|-----5---5---5---4-----5---|
B|-------------|-------------|--------------------|-------------|-4-----------|---------------------------|


C|---------------------------|---------------------|-------------|-------------|-------------|
G|---------------------------|---------------------|-------------|-------------|-------------|
D|---------------------------|---------------------|-------------|-------------|-------------|
A|---------------------------|---------------------|-------------|-------------|-------------|
E|-5---5---4-----5---5---5---|-4----4----4---------|-------------|-------------|-------------|
B|---------------------------|----------------2----|-------2-----|------2------|-2------2----|


C|-------------|-------------|-------------|-------------|-----------------|--------|
G|-------------|-------------|-------------|-------------|-----------------|--------|
D|-------------|-------------|-------------|-------------|-----------------|--------|
A|-------------|-------------|-------------|-------------|-----------------|--------|
E|-------------|-------------|-------------|-------------|-----------------|--------|
B|-------2-----|-2------2----|------2------|-2-----2-----|------2----------|--------|


C|--------|--------|--------|--------|
G|--------|--------|--------|--------|
D|--------|--------|--------|--------|
A|--------|--------|--------|--------|
E|--------|--------|--------|--------|
B|--------|--------|--------|--------|